ISO-10303-21;
HEADER;
FILE_DESCRIPTION (( 'STEP AP203' ),
    '1' );
FILE_NAME ('327114.step',
    '2021-12-02T07:16:36',
    ( '' ),
    ( '' ),
    'SwSTEP 2.0',
    'SolidWorks 2019',
    '' );
FILE_SCHEMA (( 'CONFIG_CONTROL_DESIGN' ));
ENDSEC;

DATA;
#1 = CARTESIAN_POINT ( 'NONE',  ( 0.0000000000000000000, 0.0000000000000000000, 0.0000000000000000000 ) ) ;
#2 =( LENGTH_UNIT ( ) NAMED_UNIT ( * ) SI_UNIT ( .MILLI., .METRE. ) );
#3 = ADVANCED_BREP_SHAPE_REPRESENTATION ( '327114', ( #11, #114, #127 ), #143 ) ;
#4 = PERSON_AND_ORGANIZATION_ROLE ( 'design_supplier' ) ;
#5 = DATE_AND_TIME ( #50, #100 ) ;
#6 = CIRCLE ( 'NONE', #234, 1.499999999999996003 ) ;
#7 = APPLICATION_PROTOCOL_DEFINITION ( 'international standard', 'config_control_design', 1994, #280 ) ;
#8 = PRODUCT_DEFINITION ( 'UNKNOWN', '', #270, #209 ) ;
#9 = EDGE_CURVE ( 'NONE', #76, #76, #57, .T. ) ;
#10 = EDGE_LOOP ( 'NONE', ( #267 ) ) ;
#11 = MANIFOLD_SOLID_BREP ( 'Corps-Déplacer/Copier1[1]', #198 ) ;
#12 = CIRCLE ( 'NONE', #208, 1.295384493975580975 ) ;
#13 = PERSON ( 'UNSPECIFIED', 'UNSPECIFIED', 'UNSPECIFIED', ('UNSPECIFIED'), ('UNSPECIFIED'), ('UNSPECIFIED') ) ;
#14 = EDGE_LOOP ( 'NONE', ( #247 ) ) ;
#15 = ORIENTED_EDGE ( 'NONE', *, *, #19, .T. ) ;
#16 = AXIS2_PLACEMENT_3D ( 'NONE', #45, #97, #99 ) ;
#17 = CLOSED_SHELL ( 'NONE', ( #200, #284, #162, #167 ) ) ;
#18 = CARTESIAN_POINT ( 'NONE',  ( 9.255123958372177158E-14, -3.246260492713376549E-15, 26.50772855466203737 ) ) ;
#19 = EDGE_CURVE ( 'NONE', #260, #260, #160, .T. ) ;
#20 = DIRECTION ( 'NONE',  ( -3.491481338843133355E-15, 1.224646799147353454E-16, -1.000000000000000000 ) ) ;
#21 = FACE_OUTER_BOUND ( 'NONE', #10, .T. ) ;
#22 = AXIS2_PLACEMENT_3D ( 'NONE', #90, #174, #153 ) ;
#23 = UNCERTAINTY_MEASURE_WITH_UNIT (LENGTH_MEASURE( 1.000000000000000082E-05 ), #2, 'distance_accuracy_value', 'NONE');
#24 = CARTESIAN_POINT ( 'NONE',  ( 2.119329172677781757E-13, -7.433606070824434221E-15, 60.69999999999999574 ) ) ;
#25 = VERTEX_POINT ( 'NONE', #254 ) ;
#26 = CARTESIAN_POINT ( 'NONE',  ( 2.129803616694311221E-13, 8.998558695971062171E-33, 61.00000000000000000 ) ) ;
#27 = FACE_OUTER_BOUND ( 'NONE', #86, .T. ) ;
#28 = CIRCLE ( 'NONE', #109, 1.500000000000002887 ) ;
#29 = APPROVAL_STATUS ( 'not_yet_approved' ) ;
#30 = COORDINATED_UNIVERSAL_TIME_OFFSET ( 1, 0, .AHEAD. ) ;
#31 = CC_DESIGN_APPROVAL ( #169, ( #8 ) ) ;
#32 = AXIS2_PLACEMENT_3D ( 'NONE', #35, #112, #110 ) ;
#33 = APPROVAL_ROLE ( '' ) ;
#34 = PERSON_AND_ORGANIZATION ( #13, #125 ) ;
#35 = CARTESIAN_POINT ( 'NONE',  ( 3.612429800294234159E-14, -1.267069808696350687E-15, 10.34641016151378423 ) ) ;
#36 = CC_DESIGN_SECURITY_CLASSIFICATION ( #173, ( #270 ) ) ;
#37 = EDGE_LOOP ( 'NONE', ( #108 ) ) ;
#38 = ORIENTED_EDGE ( 'NONE', *, *, #256, .F. ) ;
#39 = CC_DESIGN_PERSON_AND_ORGANIZATION_ASSIGNMENT ( #165, #107, ( #216 ) ) ;
#40 = ORIENTED_EDGE ( 'NONE', *, *, #140, .F. ) ;
#41 = DIRECTION ( 'NONE',  ( 4.275831445896959482E-31, 1.000000000000000000, 1.224646799147353454E-16 ) ) ;
#42 = DIRECTION ( 'NONE',  ( -3.491481338843133355E-15, 1.224646799147353454E-16, -1.000000000000000000 ) ) ;
#43 = DIRECTION ( 'NONE',  ( 0.0000000000000000000, 1.000000000000000000, 0.0000000000000000000 ) ) ;
#44 = MECHANICAL_CONTEXT ( 'NONE', #171, 'mechanical' ) ;
#45 = CARTESIAN_POINT ( 'NONE',  ( 3.080639875767077937E-31, -1.080543012277389576E-32, 8.823303282462383284E-17 ) ) ;
#46 = AXIS2_PLACEMENT_3D ( 'NONE', #55, #201, #176 ) ;
#47 = FACE_OUTER_BOUND ( 'NONE', #224, .T. ) ;
#48 = CARTESIAN_POINT ( 'NONE',  ( 8.728703347107833388E-16, 1.464999999999998748, 0.2500000000000000000 ) ) ;
#49 = VERTEX_POINT ( 'NONE', #69 ) ;
#50 = CALENDAR_DATE ( 2021, 2, 12 ) ;
#51 = PERSON_AND_ORGANIZATION ( #13, #125 ) ;
#52 = PRODUCT_RELATED_PRODUCT_CATEGORY ( 'detail', '', ( #216 ) ) ;
#53 = DATE_TIME_ROLE ( 'creation_date' ) ;
#54 = EDGE_CURVE ( 'NONE', #235, #235, #202, .T. ) ;
#55 = CARTESIAN_POINT ( 'NONE',  ( 8.728703347107827472E-16, -3.061616997868381785E-17, 0.2499999999999998335 ) ) ;
#56 = TOROIDAL_SURFACE ( 'NONE', #288, 3.265000000000000124, 2.000000000000000000 ) ;
#57 = CIRCLE ( 'NONE', #32, 1.264999999999998348 ) ;
#58 = EDGE_LOOP ( 'NONE', ( #222 ) ) ;
#59 = ORIENTED_EDGE ( 'NONE', *, *, #78, .F. ) ;
#60 = ADVANCED_FACE ( 'NONE', ( #181, #275 ), #129, .T. ) ;
#61 = ORIENTED_EDGE ( 'NONE', *, *, #140, .T. ) ;
#62 = EDGE_LOOP ( 'NONE', ( #269 ) ) ;
#63 = APPROVAL ( #102, 'UNSPECIFIED' ) ;
#64 = FACE_OUTER_BOUND ( 'NONE', #62, .T. ) ;
#65 = DIRECTION ( 'NONE',  ( -4.275831445896959482E-31, -1.000000000000000000, -1.224646799147353454E-16 ) ) ;
#66 = LOCAL_TIME ( 8, 16, 36.00000000000000000, #263 ) ;
#67 = DIRECTION ( 'NONE',  ( 1.000000000000000000, 0.0000000000000000000, 0.0000000000000000000 ) ) ;
#68 = FACE_OUTER_BOUND ( 'NONE', #246, .T. ) ;
#69 = CARTESIAN_POINT ( 'NONE',  ( 8.849961221477469775E-14, 1.295384493975578089, 25.34729635533384595 ) ) ;
#70 = FACE_OUTER_BOUND ( 'NONE', #113, .T. ) ;
#71 = CARTESIAN_POINT ( 'NONE',  ( 2.129803616694311221E-13, -7.470345474798856659E-15, 61.00000000000000000 ) ) ;
#72 = APPROVAL_PERSON_ORGANIZATION ( #190, #106, #220 ) ;
#73 = CARTESIAN_POINT ( 'NONE',  ( 2.119329172677781757E-13, 1.499999999999995559, 60.69999999999999574 ) ) ;
#74 = AXIS2_PLACEMENT_3D ( 'NONE', #71, #93, #210 ) ;
#75 = DIRECTION ( 'NONE',  ( 3.491481338843133355E-15, -1.224646799147353454E-16, 1.000000000000000000 ) ) ;
#76 = VERTEX_POINT ( 'NONE', #257 ) ;
#77 = PERSON_AND_ORGANIZATION_ROLE ( 'classification_officer' ) ;
#78 = EDGE_CURVE ( 'NONE', #182, #182, #94, .T. ) ;
#79 = PERSON_AND_ORGANIZATION ( #13, #125 ) ;
#80 = CC_DESIGN_PERSON_AND_ORGANIZATION_ASSIGNMENT ( #51, #77, ( #173 ) ) ;
#81 = AXIS2_PLACEMENT_3D ( 'NONE', #1, #124, #212 ) ;
#82 = ADVANCED_FACE ( 'NONE', ( #47 ), #179, .F. ) ;
#83 = CALENDAR_DATE ( 2021, 2, 12 ) ;
#84 = DATE_TIME_ROLE ( 'classification_date' ) ;
#85 = ORIENTED_EDGE ( 'NONE', *, *, #19, .F. ) ;
#86 = EDGE_LOOP ( 'NONE', ( #15 ) ) ;
#87 = EDGE_LOOP ( 'NONE', ( #203 ) ) ;
#88 = AXIS2_PLACEMENT_3D ( 'NONE', #285, #20, #123 ) ;
#89 = EDGE_LOOP ( 'NONE', ( #248 ) ) ;
#90 = CARTESIAN_POINT ( 'NONE',  ( 6.161279751534155873E-31, -2.161086024554779153E-32, 1.764660656492476657E-16 ) ) ;
#91 = EDGE_CURVE ( 'NONE', #98, #98, #28, .T. ) ;
#92 = DIRECTION ( 'NONE',  ( 4.275831445896959482E-31, 1.000000000000000000, 1.224646799147353700E-16 ) ) ;
#93 = DIRECTION ( 'NONE',  ( -3.491481338843133355E-15, 1.224646799147353454E-16, -1.000000000000000000 ) ) ;
#94 = CIRCLE ( 'NONE', #227, 1.265000000000000124 ) ;
#95 = CARTESIAN_POINT ( 'NONE',  ( 3.491481338843133355E-14, 1.464999999999998748, 10.00000000000000000 ) ) ;
#96 = DIRECTION ( 'NONE',  ( 4.275831445896960358E-31, 1.000000000000000000, 1.224646799147353454E-16 ) ) ;
#97 = DIRECTION ( 'NONE',  ( 3.491481338843133355E-15, -1.224646799147353454E-16, 1.000000000000000000 ) ) ;
#98 = VERTEX_POINT ( 'NONE', #73 ) ;
#99 = DIRECTION ( 'NONE',  ( -4.275831445896959482E-31, -1.000000000000000000, -1.224646799147353454E-16 ) ) ;
#100 = LOCAL_TIME ( 8, 16, 36.00000000000000000, #30 ) ;
#101 =( NAMED_UNIT ( * ) SI_UNIT ( $, .STERADIAN. ) SOLID_ANGLE_UNIT ( ) );
#102 = APPROVAL_STATUS ( 'not_yet_approved' ) ;
#103 = APPROVAL_ROLE ( '' ) ;
#104 = AXIS2_PLACEMENT_3D ( 'NONE', #211, #161, #281 ) ;
#105 = CALENDAR_DATE ( 2021, 2, 12 ) ;
#106 = APPROVAL ( #29, 'UNSPECIFIED' ) ;
#107 = PERSON_AND_ORGANIZATION_ROLE ( 'design_owner' ) ;
#108 = ORIENTED_EDGE ( 'NONE', *, *, #54, .F. ) ;
#109 = AXIS2_PLACEMENT_3D ( 'NONE', #24, #207, #166 ) ;
#110 = DIRECTION ( 'NONE',  ( 0.0000000000000000000, 1.000000000000000000, 0.0000000000000000000 ) ) ;
#111 = ADVANCED_FACE ( 'NONE', ( #229, #253 ), #273, .T. ) ;
#112 = DIRECTION ( 'NONE',  ( -3.491481338843133355E-15, 1.224646799147353454E-16, -1.000000000000000000 ) ) ;
#113 = EDGE_LOOP ( 'NONE', ( #154 ) ) ;
#114 = MANIFOLD_SOLID_BREP ( 'Corps-Déplacer/Copier1[2]', #17 ) ;
#115 = ORIENTED_EDGE ( 'NONE', *, *, #91, .F. ) ;
#116 = DIRECTION ( 'NONE',  ( 0.0000000000000000000, 1.000000000000000000, 0.0000000000000000000 ) ) ;
#117 = DIRECTION ( 'NONE',  ( -3.491481338843133355E-15, 1.224646799147353454E-16, -1.000000000000000000 ) ) ;
#118 = CYLINDRICAL_SURFACE ( 'NONE', #119, 1.499999999999999334 ) ;
#119 = AXIS2_PLACEMENT_3D ( 'NONE', #158, #302, #96 ) ;
#120 = CARTESIAN_POINT ( 'NONE',  ( 8.728703347107827472E-16, -3.061616997868381785E-17, 0.2499999999999998335 ) ) ;
#121 = ADVANCED_FACE ( 'NONE', ( #68, #183 ), #264, .T. ) ;
#122 = DIRECTION ( 'NONE',  ( 3.491481338843133355E-15, -1.224646799147353454E-16, 1.000000000000000000 ) ) ;
#123 = DIRECTION ( 'NONE',  ( 0.0000000000000000000, 1.000000000000000000, 0.0000000000000000000 ) ) ;
#124 = DIRECTION ( 'NONE',  ( -3.491481338843133355E-15, 1.224646799147353454E-16, -1.000000000000000000 ) ) ;
#125 = ORGANIZATION ( 'UNSPECIFIED', 'UNSPECIFIED', '' ) ;
#126 = CC_DESIGN_PERSON_AND_ORGANIZATION_ASSIGNMENT ( #34, #172, ( #8 ) ) ;
#127 = AXIS2_PLACEMENT_3D ( 'NONE', #206, #278, #67 ) ;
#128 = LOCAL_TIME ( 8, 16, 36.00000000000000000, #286 ) ;
#129 = CONICAL_SURFACE ( 'NONE', #74, 1.200000000000002842, 0.7853981633974453924 ) ;
#130 = DATE_AND_TIME ( #266, #128 ) ;
#131 = COORDINATED_UNIVERSAL_TIME_OFFSET ( 1, 0, .AHEAD. ) ;
#132 = PRODUCT_DEFINITION_SHAPE ( 'NONE', 'NONE',  #8 ) ;
#133 = EDGE_LOOP ( 'NONE', ( #38 ) ) ;
#134 = EDGE_LOOP ( 'NONE', ( #85 ) ) ;
#135 = ADVANCED_FACE ( 'NONE', ( #277, #164 ), #299, .T. ) ;
#136 = DIRECTION ( 'NONE',  ( 0.0000000000000000000, 1.000000000000000000, 0.0000000000000000000 ) ) ;
#137 = FACE_OUTER_BOUND ( 'NONE', #133, .T. ) ;
#138 = DIRECTION ( 'NONE',  ( 4.275831445896959482E-31, 1.000000000000000000, 1.224646799147353454E-16 ) ) ;
#139 = PLANE ( 'NONE',  #283 ) ;
#140 = EDGE_CURVE ( 'NONE', #25, #25, #274, .T. ) ;
#141 = DIRECTION ( 'NONE',  ( 3.491481338843133355E-15, -1.224646799147353454E-16, 1.000000000000000000 ) ) ;
#142 = CARTESIAN_POINT ( 'NONE',  ( 2.129803616694311221E-13, -7.470345474798856659E-15, 61.00000000000000000 ) ) ;
#143 =( GEOMETRIC_REPRESENTATION_CONTEXT ( 3 ) GLOBAL_UNCERTAINTY_ASSIGNED_CONTEXT ( ( #23 ) ) GLOBAL_UNIT_ASSIGNED_CONTEXT ( ( #2, #184, #101 ) ) REPRESENTATION_CONTEXT ( 'NONE', 'WORKASPACE' ) );
#144 = CONICAL_SURFACE ( 'NONE', #175, 1.464999999999998748, 0.7853981633974432830 ) ;
#145 = FACE_OUTER_BOUND ( 'NONE', #14, .T. ) ;
#146 = CARTESIAN_POINT ( 'NONE',  ( 8.728703347107833388E-14, -3.061616997868383831E-15, 25.00000000000000000 ) ) ;
#147 = CARTESIAN_POINT ( 'NONE',  ( 9.255123958372177158E-14, 1.499999999999992673, 26.50772855466203737 ) ) ;
#148 = APPLICATION_PROTOCOL_DEFINITION ( 'international standard', 'config_control_design', 1994, #171 ) ;
#149 = CALENDAR_DATE ( 2021, 2, 12 ) ;
#150 = APPROVAL_DATE_TIME ( #5, #169 ) ;
#151 = EDGE_CURVE ( 'NONE', #49, #49, #12, .T. ) ;
#152 = AXIS2_PLACEMENT_3D ( 'NONE', #177, #205, #136 ) ;
#153 = DIRECTION ( 'NONE',  ( 4.275831445896959482E-31, 1.000000000000000000, 1.224646799147353700E-16 ) ) ;
#154 = ORIENTED_EDGE ( 'NONE', *, *, #54, .T. ) ;
#155 = EDGE_LOOP ( 'NONE', ( #295 ) ) ;
#156 = ORIENTED_EDGE ( 'NONE', *, *, #256, .T. ) ;
#157 = EDGE_LOOP ( 'NONE', ( #115 ) ) ;
#158 = CARTESIAN_POINT ( 'NONE',  ( 0.0000000000000000000, 0.0000000000000000000, 0.0000000000000000000 ) ) ;
#159 = DIRECTION ( 'NONE',  ( -3.491481338843133355E-15, 1.224646799147353454E-16, -1.000000000000000000 ) ) ;
#160 = CIRCLE ( 'NONE', #46, 1.464999999999998748 ) ;
#161 = DIRECTION ( 'NONE',  ( -3.491481338843133355E-15, 1.224646799147353454E-16, -1.000000000000000000 ) ) ;
#162 = ADVANCED_FACE ( 'NONE', ( #252, #296 ), #272, .T. ) ;
#163 = DIRECTION ( 'NONE',  ( 0.0000000000000000000, -1.000000000000000000, 0.0000000000000000000 ) ) ;
#164 = FACE_OUTER_BOUND ( 'NONE', #87, .T. ) ;
#165 = PERSON_AND_ORGANIZATION ( #13, #125 ) ;
#166 = DIRECTION ( 'NONE',  ( 0.0000000000000000000, 1.000000000000000000, 0.0000000000000000000 ) ) ;
#167 = ADVANCED_FACE ( 'NONE', ( #137 ), #139, .T. ) ;
#168 = FACE_OUTER_BOUND ( 'NONE', #155, .T. ) ;
#169 = APPROVAL ( #217, 'UNSPECIFIED' ) ;
#170 = AXIS2_PLACEMENT_3D ( 'NONE', #142, #42, #43 ) ;
#171 = APPLICATION_CONTEXT ( 'configuration controlled 3d designs of mechanical parts and assemblies' ) ;
#172 = PERSON_AND_ORGANIZATION_ROLE ( 'creator' ) ;
#173 = SECURITY_CLASSIFICATION ( '', '', #265 ) ;
#174 = DIRECTION ( 'NONE',  ( -3.491481338843133355E-15, 1.224646799147353454E-16, -1.000000000000000000 ) ) ;
#175 = AXIS2_PLACEMENT_3D ( 'NONE', #120, #141, #276 ) ;
#176 = DIRECTION ( 'NONE',  ( 3.943883845161578376E-31, 1.000000000000000000, 1.110104613466387707E-16 ) ) ;
#177 = CARTESIAN_POINT ( 'NONE',  ( 3.612429800294234159E-14, -1.267069808696350687E-15, 10.34641016151378423 ) ) ;
#178 = CC_DESIGN_PERSON_AND_ORGANIZATION_ASSIGNMENT ( #79, #4, ( #270 ) ) ;
#179 = PLANE ( 'NONE',  #244 ) ;
#180 = FACE_OUTER_BOUND ( 'NONE', #293, .T. ) ;
#181 = FACE_OUTER_BOUND ( 'NONE', #157, .T. ) ;
#182 = VERTEX_POINT ( 'NONE', #301 ) ;
#183 = FACE_BOUND ( 'NONE', #58, .T. ) ;
#184 =( NAMED_UNIT ( * ) PLANE_ANGLE_UNIT ( ) SI_UNIT ( $, .RADIAN. ) );
#185 = CARTESIAN_POINT ( 'NONE',  ( 8.849961221477469775E-14, -3.104148534859897544E-15, 25.34729635533384595 ) ) ;
#186 = EDGE_CURVE ( 'NONE', #187, #187, #6, .T. ) ;
#187 = VERTEX_POINT ( 'NONE', #147 ) ;
#188 = PLANE ( 'NONE',  #218 ) ;
#189 = CIRCLE ( 'NONE', #104, 1.465000000000000080 ) ;
#190 = PERSON_AND_ORGANIZATION ( #13, #125 ) ;
#191 = DATE_AND_TIME ( #149, #66 ) ;
#192 = CIRCLE ( 'NONE', #88, 1.465000000000000080 ) ;
#193 = APPROVAL_DATE_TIME ( #195, #63 ) ;
#194 = ADVANCED_FACE ( 'NONE', ( #64, #21 ), #118, .T. ) ;
#195 = DATE_AND_TIME ( #105, #197 ) ;
#196 = EDGE_LOOP ( 'NONE', ( #290 ) ) ;
#197 = LOCAL_TIME ( 8, 16, 36.00000000000000000, #131 ) ;
#198 = CLOSED_SHELL ( 'NONE', ( #215, #121, #111, #292, #135, #194, #60, #82 ) ) ;
#199 = EDGE_LOOP ( 'NONE', ( #156 ) ) ;
#200 = ADVANCED_FACE ( 'NONE', ( #70 ), #255, .F. ) ;
#201 = DIRECTION ( 'NONE',  ( -3.491481338843133355E-15, 1.224646799147353454E-16, -1.000000000000000000 ) ) ;
#202 = CIRCLE ( 'NONE', #22, 1.215000000000001634 ) ;
#203 = ORIENTED_EDGE ( 'NONE', *, *, #186, .T. ) ;
#204 = CARTESIAN_POINT ( 'NONE',  ( 0.0000000000000000000, 0.0000000000000000000, 0.0000000000000000000 ) ) ;
#205 = DIRECTION ( 'NONE',  ( -3.491481338843133355E-15, 1.224646799147353454E-16, -1.000000000000000000 ) ) ;
#206 = CARTESIAN_POINT ( 'NONE',  ( 0.0000000000000000000, 0.0000000000000000000, 0.0000000000000000000 ) ) ;
#207 = DIRECTION ( 'NONE',  ( -3.491481338843133355E-15, 1.224646799147353454E-16, -1.000000000000000000 ) ) ;
#208 = AXIS2_PLACEMENT_3D ( 'NONE', #185, #259, #116 ) ;
#209 = DESIGN_CONTEXT ( 'detailed design', #280, 'design' ) ;
#210 = DIRECTION ( 'NONE',  ( 0.0000000000000000000, 1.000000000000000000, 0.0000000000000000000 ) ) ;
#211 = CARTESIAN_POINT ( 'NONE',  ( 3.491481338843133355E-14, -1.224646799147353454E-15, 10.00000000000000000 ) ) ;
#212 = DIRECTION ( 'NONE',  ( 4.275831445896959482E-31, 1.000000000000000000, 1.224646799147353454E-16 ) ) ;
#213 = CARTESIAN_POINT ( 'NONE',  ( 8.728703347107833388E-14, -3.035766082959412415E-15, 25.00000000000000000 ) ) ;
#214 = FACE_BOUND ( 'NONE', #37, .T. ) ;
#215 = ADVANCED_FACE ( 'NONE', ( #168 ), #188, .F. ) ;
#216 = PRODUCT ( '327114', '327114', '', ( #44 ) ) ;
#217 = APPROVAL_STATUS ( 'not_yet_approved' ) ;
#218 = AXIS2_PLACEMENT_3D ( 'NONE', #282, #75, #261 ) ;
#219 = LOCAL_TIME ( 8, 16, 36.00000000000000000, #289 ) ;
#220 = APPROVAL_ROLE ( '' ) ;
#221 = APPROVAL_DATE_TIME ( #130, #106 ) ;
#222 = ORIENTED_EDGE ( 'NONE', *, *, #9, .T. ) ;
#223 = EDGE_LOOP ( 'NONE', ( #250 ) ) ;
#224 = EDGE_LOOP ( 'NONE', ( #40 ) ) ;
#225 = EDGE_LOOP ( 'NONE', ( #61 ) ) ;
#226 = ORIENTED_EDGE ( 'NONE', *, *, #241, .F. ) ;
#227 = AXIS2_PLACEMENT_3D ( 'NONE', #146, #279, #251 ) ;
#228 = CARTESIAN_POINT ( 'NONE',  ( 9.255123958372177158E-14, -3.246260492713376549E-15, 26.50772855466203737 ) ) ;
#229 = FACE_OUTER_BOUND ( 'NONE', #89, .T. ) ;
#230 = VERTEX_POINT ( 'NONE', #95 ) ;
#231 = DIRECTION ( 'NONE',  ( 0.0000000000000000000, 1.000000000000000000, 0.0000000000000000000 ) ) ;
#232 = VERTEX_POINT ( 'NONE', #236 ) ;
#233 = CARTESIAN_POINT ( 'NONE',  ( 3.491481338843133355E-14, 1.098574040799809275E-32, 10.00000000000000000 ) ) ;
#234 = AXIS2_PLACEMENT_3D ( 'NONE', #18, #159, #231 ) ;
#235 = VERTEX_POINT ( 'NONE', #303 ) ;
#236 = CARTESIAN_POINT ( 'NONE',  ( 3.491481338843133355E-14, 1.464999999999998748, 10.00000000000000000 ) ) ;
#237 = SHAPE_DEFINITION_REPRESENTATION ( #132, #3 ) ;
#238 = CC_DESIGN_PERSON_AND_ORGANIZATION_ASSIGNMENT ( #240, #243, ( #270 ) ) ;
#239 = DATE_AND_TIME ( #83, #219 ) ;
#240 = PERSON_AND_ORGANIZATION ( #13, #125 ) ;
#241 = EDGE_CURVE ( 'NONE', #230, #230, #192, .T. ) ;
#242 = APPROVAL_PERSON_ORGANIZATION ( #268, #63, #103 ) ;
#243 = PERSON_AND_ORGANIZATION_ROLE ( 'creator' ) ;
#244 = AXIS2_PLACEMENT_3D ( 'NONE', #26, #117, #41 ) ;
#245 = CC_DESIGN_DATE_AND_TIME_ASSIGNMENT ( #239, #84, ( #173 ) ) ;
#246 = EDGE_LOOP ( 'NONE', ( #226 ) ) ;
#247 = ORIENTED_EDGE ( 'NONE', *, *, #151, .T. ) ;
#248 = ORIENTED_EDGE ( 'NONE', *, *, #9, .F. ) ;
#249 = AXIS2_PLACEMENT_3D ( 'NONE', #204, #300, #92 ) ;
#250 = ORIENTED_EDGE ( 'NONE', *, *, #151, .F. ) ;
#251 = DIRECTION ( 'NONE',  ( 0.0000000000000000000, 1.000000000000000000, 0.0000000000000000000 ) ) ;
#252 = FACE_OUTER_BOUND ( 'NONE', #134, .T. ) ;
#253 = FACE_OUTER_BOUND ( 'NONE', #196, .T. ) ;
#254 = CARTESIAN_POINT ( 'NONE',  ( 2.129803616694311221E-13, 1.199999999999995515, 61.00000000000000000 ) ) ;
#255 = PLANE ( 'NONE',  #16 ) ;
#256 = EDGE_CURVE ( 'NONE', #232, #232, #189, .T. ) ;
#257 = CARTESIAN_POINT ( 'NONE',  ( 3.612429800294234159E-14, 1.264999999999997016, 10.34641016151378423 ) ) ;
#258 = CC_DESIGN_APPROVAL ( #63, ( #270 ) ) ;
#259 = DIRECTION ( 'NONE',  ( -3.491481338843133355E-15, 1.224646799147353454E-16, -1.000000000000000000 ) ) ;
#260 = VERTEX_POINT ( 'NONE', #48 ) ;
#261 = DIRECTION ( 'NONE',  ( -4.275831445896959482E-31, -1.000000000000000000, -1.224646799147353454E-16 ) ) ;
#262 = DIRECTION ( 'NONE',  ( -3.491481338843133355E-15, 1.224646799147353454E-16, -1.000000000000000000 ) ) ;
#263 = COORDINATED_UNIVERSAL_TIME_OFFSET ( 1, 0, .AHEAD. ) ;
#264 = CONICAL_SURFACE ( 'NONE', #152, 1.264999999999998348, 0.5235987755982929315 ) ;
#265 = SECURITY_CLASSIFICATION_LEVEL ( 'unclassified' ) ;
#266 = CALENDAR_DATE ( 2021, 2, 12 ) ;
#267 = ORIENTED_EDGE ( 'NONE', *, *, #91, .T. ) ;
#268 = PERSON_AND_ORGANIZATION ( #13, #125 ) ;
#269 = ORIENTED_EDGE ( 'NONE', *, *, #186, .F. ) ;
#270 = PRODUCT_DEFINITION_FORMATION_WITH_SPECIFIED_SOURCE ( 'ANY', '', #216, .NOT_KNOWN. ) ;
#271 = AXIS2_PLACEMENT_3D ( 'NONE', #228, #297, #163 ) ;
#272 = CYLINDRICAL_SURFACE ( 'NONE', #249, 1.464999999999999414 ) ;
#273 = CYLINDRICAL_SURFACE ( 'NONE', #81, 1.264999999999999236 ) ;
#274 = CIRCLE ( 'NONE', #170, 1.200000000000002842 ) ;
#275 = FACE_BOUND ( 'NONE', #225, .T. ) ;
#276 = DIRECTION ( 'NONE',  ( -3.943883845161578376E-31, -1.000000000000000000, -1.110104613466387707E-16 ) ) ;
#277 = FACE_BOUND ( 'NONE', #223, .T. ) ;
#278 = DIRECTION ( 'NONE',  ( 0.0000000000000000000, 0.0000000000000000000, 1.000000000000000000 ) ) ;
#279 = DIRECTION ( 'NONE',  ( -3.491481338843133355E-15, 1.224646799147353454E-16, -1.000000000000000000 ) ) ;
#280 = APPLICATION_CONTEXT ( 'configuration controlled 3d designs of mechanical parts and assemblies' ) ;
#281 = DIRECTION ( 'NONE',  ( 0.0000000000000000000, 1.000000000000000000, 0.0000000000000000000 ) ) ;
#282 = CARTESIAN_POINT ( 'NONE',  ( 3.491481338843133355E-14, 1.098574040799809275E-32, 10.00000000000000000 ) ) ;
#283 = AXIS2_PLACEMENT_3D ( 'NONE', #233, #122, #65 ) ;
#284 = ADVANCED_FACE ( 'NONE', ( #214, #27 ), #144, .T. ) ;
#285 = CARTESIAN_POINT ( 'NONE',  ( 3.491481338843133355E-14, -1.224646799147353454E-15, 10.00000000000000000 ) ) ;
#286 = COORDINATED_UNIVERSAL_TIME_OFFSET ( 1, 0, .AHEAD. ) ;
#287 = PERSON_AND_ORGANIZATION ( #13, #125 ) ;
#288 = AXIS2_PLACEMENT_3D ( 'NONE', #213, #262, #138 ) ;
#289 = COORDINATED_UNIVERSAL_TIME_OFFSET ( 1, 0, .AHEAD. ) ;
#290 = ORIENTED_EDGE ( 'NONE', *, *, #78, .T. ) ;
#291 = APPROVAL_PERSON_ORGANIZATION ( #287, #169, #33 ) ;
#292 = ADVANCED_FACE ( 'NONE', ( #180, #145 ), #56, .F. ) ;
#293 = EDGE_LOOP ( 'NONE', ( #59 ) ) ;
#294 = CC_DESIGN_DATE_AND_TIME_ASSIGNMENT ( #191, #53, ( #8 ) ) ;
#295 = ORIENTED_EDGE ( 'NONE', *, *, #241, .T. ) ;
#296 = FACE_OUTER_BOUND ( 'NONE', #199, .T. ) ;
#297 = DIRECTION ( 'NONE',  ( 3.491481338843133355E-15, -1.224646799147353454E-16, 1.000000000000000000 ) ) ;
#298 = CC_DESIGN_APPROVAL ( #106, ( #173 ) ) ;
#299 = CONICAL_SURFACE ( 'NONE', #271, 1.499999999999996003, 0.1745329251994260644 ) ;
#300 = DIRECTION ( 'NONE',  ( -3.491481338843133355E-15, 1.224646799147353454E-16, -1.000000000000000000 ) ) ;
#301 = CARTESIAN_POINT ( 'NONE',  ( 8.728703347107833388E-14, 1.264999999999997016, 25.00000000000000000 ) ) ;
#302 = DIRECTION ( 'NONE',  ( -3.491481338843133355E-15, 1.224646799147353454E-16, -1.000000000000000000 ) ) ;
#303 = CARTESIAN_POINT ( 'NONE',  ( 1.135641495829896858E-30, 1.215000000000001634, 3.252606517456513302E-16 ) ) ;
ENDSEC;
END-ISO-10303-21;
