ISO-10303-21;
HEADER;
FILE_DESCRIPTION (( 'STEP AP203' ),
    '1' );
FILE_NAME ('327113.step',
    '2021-12-02T07:16:35',
    ( '' ),
    ( '' ),
    'SwSTEP 2.0',
    'SolidWorks 2019',
    '' );
FILE_SCHEMA (( 'CONFIG_CONTROL_DESIGN' ));
ENDSEC;

DATA;
#1 = CC_DESIGN_DATE_AND_TIME_ASSIGNMENT ( #100, #192, ( #13 ) ) ;
#2 = FACE_OUTER_BOUND ( 'NONE', #297, .T. ) ;
#3 = ADVANCED_BREP_SHAPE_REPRESENTATION ( '327113', ( #57, #59, #47 ), #274 ) ;
#4 = CARTESIAN_POINT ( 'NONE',  ( 0.0000000000000000000, 0.0000000000000000000, 0.0000000000000000000 ) ) ;
#5 = FACE_OUTER_BOUND ( 'NONE', #139, .T. ) ;
#6 = DIRECTION ( 'NONE',  ( -3.491481338843133355E-15, 1.224646799147353454E-16, -1.000000000000000000 ) ) ;
#7 = ORGANIZATION ( 'UNSPECIFIED', 'UNSPECIFIED', '' ) ;
#8 = APPROVAL_DATE_TIME ( #76, #79 ) ;
#9 = APPROVAL_STATUS ( 'not_yet_approved' ) ;
#10 = PERSON_AND_ORGANIZATION ( #243, #7 ) ;
#11 = PLANE ( 'NONE',  #233 ) ;
#12 = VERTEX_POINT ( 'NONE', #275 ) ;
#13 = PRODUCT_DEFINITION ( 'UNKNOWN', '', #117, #63 ) ;
#14 = ORIENTED_EDGE ( 'NONE', *, *, #136, .T. ) ;
#15 = CARTESIAN_POINT ( 'NONE',  ( 8.728703347107833388E-14, -3.035766082959412415E-15, 25.00000000000000000 ) ) ;
#16 = EDGE_CURVE ( 'NONE', #247, #247, #219, .T. ) ;
#17 = VERTEX_POINT ( 'NONE', #60 ) ;
#18 = ORIENTED_EDGE ( 'NONE', *, *, #16, .F. ) ;
#19 = FACE_OUTER_BOUND ( 'NONE', #143, .T. ) ;
#20 = DIRECTION ( 'NONE',  ( 1.000000000000000000, 0.0000000000000000000, 0.0000000000000000000 ) ) ;
#21 = EDGE_LOOP ( 'NONE', ( #48 ) ) ;
#22 = ADVANCED_FACE ( 'NONE', ( #2, #123 ), #209, .T. ) ;
#23 = ORIENTED_EDGE ( 'NONE', *, *, #114, .F. ) ;
#24 = SECURITY_CLASSIFICATION_LEVEL ( 'unclassified' ) ;
#25 = CARTESIAN_POINT ( 'NONE',  ( 8.728703347107827472E-16, -3.061616997868381785E-17, 0.2499999999999998335 ) ) ;
#26 = CALENDAR_DATE ( 2021, 2, 12 ) ;
#27 = CARTESIAN_POINT ( 'NONE',  ( 3.491481338843133355E-14, 1.094824641343154466E-32, 10.00000000000000000 ) ) ;
#28 = EDGE_CURVE ( 'NONE', #12, #12, #165, .T. ) ;
#29 = PERSON_AND_ORGANIZATION ( #243, #7 ) ;
#30 = CC_DESIGN_PERSON_AND_ORGANIZATION_ASSIGNMENT ( #125, #263, ( #266 ) ) ;
#31 = AXIS2_PLACEMENT_3D ( 'NONE', #269, #56, #176 ) ;
#32 = LOCAL_TIME ( 8, 16, 35.00000000000000000, #285 ) ;
#33 = FACE_OUTER_BOUND ( 'NONE', #108, .T. ) ;
#34 = DIRECTION ( 'NONE',  ( -3.491481338843133355E-15, 1.224646799147353454E-16, -1.000000000000000000 ) ) ;
#35 = DIRECTION ( 'NONE',  ( 0.0000000000000000000, 1.000000000000000000, 0.0000000000000000000 ) ) ;
#36 = CIRCLE ( 'NONE', #126, 1.459999999999999964 ) ;
#37 = DIRECTION ( 'NONE',  ( -3.491481338843133355E-15, 1.224646799147353454E-16, -1.000000000000000000 ) ) ;
#38 = EDGE_CURVE ( 'NONE', #295, #295, #147, .T. ) ;
#39 = CARTESIAN_POINT ( 'NONE',  ( 2.129803616694311221E-13, -7.470345474798856659E-15, 61.00000000000000000 ) ) ;
#40 = DIRECTION ( 'NONE',  ( 4.275831445896959482E-31, 1.000000000000000000, 1.224646799147353700E-16 ) ) ;
#41 = CC_DESIGN_APPROVAL ( #79, ( #13 ) ) ;
#42 = AXIS2_PLACEMENT_3D ( 'NONE', #70, #69, #254 ) ;
#43 = APPROVAL_PERSON_ORGANIZATION ( #177, #79, #249 ) ;
#44 = ORIENTED_EDGE ( 'NONE', *, *, #38, .F. ) ;
#45 = EDGE_LOOP ( 'NONE', ( #44 ) ) ;
#46 = FACE_OUTER_BOUND ( 'NONE', #206, .T. ) ;
#47 = AXIS2_PLACEMENT_3D ( 'NONE', #226, #281, #20 ) ;
#48 = ORIENTED_EDGE ( 'NONE', *, *, #38, .T. ) ;
#49 = ADVANCED_FACE ( 'NONE', ( #5, #234 ), #91, .T. ) ;
#50 = COORDINATED_UNIVERSAL_TIME_OFFSET ( 1, 0, .AHEAD. ) ;
#51 = CARTESIAN_POINT ( 'NONE',  ( 3.491481338843133355E-14, -1.224646799147353454E-15, 10.00000000000000000 ) ) ;
#52 = PERSON_AND_ORGANIZATION_ROLE ( 'creator' ) ;
#53 = ADVANCED_FACE ( 'NONE', ( #95 ), #182, .F. ) ;
#54 = AXIS2_PLACEMENT_3D ( 'NONE', #207, #159, #229 ) ;
#55 =( NAMED_UNIT ( * ) SI_UNIT ( $, .STERADIAN. ) SOLID_ANGLE_UNIT ( ) );
#56 = DIRECTION ( 'NONE',  ( -3.491481338843133355E-15, 1.224646799147353454E-16, -1.000000000000000000 ) ) ;
#57 = MANIFOLD_SOLID_BREP ( 'Corps-Déplacer/Copier1[1]', #252 ) ;
#58 = VERTEX_POINT ( 'NONE', #224 ) ;
#59 = MANIFOLD_SOLID_BREP ( 'Corps-Déplacer/Copier1[2]', #170 ) ;
#60 = CARTESIAN_POINT ( 'NONE',  ( 3.612429800294234159E-14, 1.259999999999997122, 10.34641016151378423 ) ) ;
#61 = APPLICATION_CONTEXT ( 'configuration controlled 3d designs of mechanical parts and assemblies' ) ;
#62 = CC_DESIGN_PERSON_AND_ORGANIZATION_ASSIGNMENT ( #300, #203, ( #299 ) ) ;
#63 = DESIGN_CONTEXT ( 'detailed design', #216, 'design' ) ;
#64 = FACE_BOUND ( 'NONE', #303, .T. ) ;
#65 = ORIENTED_EDGE ( 'NONE', *, *, #16, .T. ) ;
#66 = AXIS2_PLACEMENT_3D ( 'NONE', #142, #34, #80 ) ;
#67 = ADVANCED_FACE ( 'NONE', ( #283, #153 ), #194, .T. ) ;
#68 = ORIENTED_EDGE ( 'NONE', *, *, #260, .T. ) ;
#69 = DIRECTION ( 'NONE',  ( 3.491481338843133355E-15, -1.224646799147353454E-16, 1.000000000000000000 ) ) ;
#70 = CARTESIAN_POINT ( 'NONE',  ( 9.265024545692433067E-14, -3.249733151277104549E-15, 26.53608496376012127 ) ) ;
#71 = EDGE_CURVE ( 'NONE', #265, #265, #215, .T. ) ;
#72 = COORDINATED_UNIVERSAL_TIME_OFFSET ( 1, 0, .AHEAD. ) ;
#73 = DIRECTION ( 'NONE',  ( -3.491481338843133355E-15, 1.224646799147353454E-16, -1.000000000000000000 ) ) ;
#74 = CC_DESIGN_DATE_AND_TIME_ASSIGNMENT ( #122, #189, ( #266 ) ) ;
#75 = DIRECTION ( 'NONE',  ( -3.491481338843133355E-15, 1.224646799147353454E-16, -1.000000000000000000 ) ) ;
#76 = DATE_AND_TIME ( #259, #93 ) ;
#77 = AXIS2_PLACEMENT_3D ( 'NONE', #220, #168, #101 ) ;
#78 = DIRECTION ( 'NONE',  ( -3.491481338843133355E-15, 1.224646799147353454E-16, -1.000000000000000000 ) ) ;
#79 = APPROVAL ( #276, 'UNSPECIFIED' ) ;
#80 = DIRECTION ( 'NONE',  ( 0.0000000000000000000, 1.000000000000000000, 0.0000000000000000000 ) ) ;
#81 = APPROVAL_PERSON_ORGANIZATION ( #211, #157, #163 ) ;
#82 = ORIENTED_EDGE ( 'NONE', *, *, #213, .F. ) ;
#83 = CYLINDRICAL_SURFACE ( 'NONE', #198, 1.459999999999999298 ) ;
#84 = DIRECTION ( 'NONE',  ( -3.491481338843133355E-15, 1.224646799147353454E-16, -1.000000000000000000 ) ) ;
#85 = EDGE_LOOP ( 'NONE', ( #82 ) ) ;
#86 = DIRECTION ( 'NONE',  ( 0.0000000000000000000, 1.000000000000000000, 0.0000000000000000000 ) ) ;
#87 = AXIS2_PLACEMENT_3D ( 'NONE', #155, #150, #178 ) ;
#88 = APPLICATION_PROTOCOL_DEFINITION ( 'international standard', 'config_control_design', 1994, #216 ) ;
#89 = DIRECTION ( 'NONE',  ( 3.957390296686105075E-31, 1.000000000000000000, 1.113906341594697464E-16 ) ) ;
#90 = APPLICATION_PROTOCOL_DEFINITION ( 'international standard', 'config_control_design', 1994, #61 ) ;
#91 = CYLINDRICAL_SURFACE ( 'NONE', #110, 1.259999999999999343 ) ;
#92 = AXIS2_PLACEMENT_3D ( 'NONE', #282, #6, #183 ) ;
#93 = LOCAL_TIME ( 8, 16, 35.00000000000000000, #50 ) ;
#94 = EDGE_LOOP ( 'NONE', ( #158 ) ) ;
#95 = FACE_OUTER_BOUND ( 'NONE', #45, .T. ) ;
#96 = APPROVAL_DATE_TIME ( #258, #294 ) ;
#97 = DIRECTION ( 'NONE',  ( 0.0000000000000000000, 1.000000000000000000, 0.0000000000000000000 ) ) ;
#98 = CIRCLE ( 'NONE', #267, 1.210000000000001519 ) ;
#99 = COORDINATED_UNIVERSAL_TIME_OFFSET ( 1, 0, .AHEAD. ) ;
#100 = DATE_AND_TIME ( #26, #32 ) ;
#101 = DIRECTION ( 'NONE',  ( -4.275831445896959482E-31, -1.000000000000000000, -1.224646799147353454E-16 ) ) ;
#102 = APPROVAL_ROLE ( '' ) ;
#103 = CONICAL_SURFACE ( 'NONE', #54, 1.459999999999998632, 0.7853981633974432830 ) ;
#104 = PERSON_AND_ORGANIZATION_ROLE ( 'design_supplier' ) ;
#105 = CARTESIAN_POINT ( 'NONE',  ( 8.728703347107833388E-16, 1.459999999999998632, 0.2500000000000000000 ) ) ;
#106 = ADVANCED_FACE ( 'NONE', ( #64, #46 ), #103, .T. ) ;
#107 = CARTESIAN_POINT ( 'NONE',  ( 2.129803616694311221E-13, 1.199999999999995515, 61.00000000000000000 ) ) ;
#108 = EDGE_LOOP ( 'NONE', ( #18 ) ) ;
#109 = DIRECTION ( 'NONE',  ( -3.491481338843133355E-15, 1.224646799147353454E-16, -1.000000000000000000 ) ) ;
#110 = AXIS2_PLACEMENT_3D ( 'NONE', #4, #180, #40 ) ;
#111 = CC_DESIGN_APPROVAL ( #294, ( #117 ) ) ;
#112 = ADVANCED_FACE ( 'NONE', ( #19 ), #164, .F. ) ;
#113 = DIRECTION ( 'NONE',  ( 4.275831445896959482E-31, 1.000000000000000000, 1.224646799147353454E-16 ) ) ;
#114 = EDGE_CURVE ( 'NONE', #174, #174, #36, .T. ) ;
#115 = VERTEX_POINT ( 'NONE', #221 ) ;
#116 = EDGE_LOOP ( 'NONE', ( #271 ) ) ;
#117 = PRODUCT_DEFINITION_FORMATION_WITH_SPECIFIED_SOURCE ( 'ANY', '', #299, .NOT_KNOWN. ) ;
#118 = ADVANCED_FACE ( 'NONE', ( #217 ), #239, .F. ) ;
#119 = DIRECTION ( 'NONE',  ( -3.491481338843133355E-15, 1.224646799147353454E-16, -1.000000000000000000 ) ) ;
#120 = DIRECTION ( 'NONE',  ( -3.491481338843133355E-15, 1.224646799147353454E-16, -1.000000000000000000 ) ) ;
#121 = ORIENTED_EDGE ( 'NONE', *, *, #28, .F. ) ;
#122 = DATE_AND_TIME ( #235, #214 ) ;
#123 = FACE_OUTER_BOUND ( 'NONE', #116, .T. ) ;
#124 = AXIS2_PLACEMENT_3D ( 'NONE', #179, #135, #210 ) ;
#125 = PERSON_AND_ORGANIZATION ( #243, #7 ) ;
#126 = AXIS2_PLACEMENT_3D ( 'NONE', #51, #73, #97 ) ;
#127 = CC_DESIGN_SECURITY_CLASSIFICATION ( #266, ( #117 ) ) ;
#128 = CARTESIAN_POINT ( 'NONE',  ( 2.119329172677781757E-13, 1.499999999999995559, 60.69999999999999574 ) ) ;
#129 = FACE_OUTER_BOUND ( 'NONE', #94, .T. ) ;
#130 = CC_DESIGN_PERSON_AND_ORGANIZATION_ASSIGNMENT ( #141, #104, ( #117 ) ) ;
#131 = DIRECTION ( 'NONE',  ( -3.491481338843133355E-15, 1.224646799147353454E-16, -1.000000000000000000 ) ) ;
#132 = VERTEX_POINT ( 'NONE', #128 ) ;
#133 = CIRCLE ( 'NONE', #66, 1.500000000000002887 ) ;
#134 = CARTESIAN_POINT ( 'NONE',  ( 8.728703347107833388E-14, -3.061616997868383831E-15, 25.00000000000000000 ) ) ;
#135 = DIRECTION ( 'NONE',  ( -3.491481338843133355E-15, 1.224646799147353454E-16, -1.000000000000000000 ) ) ;
#136 = EDGE_CURVE ( 'NONE', #58, #58, #98, .T. ) ;
#137 = EDGE_LOOP ( 'NONE', ( #225 ) ) ;
#138 = DIRECTION ( 'NONE',  ( 0.0000000000000000000, 1.000000000000000000, 0.0000000000000000000 ) ) ;
#139 = EDGE_LOOP ( 'NONE', ( #175 ) ) ;
#140 = CALENDAR_DATE ( 2021, 2, 12 ) ;
#141 = PERSON_AND_ORGANIZATION ( #243, #7 ) ;
#142 = CARTESIAN_POINT ( 'NONE',  ( 2.119329172677781757E-13, -7.433606070824434221E-15, 60.69999999999999574 ) ) ;
#143 = EDGE_LOOP ( 'NONE', ( #14 ) ) ;
#144 = EDGE_LOOP ( 'NONE', ( #121 ) ) ;
#145 = CARTESIAN_POINT ( 'NONE',  ( 9.265024545692433067E-14, -3.249733151277104549E-15, 26.53608496376012127 ) ) ;
#146 = EDGE_LOOP ( 'NONE', ( #268 ) ) ;
#147 = CIRCLE ( 'NONE', #124, 1.200000000000002842 ) ;
#148 = CARTESIAN_POINT ( 'NONE',  ( 8.728703347107833388E-14, 1.259999999999997122, 25.00000000000000000 ) ) ;
#149 = CC_DESIGN_APPROVAL ( #157, ( #266 ) ) ;
#150 = DIRECTION ( 'NONE',  ( -3.491481338843133355E-15, 1.224646799147353454E-16, -1.000000000000000000 ) ) ;
#151 = UNCERTAINTY_MEASURE_WITH_UNIT (LENGTH_MEASURE( 1.000000000000000082E-05 ), #169, 'distance_accuracy_value', 'NONE');
#152 = AXIS2_PLACEMENT_3D ( 'NONE', #171, #240, #35 ) ;
#153 = FACE_OUTER_BOUND ( 'NONE', #146, .T. ) ;
#154 = AXIS2_PLACEMENT_3D ( 'NONE', #39, #84, #201 ) ;
#155 = CARTESIAN_POINT ( 'NONE',  ( 8.849961221477469775E-14, -3.104148534859897544E-15, 25.34729635533384595 ) ) ;
#156 = ORIENTED_EDGE ( 'NONE', *, *, #71, .F. ) ;
#157 = APPROVAL ( #161, 'UNSPECIFIED' ) ;
#158 = ORIENTED_EDGE ( 'NONE', *, *, #28, .T. ) ;
#159 = DIRECTION ( 'NONE',  ( 3.491481338843133355E-15, -1.224646799147353454E-16, 1.000000000000000000 ) ) ;
#160 = CIRCLE ( 'NONE', #246, 1.259999999999998233 ) ;
#161 = APPROVAL_STATUS ( 'not_yet_approved' ) ;
#162 = CARTESIAN_POINT ( 'NONE',  ( 3.612429800294234159E-14, -1.267069808696350687E-15, 10.34641016151378423 ) ) ;
#163 = APPROVAL_ROLE ( '' ) ;
#164 = PLANE ( 'NONE',  #77 ) ;
#165 = CIRCLE ( 'NONE', #87, 1.290384493975580860 ) ;
#166 = PERSON_AND_ORGANIZATION_ROLE ( 'creator' ) ;
#167 = ADVANCED_FACE ( 'NONE', ( #190 ), #11, .T. ) ;
#168 = DIRECTION ( 'NONE',  ( 3.491481338843133355E-15, -1.224646799147353454E-16, 1.000000000000000000 ) ) ;
#169 =( LENGTH_UNIT ( ) NAMED_UNIT ( * ) SI_UNIT ( .MILLI., .METRE. ) );
#170 = CLOSED_SHELL ( 'NONE', ( #112, #106, #264, #167 ) ) ;
#171 = CARTESIAN_POINT ( 'NONE',  ( 3.491481338843133355E-14, -1.224646799147353454E-15, 10.00000000000000000 ) ) ;
#172 = EDGE_LOOP ( 'NONE', ( #68 ) ) ;
#173 = FACE_BOUND ( 'NONE', #232, .T. ) ;
#174 = VERTEX_POINT ( 'NONE', #270 ) ;
#175 = ORIENTED_EDGE ( 'NONE', *, *, #187, .F. ) ;
#176 = DIRECTION ( 'NONE',  ( 0.0000000000000000000, 1.000000000000000000, 0.0000000000000000000 ) ) ;
#177 = PERSON_AND_ORGANIZATION ( #243, #7 ) ;
#178 = DIRECTION ( 'NONE',  ( 0.0000000000000000000, 1.000000000000000000, 0.0000000000000000000 ) ) ;
#179 = CARTESIAN_POINT ( 'NONE',  ( 2.129803616694311221E-13, -7.470345474798856659E-15, 61.00000000000000000 ) ) ;
#180 = DIRECTION ( 'NONE',  ( -3.491481338843133355E-15, 1.224646799147353454E-16, -1.000000000000000000 ) ) ;
#181 = CC_DESIGN_PERSON_AND_ORGANIZATION_ASSIGNMENT ( #184, #166, ( #13 ) ) ;
#182 = PLANE ( 'NONE',  #92 ) ;
#183 = DIRECTION ( 'NONE',  ( 4.275831445896959482E-31, 1.000000000000000000, 1.224646799147353454E-16 ) ) ;
#184 = PERSON_AND_ORGANIZATION ( #243, #7 ) ;
#185 = DIRECTION ( 'NONE',  ( -4.275831445896959482E-31, -1.000000000000000000, -1.224646799147353454E-16 ) ) ;
#186 = AXIS2_PLACEMENT_3D ( 'NONE', #25, #120, #89 ) ;
#187 = EDGE_CURVE ( 'NONE', #17, #17, #160, .T. ) ;
#188 = APPROVAL_DATE_TIME ( #237, #157 ) ;
#189 = DATE_TIME_ROLE ( 'classification_date' ) ;
#190 = FACE_OUTER_BOUND ( 'NONE', #280, .T. ) ;
#191 = SHAPE_DEFINITION_REPRESENTATION ( #228, #3 ) ;
#192 = DATE_TIME_ROLE ( 'creation_date' ) ;
#193 = DIRECTION ( 'NONE',  ( 3.491481338843133355E-15, -1.224646799147353454E-16, 1.000000000000000000 ) ) ;
#194 = CONICAL_SURFACE ( 'NONE', #42, 1.499999999999996003, 0.1745329251994268416 ) ;
#195 = CARTESIAN_POINT ( 'NONE',  ( 3.491481338843133355E-14, 1.094824641343154466E-32, 10.00000000000000000 ) ) ;
#196 = DIRECTION ( 'NONE',  ( 0.0000000000000000000, 1.000000000000000000, 0.0000000000000000000 ) ) ;
#197 =( NAMED_UNIT ( * ) PLANE_ANGLE_UNIT ( ) SI_UNIT ( $, .RADIAN. ) );
#198 = AXIS2_PLACEMENT_3D ( 'NONE', #222, #37, #223 ) ;
#199 = LOCAL_TIME ( 8, 16, 35.00000000000000000, #99 ) ;
#200 = FACE_OUTER_BOUND ( 'NONE', #278, .T. ) ;
#201 = DIRECTION ( 'NONE',  ( 0.0000000000000000000, 1.000000000000000000, 0.0000000000000000000 ) ) ;
#202 = VERTEX_POINT ( 'NONE', #296 ) ;
#203 = PERSON_AND_ORGANIZATION_ROLE ( 'design_owner' ) ;
#204 = CONICAL_SURFACE ( 'NONE', #154, 1.200000000000002842, 0.7853981633974453924 ) ;
#205 = PRODUCT_RELATED_PRODUCT_CATEGORY ( 'detail', '', ( #299 ) ) ;
#206 = EDGE_LOOP ( 'NONE', ( #65 ) ) ;
#207 = CARTESIAN_POINT ( 'NONE',  ( 8.728703347107827472E-16, -3.061616997868381785E-17, 0.2499999999999998335 ) ) ;
#208 = AXIS2_PLACEMENT_3D ( 'NONE', #253, #212, #257 ) ;
#209 = CYLINDRICAL_SURFACE ( 'NONE', #208, 1.499999999999999334 ) ;
#210 = DIRECTION ( 'NONE',  ( 0.0000000000000000000, 1.000000000000000000, 0.0000000000000000000 ) ) ;
#211 = PERSON_AND_ORGANIZATION ( #243, #7 ) ;
#212 = DIRECTION ( 'NONE',  ( -3.491481338843133355E-15, 1.224646799147353454E-16, -1.000000000000000000 ) ) ;
#213 = EDGE_CURVE ( 'NONE', #132, #132, #133, .T. ) ;
#214 = LOCAL_TIME ( 8, 16, 35.00000000000000000, #72 ) ;
#215 = CIRCLE ( 'NONE', #273, 1.260000000000000231 ) ;
#216 = APPLICATION_CONTEXT ( 'configuration controlled 3d designs of mechanical parts and assemblies' ) ;
#217 = FACE_OUTER_BOUND ( 'NONE', #236, .T. ) ;
#218 = CC_DESIGN_PERSON_AND_ORGANIZATION_ASSIGNMENT ( #29, #52, ( #117 ) ) ;
#219 = CIRCLE ( 'NONE', #186, 1.459999999999998632 ) ;
#220 = CARTESIAN_POINT ( 'NONE',  ( 3.091329454381820732E-31, -1.084292411734044248E-32, 8.853919452441068895E-17 ) ) ;
#221 = CARTESIAN_POINT ( 'NONE',  ( 3.491481338843133355E-14, 1.459999999999998632, 10.00000000000000000 ) ) ;
#222 = CARTESIAN_POINT ( 'NONE',  ( 0.0000000000000000000, 0.0000000000000000000, 0.0000000000000000000 ) ) ;
#223 = DIRECTION ( 'NONE',  ( 4.275831445896959482E-31, 1.000000000000000000, 1.224646799147353454E-16 ) ) ;
#224 = CARTESIAN_POINT ( 'NONE',  ( 1.135641495829896858E-30, 1.210000000000001519, 3.252606517456513302E-16 ) ) ;
#225 = ORIENTED_EDGE ( 'NONE', *, *, #71, .T. ) ;
#226 = CARTESIAN_POINT ( 'NONE',  ( 0.0000000000000000000, 0.0000000000000000000, 0.0000000000000000000 ) ) ;
#227 = AXIS2_PLACEMENT_3D ( 'NONE', #145, #109, #196 ) ;
#228 = PRODUCT_DEFINITION_SHAPE ( 'NONE', 'NONE',  #13 ) ;
#229 = DIRECTION ( 'NONE',  ( -3.957390296686105075E-31, -1.000000000000000000, -1.113906341594697464E-16 ) ) ;
#230 = ORIENTED_EDGE ( 'NONE', *, *, #114, .T. ) ;
#231 = ADVANCED_FACE ( 'NONE', ( #200, #173 ), #261, .T. ) ;
#232 = EDGE_LOOP ( 'NONE', ( #293 ) ) ;
#233 = AXIS2_PLACEMENT_3D ( 'NONE', #195, #287, #290 ) ;
#234 = FACE_OUTER_BOUND ( 'NONE', #137, .T. ) ;
#235 = CALENDAR_DATE ( 2021, 2, 12 ) ;
#236 = EDGE_LOOP ( 'NONE', ( #230 ) ) ;
#237 = DATE_AND_TIME ( #140, #251 ) ;
#238 = TOROIDAL_SURFACE ( 'NONE', #279, 3.260000000000000231, 2.000000000000000000 ) ;
#239 = PLANE ( 'NONE',  #298 ) ;
#240 = DIRECTION ( 'NONE',  ( -3.491481338843133355E-15, 1.224646799147353454E-16, -1.000000000000000000 ) ) ;
#241 = ORIENTED_EDGE ( 'NONE', *, *, #260, .F. ) ;
#242 = FACE_OUTER_BOUND ( 'NONE', #172, .T. ) ;
#243 = PERSON ( 'UNSPECIFIED', 'UNSPECIFIED', 'UNSPECIFIED', ('UNSPECIFIED'), ('UNSPECIFIED'), ('UNSPECIFIED') ) ;
#244 = FACE_OUTER_BOUND ( 'NONE', #85, .T. ) ;
#245 = CIRCLE ( 'NONE', #227, 1.499999999999996003 ) ;
#246 = AXIS2_PLACEMENT_3D ( 'NONE', #162, #75, #86 ) ;
#247 = VERTEX_POINT ( 'NONE', #105 ) ;
#248 = FACE_BOUND ( 'NONE', #21, .T. ) ;
#249 = APPROVAL_ROLE ( '' ) ;
#250 = ORIENTED_EDGE ( 'NONE', *, *, #136, .F. ) ;
#251 = LOCAL_TIME ( 8, 16, 35.00000000000000000, #286 ) ;
#252 = CLOSED_SHELL ( 'NONE', ( #118, #231, #49, #272, #67, #22, #302, #53 ) ) ;
#253 = CARTESIAN_POINT ( 'NONE',  ( 0.0000000000000000000, 0.0000000000000000000, 0.0000000000000000000 ) ) ;
#254 = DIRECTION ( 'NONE',  ( 0.0000000000000000000, -1.000000000000000000, 0.0000000000000000000 ) ) ;
#255 = MECHANICAL_CONTEXT ( 'NONE', #61, 'mechanical' ) ;
#256 = APPROVAL_PERSON_ORGANIZATION ( #10, #294, #102 ) ;
#257 = DIRECTION ( 'NONE',  ( 4.275831445896960358E-31, 1.000000000000000000, 1.224646799147353454E-16 ) ) ;
#258 = DATE_AND_TIME ( #288, #199 ) ;
#259 = CALENDAR_DATE ( 2021, 2, 12 ) ;
#260 = EDGE_CURVE ( 'NONE', #115, #115, #291, .T. ) ;
#261 = CONICAL_SURFACE ( 'NONE', #31, 1.259999999999998233, 0.5235987755982924874 ) ;
#262 = DIRECTION ( 'NONE',  ( 4.275831445896959482E-31, 1.000000000000000000, 1.224646799147353454E-16 ) ) ;
#263 = PERSON_AND_ORGANIZATION_ROLE ( 'classification_officer' ) ;
#264 = ADVANCED_FACE ( 'NONE', ( #33, #242 ), #83, .T. ) ;
#265 = VERTEX_POINT ( 'NONE', #148 ) ;
#266 = SECURITY_CLASSIFICATION ( '', '', #24 ) ;
#267 = AXIS2_PLACEMENT_3D ( 'NONE', #289, #78, #262 ) ;
#268 = ORIENTED_EDGE ( 'NONE', *, *, #284, .T. ) ;
#269 = CARTESIAN_POINT ( 'NONE',  ( 3.612429800294234159E-14, -1.267069808696350687E-15, 10.34641016151378423 ) ) ;
#270 = CARTESIAN_POINT ( 'NONE',  ( 3.491481338843133355E-14, 1.459999999999998632, 10.00000000000000000 ) ) ;
#271 = ORIENTED_EDGE ( 'NONE', *, *, #213, .T. ) ;
#272 = ADVANCED_FACE ( 'NONE', ( #292, #129 ), #238, .F. ) ;
#273 = AXIS2_PLACEMENT_3D ( 'NONE', #134, #119, #138 ) ;
#274 =( GEOMETRIC_REPRESENTATION_CONTEXT ( 3 ) GLOBAL_UNCERTAINTY_ASSIGNED_CONTEXT ( ( #151 ) ) GLOBAL_UNIT_ASSIGNED_CONTEXT ( ( #169, #197, #55 ) ) REPRESENTATION_CONTEXT ( 'NONE', 'WORKASPACE' ) );
#275 = CARTESIAN_POINT ( 'NONE',  ( 8.849961221477469775E-14, 1.290384493975577751, 25.34729635533384595 ) ) ;
#276 = APPROVAL_STATUS ( 'not_yet_approved' ) ;
#277 = EDGE_LOOP ( 'NONE', ( #156 ) ) ;
#278 = EDGE_LOOP ( 'NONE', ( #23 ) ) ;
#279 = AXIS2_PLACEMENT_3D ( 'NONE', #15, #131, #113 ) ;
#280 = EDGE_LOOP ( 'NONE', ( #241 ) ) ;
#281 = DIRECTION ( 'NONE',  ( 0.0000000000000000000, 0.0000000000000000000, 1.000000000000000000 ) ) ;
#282 = CARTESIAN_POINT ( 'NONE',  ( 2.129803616694311221E-13, 8.998558695971062171E-33, 61.00000000000000000 ) ) ;
#283 = FACE_BOUND ( 'NONE', #144, .T. ) ;
#284 = EDGE_CURVE ( 'NONE', #202, #202, #245, .T. ) ;
#285 = COORDINATED_UNIVERSAL_TIME_OFFSET ( 1, 0, .AHEAD. ) ;
#286 = COORDINATED_UNIVERSAL_TIME_OFFSET ( 1, 0, .AHEAD. ) ;
#287 = DIRECTION ( 'NONE',  ( 3.491481338843133355E-15, -1.224646799147353454E-16, 1.000000000000000000 ) ) ;
#288 = CALENDAR_DATE ( 2021, 2, 12 ) ;
#289 = CARTESIAN_POINT ( 'NONE',  ( 6.182658908763641463E-31, -2.168584823468088496E-32, 1.770783890488213779E-16 ) ) ;
#290 = DIRECTION ( 'NONE',  ( -4.275831445896959482E-31, -1.000000000000000000, -1.224646799147353454E-16 ) ) ;
#291 = CIRCLE ( 'NONE', #152, 1.459999999999999964 ) ;
#292 = FACE_OUTER_BOUND ( 'NONE', #277, .T. ) ;
#293 = ORIENTED_EDGE ( 'NONE', *, *, #187, .T. ) ;
#294 = APPROVAL ( #9, 'UNSPECIFIED' ) ;
#295 = VERTEX_POINT ( 'NONE', #107 ) ;
#296 = CARTESIAN_POINT ( 'NONE',  ( 9.265024545692433067E-14, 1.499999999999992673, 26.53608496376012127 ) ) ;
#297 = EDGE_LOOP ( 'NONE', ( #301 ) ) ;
#298 = AXIS2_PLACEMENT_3D ( 'NONE', #27, #193, #185 ) ;
#299 = PRODUCT ( '327113', '327113', '', ( #255 ) ) ;
#300 = PERSON_AND_ORGANIZATION ( #243, #7 ) ;
#301 = ORIENTED_EDGE ( 'NONE', *, *, #284, .F. ) ;
#302 = ADVANCED_FACE ( 'NONE', ( #244, #248 ), #204, .T. ) ;
#303 = EDGE_LOOP ( 'NONE', ( #250 ) ) ;
ENDSEC;
END-ISO-10303-21;
