ISO-10303-21;
HEADER;
FILE_DESCRIPTION (( 'STEP AP203' ),
    '1' );
FILE_NAME ('327112.step',
    '2021-12-02T07:16:35',
    ( '' ),
    ( '' ),
    'SwSTEP 2.0',
    'SolidWorks 2019',
    '' );
FILE_SCHEMA (( 'CONFIG_CONTROL_DESIGN' ));
ENDSEC;

DATA;
#1 = EDGE_LOOP ( 'NONE', ( #25 ) ) ;
#2 = CARTESIAN_POINT ( 'NONE',  ( 1.135641495829896858E-30, 1.205000000000001625, 3.252606517456513302E-16 ) ) ;
#3 = EDGE_LOOP ( 'NONE', ( #278 ) ) ;
#4 = APPLICATION_CONTEXT ( 'configuration controlled 3d designs of mechanical parts and assemblies' ) ;
#5 = APPROVAL_ROLE ( '' ) ;
#6 = LOCAL_TIME ( 8, 16, 35.00000000000000000, #279 ) ;
#7 = APPROVAL ( #218, 'UNSPECIFIED' ) ;
#8 = CIRCLE ( 'NONE', #219, 1.254999999999998339 ) ;
#9 = FACE_OUTER_BOUND ( 'NONE', #65, .T. ) ;
#10 = APPLICATION_PROTOCOL_DEFINITION ( 'international standard', 'config_control_design', 1994, #4 ) ;
#11 = FACE_BOUND ( 'NONE', #181, .T. ) ;
#12 = CC_DESIGN_APPROVAL ( #231, ( #112 ) ) ;
#13 = DIRECTION ( 'NONE',  ( -3.491481338843133355E-15, 1.224646799147353454E-16, -1.000000000000000000 ) ) ;
#14 = EDGE_CURVE ( 'NONE', #237, #237, #110, .T. ) ;
#15 = FACE_OUTER_BOUND ( 'NONE', #191, .T. ) ;
#16 = DIRECTION ( 'NONE',  ( 4.275831445896959482E-31, 1.000000000000000000, 1.224646799147353454E-16 ) ) ;
#17 = ADVANCED_FACE ( 'NONE', ( #9 ), #120, .F. ) ;
#18 = FACE_BOUND ( 'NONE', #49, .T. ) ;
#19 = FACE_OUTER_BOUND ( 'NONE', #43, .T. ) ;
#20 = DIRECTION ( 'NONE',  ( -3.491481338843133355E-15, 1.224646799147353454E-16, -1.000000000000000000 ) ) ;
#21 = AXIS2_PLACEMENT_3D ( 'NONE', #243, #13, #108 ) ;
#22 = CARTESIAN_POINT ( 'NONE',  ( 3.612429800294234159E-14, 1.254999999999997007, 10.34641016151378423 ) ) ;
#23 = ORIENTED_EDGE ( 'NONE', *, *, #40, .T. ) ;
#24 = DIRECTION ( 'NONE',  ( 3.970989576056160244E-31, 1.000000000000000000, 1.117734198438665448E-16 ) ) ;
#25 = ORIENTED_EDGE ( 'NONE', *, *, #35, .T. ) ;
#26 = AXIS2_PLACEMENT_3D ( 'NONE', #232, #135, #136 ) ;
#27 = PERSON_AND_ORGANIZATION ( #156, #51 ) ;
#28 = EDGE_LOOP ( 'NONE', ( #198 ) ) ;
#29 = PERSON_AND_ORGANIZATION ( #156, #51 ) ;
#30 = COORDINATED_UNIVERSAL_TIME_OFFSET ( 1, 0, .AHEAD. ) ;
#31 = EDGE_CURVE ( 'NONE', #253, #253, #53, .T. ) ;
#32 = CARTESIAN_POINT ( 'NONE',  ( 3.612429800294234159E-14, -1.267069808696350687E-15, 10.34641016151378423 ) ) ;
#33 = AXIS2_PLACEMENT_3D ( 'NONE', #48, #142, #118 ) ;
#34 = DIRECTION ( 'NONE',  ( -3.491481338843133355E-15, 1.224646799147353454E-16, -1.000000000000000000 ) ) ;
#35 = EDGE_CURVE ( 'NONE', #258, #258, #187, .T. ) ;
#36 = PLANE ( 'NONE',  #160 ) ;
#37 = APPROVAL_PERSON_ORGANIZATION ( #121, #7, #5 ) ;
#38 = ORIENTED_EDGE ( 'NONE', *, *, #298, .T. ) ;
#39 = CARTESIAN_POINT ( 'NONE',  ( 2.129803616694311221E-13, -7.470345474798856659E-15, 61.00000000000000000 ) ) ;
#40 = EDGE_CURVE ( 'NONE', #126, #126, #93, .T. ) ;
#41 = CONICAL_SURFACE ( 'NONE', #266, 1.499999999999996003, 0.1745329251994262865 ) ;
#42 = CARTESIAN_POINT ( 'NONE',  ( 0.0000000000000000000, 0.0000000000000000000, 0.0000000000000000000 ) ) ;
#43 = EDGE_LOOP ( 'NONE', ( #273 ) ) ;
#44 = VERTEX_POINT ( 'NONE', #2 ) ;
#45 = EDGE_LOOP ( 'NONE', ( #216 ) ) ;
#46 = PERSON_AND_ORGANIZATION_ROLE ( 'creator' ) ;
#47 = DIRECTION ( 'NONE',  ( -3.491481338843133355E-15, 1.224646799147353454E-16, -1.000000000000000000 ) ) ;
#48 = CARTESIAN_POINT ( 'NONE',  ( 0.0000000000000000000, 0.0000000000000000000, 0.0000000000000000000 ) ) ;
#49 = EDGE_LOOP ( 'NONE', ( #195 ) ) ;
#50 = PERSON_AND_ORGANIZATION ( #156, #51 ) ;
#51 = ORGANIZATION ( 'UNSPECIFIED', 'UNSPECIFIED', '' ) ;
#52 = CALENDAR_DATE ( 2021, 2, 12 ) ;
#53 = CIRCLE ( 'NONE', #145, 1.499999999999996003 ) ;
#54 = COORDINATED_UNIVERSAL_TIME_OFFSET ( 1, 0, .AHEAD. ) ;
#55 = FACE_OUTER_BOUND ( 'NONE', #285, .T. ) ;
#56 = CC_DESIGN_SECURITY_CLASSIFICATION ( #112, ( #289 ) ) ;
#57 = DIRECTION ( 'NONE',  ( 3.491481338843133355E-15, -1.224646799147353454E-16, 1.000000000000000000 ) ) ;
#58 = EDGE_CURVE ( 'NONE', #44, #44, #261, .T. ) ;
#59 = DIRECTION ( 'NONE',  ( 4.275831445896959482E-31, 1.000000000000000000, 1.224646799147353700E-16 ) ) ;
#60 = FACE_OUTER_BOUND ( 'NONE', #275, .T. ) ;
#61 = CONICAL_SURFACE ( 'NONE', #213, 1.200000000000002842, 0.7853981633974453924 ) ;
#62 = EDGE_LOOP ( 'NONE', ( #238 ) ) ;
#63 = ADVANCED_FACE ( 'NONE', ( #292, #265 ), #175, .T. ) ;
#64 = MANIFOLD_SOLID_BREP ( 'Corps-Déplacer/Copier1[1]', #240 ) ;
#65 = EDGE_LOOP ( 'NONE', ( #255 ) ) ;
#66 = FACE_OUTER_BOUND ( 'NONE', #183, .T. ) ;
#67 = APPROVAL ( #166, 'UNSPECIFIED' ) ;
#68 = MANIFOLD_SOLID_BREP ( 'Corps-Déplacer/Copier1[2]', #206 ) ;
#69 = CIRCLE ( 'NONE', #101, 1.200000000000002842 ) ;
#70 = VERTEX_POINT ( 'NONE', #161 ) ;
#71 = PERSON_AND_ORGANIZATION_ROLE ( 'design_owner' ) ;
#72 = EDGE_LOOP ( 'NONE', ( #271 ) ) ;
#73 = LOCAL_TIME ( 8, 16, 35.00000000000000000, #260 ) ;
#74 = ORIENTED_EDGE ( 'NONE', *, *, #296, .T. ) ;
#75 = PERSON_AND_ORGANIZATION_ROLE ( 'creator' ) ;
#76 = CARTESIAN_POINT ( 'NONE',  ( 3.491481338843133355E-14, -1.224646799147353454E-15, 10.00000000000000000 ) ) ;
#77 = DIRECTION ( 'NONE',  ( -4.275831445896959482E-31, -1.000000000000000000, -1.224646799147353454E-16 ) ) ;
#78 = APPROVAL_STATUS ( 'not_yet_approved' ) ;
#79 =( LENGTH_UNIT ( ) NAMED_UNIT ( * ) SI_UNIT ( .MILLI., .METRE. ) );
#80 = CC_DESIGN_DATE_AND_TIME_ASSIGNMENT ( #104, #199, ( #112 ) ) ;
#81 = FACE_OUTER_BOUND ( 'NONE', #207, .T. ) ;
#82 = ADVANCED_FACE ( 'NONE', ( #129 ), #264, .F. ) ;
#83 = FACE_BOUND ( 'NONE', #189, .T. ) ;
#84 = APPLICATION_CONTEXT ( 'configuration controlled 3d designs of mechanical parts and assemblies' ) ;
#85 = AXIS2_PLACEMENT_3D ( 'NONE', #178, #267, #154 ) ;
#86 = CARTESIAN_POINT ( 'NONE',  ( 6.204038065993125302E-31, -2.176083622381397838E-32, 1.776907124483950408E-16 ) ) ;
#87 = ADVANCED_FACE ( 'NONE', ( #11, #109 ), #41, .T. ) ;
#88 = APPROVAL_PERSON_ORGANIZATION ( #29, #231, #172 ) ;
#89 = CC_DESIGN_PERSON_AND_ORGANIZATION_ASSIGNMENT ( #27, #168, ( #289 ) ) ;
#90 = DIRECTION ( 'NONE',  ( 0.0000000000000000000, 1.000000000000000000, 0.0000000000000000000 ) ) ;
#91 = LOCAL_TIME ( 8, 16, 35.00000000000000000, #54 ) ;
#92 = VERTEX_POINT ( 'NONE', #283 ) ;
#93 = CIRCLE ( 'NONE', #21, 1.285384493975580966 ) ;
#94 = DIRECTION ( 'NONE',  ( -3.491481338843133355E-15, 1.224646799147353454E-16, -1.000000000000000000 ) ) ;
#95 = ORIENTED_EDGE ( 'NONE', *, *, #114, .F. ) ;
#96 = MECHANICAL_CONTEXT ( 'NONE', #84, 'mechanical' ) ;
#97 = CC_DESIGN_PERSON_AND_ORGANIZATION_ASSIGNMENT ( #236, #46, ( #157 ) ) ;
#98 = CARTESIAN_POINT ( 'NONE',  ( 3.491481338843133355E-14, 1.454999999999998739, 10.00000000000000000 ) ) ;
#99 = DIRECTION ( 'NONE',  ( 3.491481338843133355E-15, -1.224646799147353454E-16, 1.000000000000000000 ) ) ;
#100 = COORDINATED_UNIVERSAL_TIME_OFFSET ( 1, 0, .AHEAD. ) ;
#101 = AXIS2_PLACEMENT_3D ( 'NONE', #105, #224, #202 ) ;
#102 = CARTESIAN_POINT ( 'NONE',  ( 9.274925133012691500E-14, 1.499999999999992673, 26.56444137285821228 ) ) ;
#103 = CARTESIAN_POINT ( 'NONE',  ( 2.119329172677781757E-13, -7.433606070824434221E-15, 60.69999999999999574 ) ) ;
#104 = DATE_AND_TIME ( #220, #122 ) ;
#105 = CARTESIAN_POINT ( 'NONE',  ( 2.129803616694311221E-13, -7.470345474798856659E-15, 61.00000000000000000 ) ) ;
#106 = CARTESIAN_POINT ( 'NONE',  ( 8.728703347107827472E-16, -3.061616997868381785E-17, 0.2499999999999998335 ) ) ;
#107 = CC_DESIGN_DATE_AND_TIME_ASSIGNMENT ( #286, #215, ( #157 ) ) ;
#108 = DIRECTION ( 'NONE',  ( 0.0000000000000000000, 1.000000000000000000, 0.0000000000000000000 ) ) ;
#109 = FACE_OUTER_BOUND ( 'NONE', #214, .T. ) ;
#110 = CIRCLE ( 'NONE', #249, 1.454999999999998739 ) ;
#111 = AXIS2_PLACEMENT_3D ( 'NONE', #179, #210, #272 ) ;
#112 = SECURITY_CLASSIFICATION ( '', '', #262 ) ;
#113 = DIRECTION ( 'NONE',  ( 0.0000000000000000000, 1.000000000000000000, 0.0000000000000000000 ) ) ;
#114 = EDGE_CURVE ( 'NONE', #92, #92, #69, .T. ) ;
#115 = PRODUCT ( '327112', '327112', '', ( #96 ) ) ;
#116 = CARTESIAN_POINT ( 'NONE',  ( 8.728703347107833388E-14, 1.254999999999997007, 25.00000000000000000 ) ) ;
#117 = ORIENTED_EDGE ( 'NONE', *, *, #269, .F. ) ;
#118 = DIRECTION ( 'NONE',  ( 1.000000000000000000, 0.0000000000000000000, 0.0000000000000000000 ) ) ;
#119 = VERTEX_POINT ( 'NONE', #98 ) ;
#120 = PLANE ( 'NONE',  #276 ) ;
#121 = PERSON_AND_ORGANIZATION ( #156, #51 ) ;
#122 = LOCAL_TIME ( 8, 16, 35.00000000000000000, #30 ) ;
#123 = DIRECTION ( 'NONE',  ( 0.0000000000000000000, 1.000000000000000000, 0.0000000000000000000 ) ) ;
#124 = PERSON_AND_ORGANIZATION ( #156, #51 ) ;
#125 = AXIS2_PLACEMENT_3D ( 'NONE', #203, #223, #294 ) ;
#126 = VERTEX_POINT ( 'NONE', #300 ) ;
#127 = EDGE_LOOP ( 'NONE', ( #252 ) ) ;
#128 = APPROVAL_DATE_TIME ( #146, #231 ) ;
#129 = FACE_OUTER_BOUND ( 'NONE', #72, .T. ) ;
#130 = DIRECTION ( 'NONE',  ( 0.0000000000000000000, 1.000000000000000000, 0.0000000000000000000 ) ) ;
#131 = ADVANCED_FACE ( 'NONE', ( #18, #81 ), #147, .T. ) ;
#132 = ADVANCED_BREP_SHAPE_REPRESENTATION ( '327112', ( #64, #68, #33 ), #297 ) ;
#133 = CARTESIAN_POINT ( 'NONE',  ( 2.129803616694311221E-13, 8.998558695971062171E-33, 61.00000000000000000 ) ) ;
#134 = CARTESIAN_POINT ( 'NONE',  ( 3.491481338843133355E-14, 1.091075241886500069E-32, 10.00000000000000000 ) ) ;
#135 = DIRECTION ( 'NONE',  ( -3.491481338843133355E-15, 1.224646799147353454E-16, -1.000000000000000000 ) ) ;
#136 = DIRECTION ( 'NONE',  ( 4.275831445896960358E-31, 1.000000000000000000, 1.224646799147353454E-16 ) ) ;
#137 = FACE_OUTER_BOUND ( 'NONE', #127, .T. ) ;
#138 = AXIS2_PLACEMENT_3D ( 'NONE', #133, #205, #16 ) ;
#139 = ORIENTED_EDGE ( 'NONE', *, *, #31, .T. ) ;
#140 = VERTEX_POINT ( 'NONE', #116 ) ;
#141 = CARTESIAN_POINT ( 'NONE',  ( 8.728703347107827472E-16, -3.061616997868381785E-17, 0.2499999999999998335 ) ) ;
#142 = DIRECTION ( 'NONE',  ( 0.0000000000000000000, 0.0000000000000000000, 1.000000000000000000 ) ) ;
#143 = DIRECTION ( 'NONE',  ( 0.0000000000000000000, 1.000000000000000000, 0.0000000000000000000 ) ) ;
#144 = EDGE_LOOP ( 'NONE', ( #74 ) ) ;
#145 = AXIS2_PLACEMENT_3D ( 'NONE', #167, #257, #123 ) ;
#146 = DATE_AND_TIME ( #52, #73 ) ;
#147 = CONICAL_SURFACE ( 'NONE', #241, 1.454999999999998739, 0.7853981633974432830 ) ;
#148 = PERSON_AND_ORGANIZATION_ROLE ( 'classification_officer' ) ;
#149 = PLANE ( 'NONE',  #138 ) ;
#150 = CC_DESIGN_PERSON_AND_ORGANIZATION_ASSIGNMENT ( #190, #71, ( #115 ) ) ;
#151 = DIRECTION ( 'NONE',  ( 0.0000000000000000000, -1.000000000000000000, 0.0000000000000000000 ) ) ;
#152 = AXIS2_PLACEMENT_3D ( 'NONE', #76, #47, #280 ) ;
#153 = DIRECTION ( 'NONE',  ( -3.491481338843133355E-15, 1.224646799147353454E-16, -1.000000000000000000 ) ) ;
#154 = DIRECTION ( 'NONE',  ( 0.0000000000000000000, 1.000000000000000000, 0.0000000000000000000 ) ) ;
#155 = ORIENTED_EDGE ( 'NONE', *, *, #14, .T. ) ;
#156 = PERSON ( 'UNSPECIFIED', 'UNSPECIFIED', 'UNSPECIFIED', ('UNSPECIFIED'), ('UNSPECIFIED'), ('UNSPECIFIED') ) ;
#157 = PRODUCT_DEFINITION ( 'UNKNOWN', '', #289, #212 ) ;
#158 = CIRCLE ( 'NONE', #152, 1.455000000000000071 ) ;
#159 = CYLINDRICAL_SURFACE ( 'NONE', #186, 1.254999999999999227 ) ;
#160 = AXIS2_PLACEMENT_3D ( 'NONE', #134, #225, #182 ) ;
#161 = CARTESIAN_POINT ( 'NONE',  ( 3.491481338843133355E-14, 1.454999999999998739, 10.00000000000000000 ) ) ;
#162 = UNCERTAINTY_MEASURE_WITH_UNIT (LENGTH_MEASURE( 1.000000000000000082E-05 ), #79, 'distance_accuracy_value', 'NONE');
#163 = CARTESIAN_POINT ( 'NONE',  ( 8.728703347107833388E-16, 1.454999999999998739, 0.2500000000000000000 ) ) ;
#164 = PERSON_AND_ORGANIZATION ( #156, #51 ) ;
#165 = EDGE_LOOP ( 'NONE', ( #259 ) ) ;
#166 = APPROVAL_STATUS ( 'not_yet_approved' ) ;
#167 = CARTESIAN_POINT ( 'NONE',  ( 9.274925133012691500E-14, -3.253205809840833732E-15, 26.56444137285821228 ) ) ;
#168 = PERSON_AND_ORGANIZATION_ROLE ( 'design_supplier' ) ;
#169 = PRODUCT_DEFINITION_SHAPE ( 'NONE', 'NONE',  #157 ) ;
#170 = CARTESIAN_POINT ( 'NONE',  ( 8.728703347107833388E-14, -3.061616997868383831E-15, 25.00000000000000000 ) ) ;
#171 = DIRECTION ( 'NONE',  ( -3.491481338843133355E-15, 1.224646799147353454E-16, -1.000000000000000000 ) ) ;
#172 = APPROVAL_ROLE ( '' ) ;
#173 = DIRECTION ( 'NONE',  ( -3.491481338843133355E-15, 1.224646799147353454E-16, -1.000000000000000000 ) ) ;
#174 = CALENDAR_DATE ( 2021, 2, 12 ) ;
#175 = CYLINDRICAL_SURFACE ( 'NONE', #229, 1.454999999999999405 ) ;
#176 = ADVANCED_FACE ( 'NONE', ( #55 ), #149, .F. ) ;
#177 = CONICAL_SURFACE ( 'NONE', #85, 1.254999999999998339, 0.5235987755982929315 ) ;
#178 = CARTESIAN_POINT ( 'NONE',  ( 3.612429800294234159E-14, -1.267069808696350687E-15, 10.34641016151378423 ) ) ;
#179 = CARTESIAN_POINT ( 'NONE',  ( 8.728703347107833388E-14, -3.035766082959412415E-15, 25.00000000000000000 ) ) ;
#180 = FACE_OUTER_BOUND ( 'NONE', #1, .T. ) ;
#181 = EDGE_LOOP ( 'NONE', ( #200 ) ) ;
#182 = DIRECTION ( 'NONE',  ( -4.275831445896959482E-31, -1.000000000000000000, -1.224646799147353454E-16 ) ) ;
#183 = EDGE_LOOP ( 'NONE', ( #38 ) ) ;
#184 = EDGE_CURVE ( 'NONE', #188, #188, #8, .T. ) ;
#185 = FACE_OUTER_BOUND ( 'NONE', #28, .T. ) ;
#186 = AXIS2_PLACEMENT_3D ( 'NONE', #42, #94, #233 ) ;
#187 = CIRCLE ( 'NONE', #227, 1.500000000000002887 ) ;
#188 = VERTEX_POINT ( 'NONE', #22 ) ;
#189 = EDGE_LOOP ( 'NONE', ( #302 ) ) ;
#190 = PERSON_AND_ORGANIZATION ( #156, #51 ) ;
#191 = EDGE_LOOP ( 'NONE', ( #117 ) ) ;
#192 = APPROVAL_ROLE ( '' ) ;
#193 = APPROVAL_PERSON_ORGANIZATION ( #164, #67, #192 ) ;
#194 = TOROIDAL_SURFACE ( 'NONE', #111, 3.254999999999999893, 2.000000000000000000 ) ;
#195 = ORIENTED_EDGE ( 'NONE', *, *, #58, .F. ) ;
#196 = CALENDAR_DATE ( 2021, 2, 12 ) ;
#197 = CARTESIAN_POINT ( 'NONE',  ( 2.119329172677781757E-13, 1.499999999999995559, 60.69999999999999574 ) ) ;
#198 = ORIENTED_EDGE ( 'NONE', *, *, #184, .F. ) ;
#199 = DATE_TIME_ROLE ( 'classification_date' ) ;
#200 = ORIENTED_EDGE ( 'NONE', *, *, #40, .F. ) ;
#201 =( NAMED_UNIT ( * ) SI_UNIT ( $, .STERADIAN. ) SOLID_ANGLE_UNIT ( ) );
#202 = DIRECTION ( 'NONE',  ( 0.0000000000000000000, 1.000000000000000000, 0.0000000000000000000 ) ) ;
#203 = CARTESIAN_POINT ( 'NONE',  ( 3.102019032996562651E-31, -1.088041811190698919E-32, 8.884535622419752042E-17 ) ) ;
#204 = CC_DESIGN_PERSON_AND_ORGANIZATION_ASSIGNMENT ( #50, #75, ( #289 ) ) ;
#205 = DIRECTION ( 'NONE',  ( -3.491481338843133355E-15, 1.224646799147353454E-16, -1.000000000000000000 ) ) ;
#206 = CLOSED_SHELL ( 'NONE', ( #82, #131, #63, #211 ) ) ;
#207 = EDGE_LOOP ( 'NONE', ( #155 ) ) ;
#208 = ADVANCED_FACE ( 'NONE', ( #15, #83 ), #177, .T. ) ;
#209 = LOCAL_TIME ( 8, 16, 35.00000000000000000, #100 ) ;
#210 = DIRECTION ( 'NONE',  ( -3.491481338843133355E-15, 1.224646799147353454E-16, -1.000000000000000000 ) ) ;
#211 = ADVANCED_FACE ( 'NONE', ( #247 ), #36, .T. ) ;
#212 = DESIGN_CONTEXT ( 'detailed design', #4, 'design' ) ;
#213 = AXIS2_PLACEMENT_3D ( 'NONE', #39, #20, #113 ) ;
#214 = EDGE_LOOP ( 'NONE', ( #139 ) ) ;
#215 = DATE_TIME_ROLE ( 'creation_date' ) ;
#216 = ORIENTED_EDGE ( 'NONE', *, *, #31, .F. ) ;
#217 = ADVANCED_FACE ( 'NONE', ( #137, #60 ), #194, .F. ) ;
#218 = APPROVAL_STATUS ( 'not_yet_approved' ) ;
#219 = AXIS2_PLACEMENT_3D ( 'NONE', #32, #34, #130 ) ;
#220 = CALENDAR_DATE ( 2021, 2, 12 ) ;
#221 = SHAPE_DEFINITION_REPRESENTATION ( #169, #132 ) ;
#222 = PRODUCT_RELATED_PRODUCT_CATEGORY ( 'detail', '', ( #115 ) ) ;
#223 = DIRECTION ( 'NONE',  ( 3.491481338843133355E-15, -1.224646799147353454E-16, 1.000000000000000000 ) ) ;
#224 = DIRECTION ( 'NONE',  ( -3.491481338843133355E-15, 1.224646799147353454E-16, -1.000000000000000000 ) ) ;
#225 = DIRECTION ( 'NONE',  ( 3.491481338843133355E-15, -1.224646799147353454E-16, 1.000000000000000000 ) ) ;
#226 = CIRCLE ( 'NONE', #270, 1.455000000000000071 ) ;
#227 = AXIS2_PLACEMENT_3D ( 'NONE', #103, #171, #295 ) ;
#228 = ADVANCED_FACE ( 'NONE', ( #268, #180 ), #251, .T. ) ;
#229 = AXIS2_PLACEMENT_3D ( 'NONE', #246, #173, #59 ) ;
#230 = DIRECTION ( 'NONE',  ( -3.491481338843133355E-15, 1.224646799147353454E-16, -1.000000000000000000 ) ) ;
#231 = APPROVAL ( #78, 'UNSPECIFIED' ) ;
#232 = CARTESIAN_POINT ( 'NONE',  ( 0.0000000000000000000, 0.0000000000000000000, 0.0000000000000000000 ) ) ;
#233 = DIRECTION ( 'NONE',  ( 4.275831445896959482E-31, 1.000000000000000000, 1.224646799147353207E-16 ) ) ;
#234 = CIRCLE ( 'NONE', #244, 1.255000000000000115 ) ;
#235 = DIRECTION ( 'NONE',  ( -3.491481338843133355E-15, 1.224646799147353454E-16, -1.000000000000000000 ) ) ;
#236 = PERSON_AND_ORGANIZATION ( #156, #51 ) ;
#237 = VERTEX_POINT ( 'NONE', #163 ) ;
#238 = ORIENTED_EDGE ( 'NONE', *, *, #14, .F. ) ;
#239 = APPROVAL_DATE_TIME ( #282, #7 ) ;
#240 = CLOSED_SHELL ( 'NONE', ( #17, #208, #274, #217, #87, #228, #245, #176 ) ) ;
#241 = AXIS2_PLACEMENT_3D ( 'NONE', #106, #57, #263 ) ;
#242 = DIRECTION ( 'NONE',  ( 4.275831445896959482E-31, 1.000000000000000000, 1.224646799147353454E-16 ) ) ;
#243 = CARTESIAN_POINT ( 'NONE',  ( 8.849961221477468513E-14, -3.104148534859897150E-15, 25.34729635533384240 ) ) ;
#244 = AXIS2_PLACEMENT_3D ( 'NONE', #170, #277, #143 ) ;
#245 = ADVANCED_FACE ( 'NONE', ( #19, #250 ), #61, .T. ) ;
#246 = CARTESIAN_POINT ( 'NONE',  ( 0.0000000000000000000, 0.0000000000000000000, 0.0000000000000000000 ) ) ;
#247 = FACE_OUTER_BOUND ( 'NONE', #165, .T. ) ;
#248 = CC_DESIGN_APPROVAL ( #67, ( #157 ) ) ;
#249 = AXIS2_PLACEMENT_3D ( 'NONE', #141, #235, #24 ) ;
#250 = FACE_BOUND ( 'NONE', #3, .T. ) ;
#251 = CYLINDRICAL_SURFACE ( 'NONE', #26, 1.499999999999999334 ) ;
#252 = ORIENTED_EDGE ( 'NONE', *, *, #298, .F. ) ;
#253 = VERTEX_POINT ( 'NONE', #102 ) ;
#254 = CALENDAR_DATE ( 2021, 2, 12 ) ;
#255 = ORIENTED_EDGE ( 'NONE', *, *, #269, .T. ) ;
#256 = DATE_AND_TIME ( #254, #6 ) ;
#257 = DIRECTION ( 'NONE',  ( -3.491481338843133355E-15, 1.224646799147353454E-16, -1.000000000000000000 ) ) ;
#258 = VERTEX_POINT ( 'NONE', #197 ) ;
#259 = ORIENTED_EDGE ( 'NONE', *, *, #296, .F. ) ;
#260 = COORDINATED_UNIVERSAL_TIME_OFFSET ( 1, 0, .AHEAD. ) ;
#261 = CIRCLE ( 'NONE', #290, 1.205000000000001625 ) ;
#262 = SECURITY_CLASSIFICATION_LEVEL ( 'unclassified' ) ;
#263 = DIRECTION ( 'NONE',  ( -3.970989576056160244E-31, -1.000000000000000000, -1.117734198438665448E-16 ) ) ;
#264 = PLANE ( 'NONE',  #125 ) ;
#265 = FACE_OUTER_BOUND ( 'NONE', #144, .T. ) ;
#266 = AXIS2_PLACEMENT_3D ( 'NONE', #293, #291, #151 ) ;
#267 = DIRECTION ( 'NONE',  ( -3.491481338843133355E-15, 1.224646799147353454E-16, -1.000000000000000000 ) ) ;
#268 = FACE_OUTER_BOUND ( 'NONE', #45, .T. ) ;
#269 = EDGE_CURVE ( 'NONE', #119, #119, #226, .T. ) ;
#270 = AXIS2_PLACEMENT_3D ( 'NONE', #299, #230, #90 ) ;
#271 = ORIENTED_EDGE ( 'NONE', *, *, #58, .T. ) ;
#272 = DIRECTION ( 'NONE',  ( 4.275831445896959482E-31, 1.000000000000000000, 1.224646799147353454E-16 ) ) ;
#273 = ORIENTED_EDGE ( 'NONE', *, *, #35, .F. ) ;
#274 = ADVANCED_FACE ( 'NONE', ( #185, #66 ), #159, .T. ) ;
#275 = EDGE_LOOP ( 'NONE', ( #23 ) ) ;
#276 = AXIS2_PLACEMENT_3D ( 'NONE', #281, #99, #77 ) ;
#277 = DIRECTION ( 'NONE',  ( -3.491481338843133355E-15, 1.224646799147353454E-16, -1.000000000000000000 ) ) ;
#278 = ORIENTED_EDGE ( 'NONE', *, *, #114, .T. ) ;
#279 = COORDINATED_UNIVERSAL_TIME_OFFSET ( 1, 0, .AHEAD. ) ;
#280 = DIRECTION ( 'NONE',  ( 0.0000000000000000000, 1.000000000000000000, 0.0000000000000000000 ) ) ;
#281 = CARTESIAN_POINT ( 'NONE',  ( 3.491481338843133355E-14, 1.091075241886500069E-32, 10.00000000000000000 ) ) ;
#282 = DATE_AND_TIME ( #196, #209 ) ;
#283 = CARTESIAN_POINT ( 'NONE',  ( 2.129803616694311221E-13, 1.199999999999995515, 61.00000000000000000 ) ) ;
#284 = CC_DESIGN_PERSON_AND_ORGANIZATION_ASSIGNMENT ( #124, #148, ( #112 ) ) ;
#285 = EDGE_LOOP ( 'NONE', ( #95 ) ) ;
#286 = DATE_AND_TIME ( #174, #91 ) ;
#287 =( NAMED_UNIT ( * ) PLANE_ANGLE_UNIT ( ) SI_UNIT ( $, .RADIAN. ) );
#288 = APPLICATION_PROTOCOL_DEFINITION ( 'international standard', 'config_control_design', 1994, #84 ) ;
#289 = PRODUCT_DEFINITION_FORMATION_WITH_SPECIFIED_SOURCE ( 'ANY', '', #115, .NOT_KNOWN. ) ;
#290 = AXIS2_PLACEMENT_3D ( 'NONE', #86, #153, #242 ) ;
#291 = DIRECTION ( 'NONE',  ( 3.491481338843133355E-15, -1.224646799147353454E-16, 1.000000000000000000 ) ) ;
#292 = FACE_OUTER_BOUND ( 'NONE', #62, .T. ) ;
#293 = CARTESIAN_POINT ( 'NONE',  ( 9.274925133012691500E-14, -3.253205809840833732E-15, 26.56444137285821228 ) ) ;
#294 = DIRECTION ( 'NONE',  ( -4.275831445896959482E-31, -1.000000000000000000, -1.224646799147353454E-16 ) ) ;
#295 = DIRECTION ( 'NONE',  ( 0.0000000000000000000, 1.000000000000000000, 0.0000000000000000000 ) ) ;
#296 = EDGE_CURVE ( 'NONE', #70, #70, #158, .T. ) ;
#297 =( GEOMETRIC_REPRESENTATION_CONTEXT ( 3 ) GLOBAL_UNCERTAINTY_ASSIGNED_CONTEXT ( ( #162 ) ) GLOBAL_UNIT_ASSIGNED_CONTEXT ( ( #79, #287, #201 ) ) REPRESENTATION_CONTEXT ( 'NONE', 'WORKASPACE' ) );
#298 = EDGE_CURVE ( 'NONE', #140, #140, #234, .T. ) ;
#299 = CARTESIAN_POINT ( 'NONE',  ( 3.491481338843133355E-14, -1.224646799147353454E-15, 10.00000000000000000 ) ) ;
#300 = CARTESIAN_POINT ( 'NONE',  ( 8.849961221477468513E-14, 1.285384493975578080, 25.34729635533384240 ) ) ;
#301 = CC_DESIGN_APPROVAL ( #7, ( #289 ) ) ;
#302 = ORIENTED_EDGE ( 'NONE', *, *, #184, .T. ) ;
#303 = APPROVAL_DATE_TIME ( #256, #67 ) ;
ENDSEC;
END-ISO-10303-21;
