ISO-10303-21;
HEADER;
FILE_DESCRIPTION (( 'STEP AP203' ),
    '1' );
FILE_NAME ('327111.step',
    '2021-12-02T07:16:34',
    ( '' ),
    ( '' ),
    'SwSTEP 2.0',
    'SolidWorks 2019',
    '' );
FILE_SCHEMA (( 'CONFIG_CONTROL_DESIGN' ));
ENDSEC;

DATA;
#1 = CALENDAR_DATE ( 2021, 2, 12 ) ;
#2 = ORIENTED_EDGE ( 'NONE', *, *, #6, .T. ) ;
#3 = CARTESIAN_POINT ( 'NONE',  ( 2.129803616694311221E-13, -7.470345474798856659E-15, 61.00000000000000000 ) ) ;
#4 = CARTESIAN_POINT ( 'NONE',  ( 8.728703347107827472E-16, -3.061616997868381785E-17, 0.2499999999999998335 ) ) ;
#5 = AXIS2_PLACEMENT_3D ( 'NONE', #86, #299, #146 ) ;
#6 = EDGE_CURVE ( 'NONE', #139, #139, #111, .T. ) ;
#7 = DIRECTION ( 'NONE',  ( -3.491481338843133355E-15, 1.224646799147353454E-16, -1.000000000000000000 ) ) ;
#8 = CC_DESIGN_PERSON_AND_ORGANIZATION_ASSIGNMENT ( #231, #38, ( #122 ) ) ;
#9 = AXIS2_PLACEMENT_3D ( 'NONE', #212, #96, #191 ) ;
#10 = COORDINATED_UNIVERSAL_TIME_OFFSET ( 1, 0, .AHEAD. ) ;
#11 = APPROVAL_STATUS ( 'not_yet_approved' ) ;
#12 = UNCERTAINTY_MEASURE_WITH_UNIT (LENGTH_MEASURE( 1.000000000000000082E-05 ), #21, 'distance_accuracy_value', 'NONE');
#13 = DIRECTION ( 'NONE',  ( 4.275831445896959482E-31, 1.000000000000000000, 1.224646799147353454E-16 ) ) ;
#14 = CARTESIAN_POINT ( 'NONE',  ( 3.491481338843133355E-14, 1.083576442973190726E-32, 10.00000000000000000 ) ) ;
#15 = ADVANCED_FACE ( 'NONE', ( #20 ), #124, .F. ) ;
#16 = VERTEX_POINT ( 'NONE', #71 ) ;
#17 = CIRCLE ( 'NONE', #227, 1.445000000000000062 ) ;
#18 = DIRECTION ( 'NONE',  ( 3.491481338843133355E-15, -1.224646799147353454E-16, 1.000000000000000000 ) ) ;
#19 = PERSON_AND_ORGANIZATION ( #119, #128 ) ;
#20 = FACE_OUTER_BOUND ( 'NONE', #155, .T. ) ;
#21 =( LENGTH_UNIT ( ) NAMED_UNIT ( * ) SI_UNIT ( .MILLI., .METRE. ) );
#22 = CARTESIAN_POINT ( 'NONE',  ( 8.728703347107833388E-14, -3.061616997868383831E-15, 25.00000000000000000 ) ) ;
#23 = PERSON_AND_ORGANIZATION ( #119, #128 ) ;
#24 = DIRECTION ( 'NONE',  ( 0.0000000000000000000, 1.000000000000000000, 0.0000000000000000000 ) ) ;
#25 = SECURITY_CLASSIFICATION ( '', '', #167 ) ;
#26 = DIRECTION ( 'NONE',  ( 3.491481338843133355E-15, -1.224646799147353454E-16, 1.000000000000000000 ) ) ;
#27 = EDGE_CURVE ( 'NONE', #273, #273, #142, .T. ) ;
#28 = AXIS2_PLACEMENT_3D ( 'NONE', #36, #229, #292 ) ;
#29 = ADVANCED_FACE ( 'NONE', ( #77 ), #145, .F. ) ;
#30 = EDGE_LOOP ( 'NONE', ( #158 ) ) ;
#31 = AXIS2_PLACEMENT_3D ( 'NONE', #22, #175, #24 ) ;
#32 = EDGE_LOOP ( 'NONE', ( #162 ) ) ;
#33 = CARTESIAN_POINT ( 'NONE',  ( 9.294726307653205842E-14, -3.260151126968291310E-15, 26.62115419105438718 ) ) ;
#34 = CC_DESIGN_PERSON_AND_ORGANIZATION_ASSIGNMENT ( #135, #298, ( #25 ) ) ;
#35 = CIRCLE ( 'NONE', #28, 1.445000000000000062 ) ;
#36 = CARTESIAN_POINT ( 'NONE',  ( 3.491481338843133355E-14, -1.224646799147353454E-15, 10.00000000000000000 ) ) ;
#37 = EDGE_LOOP ( 'NONE', ( #228 ) ) ;
#38 = PERSON_AND_ORGANIZATION_ROLE ( 'design_supplier' ) ;
#39 = FACE_BOUND ( 'NONE', #69, .T. ) ;
#40 = CARTESIAN_POINT ( 'NONE',  ( 0.0000000000000000000, 0.0000000000000000000, 0.0000000000000000000 ) ) ;
#41 = DIRECTION ( 'NONE',  ( -3.491481338843133355E-15, 1.224646799147353454E-16, -1.000000000000000000 ) ) ;
#42 = MECHANICAL_CONTEXT ( 'NONE', #55, 'mechanical' ) ;
#43 = AXIS2_PLACEMENT_3D ( 'NONE', #280, #235, #240 ) ;
#44 = EDGE_LOOP ( 'NONE', ( #187 ) ) ;
#45 = DATE_AND_TIME ( #1, #242 ) ;
#46 = CARTESIAN_POINT ( 'NONE',  ( -6.620734625402753478E-32, 2.322241100589716372E-33, -1.896253762477924466E-17 ) ) ;
#47 = DIRECTION ( 'NONE',  ( -3.491481338843133355E-15, 1.224646799147353454E-16, -1.000000000000000000 ) ) ;
#48 = PERSON_AND_ORGANIZATION ( #119, #128 ) ;
#49 = PRODUCT_DEFINITION_SHAPE ( 'NONE', 'NONE',  #230 ) ;
#50 = AXIS2_PLACEMENT_3D ( 'NONE', #78, #262, #303 ) ;
#51 = MANIFOLD_SOLID_BREP ( 'Corps-Déplacer/Copier1[2]', #60 ) ;
#52 = APPROVAL ( #53, 'UNSPECIFIED' ) ;
#53 = APPROVAL_STATUS ( 'not_yet_approved' ) ;
#54 = AXIS2_PLACEMENT_3D ( 'NONE', #3, #41, #277 ) ;
#55 = APPLICATION_CONTEXT ( 'configuration controlled 3d designs of mechanical parts and assemblies' ) ;
#56 = ADVANCED_FACE ( 'NONE', ( #118, #260 ), #140, .T. ) ;
#57 = MANIFOLD_SOLID_BREP ( 'Corps-Déplacer/Copier1[1]', #141 ) ;
#58 = CARTESIAN_POINT ( 'NONE',  ( 3.612429800294234159E-14, -1.267069808696350687E-15, 10.34641016151378423 ) ) ;
#59 = ORIENTED_EDGE ( 'NONE', *, *, #6, .F. ) ;
#60 = CLOSED_SHELL ( 'NONE', ( #15, #151, #129, #80 ) ) ;
#61 = CC_DESIGN_DATE_AND_TIME_ASSIGNMENT ( #268, #176, ( #230 ) ) ;
#62 = DIRECTION ( 'NONE',  ( 0.0000000000000000000, 1.000000000000000000, 0.0000000000000000000 ) ) ;
#63 = EDGE_LOOP ( 'NONE', ( #186 ) ) ;
#64 = APPROVAL_PERSON_ORGANIZATION ( #258, #84, #173 ) ;
#65 = DESIGN_CONTEXT ( 'detailed design', #105, 'design' ) ;
#66 = VERTEX_POINT ( 'NONE', #90 ) ;
#67 = DATE_AND_TIME ( #283, #200 ) ;
#68 = CC_DESIGN_DATE_AND_TIME_ASSIGNMENT ( #67, #170, ( #25 ) ) ;
#69 = EDGE_LOOP ( 'NONE', ( #248 ) ) ;
#70 = PERSON_AND_ORGANIZATION_ROLE ( 'creator' ) ;
#71 = CARTESIAN_POINT ( 'NONE',  ( 3.491481338843133355E-14, 1.444999999999998730, 10.00000000000000000 ) ) ;
#72 = DIRECTION ( 'NONE',  ( 4.275831445896959482E-31, 1.000000000000000000, 1.224646799147353454E-16 ) ) ;
#73 = FACE_OUTER_BOUND ( 'NONE', #293, .T. ) ;
#74 = AXIS2_PLACEMENT_3D ( 'NONE', #215, #192, #174 ) ;
#75 = EDGE_LOOP ( 'NONE', ( #203 ) ) ;
#76 = VERTEX_POINT ( 'NONE', #250 ) ;
#77 = FACE_OUTER_BOUND ( 'NONE', #285, .T. ) ;
#78 = CARTESIAN_POINT ( 'NONE',  ( 9.294726307653205842E-14, -3.260151126968291310E-15, 26.62115419105438718 ) ) ;
#79 = CALENDAR_DATE ( 2021, 2, 12 ) ;
#80 = ADVANCED_FACE ( 'NONE', ( #138 ), #233, .T. ) ;
#81 = AXIS2_PLACEMENT_3D ( 'NONE', #301, #238, #95 ) ;
#82 = EDGE_CURVE ( 'NONE', #66, #66, #220, .T. ) ;
#83 = CONICAL_SURFACE ( 'NONE', #246, 1.444999999999998730, 0.7853981633974428389 ) ;
#84 = APPROVAL ( #11, 'UNSPECIFIED' ) ;
#85 = FACE_OUTER_BOUND ( 'NONE', #166, .T. ) ;
#86 = CARTESIAN_POINT ( 'NONE',  ( 0.0000000000000000000, 0.0000000000000000000, 0.0000000000000000000 ) ) ;
#87 = ADVANCED_FACE ( 'NONE', ( #278, #114 ), #222, .F. ) ;
#88 = EDGE_LOOP ( 'NONE', ( #130 ) ) ;
#89 = EDGE_CURVE ( 'NONE', #234, #234, #182, .T. ) ;
#90 = CARTESIAN_POINT ( 'NONE',  ( 8.728703347107833388E-14, 1.244999999999996998, 25.00000000000000000 ) ) ;
#91 = EDGE_LOOP ( 'NONE', ( #247 ) ) ;
#92 = COORDINATED_UNIVERSAL_TIME_OFFSET ( 1, 0, .AHEAD. ) ;
#93 = AXIS2_PLACEMENT_3D ( 'NONE', #218, #47, #72 ) ;
#94 = VERTEX_POINT ( 'NONE', #189 ) ;
#95 = DIRECTION ( 'NONE',  ( 4.275831445896959482E-31, 1.000000000000000000, 1.224646799147353454E-16 ) ) ;
#96 = DIRECTION ( 'NONE',  ( 3.491481338843133355E-15, -1.224646799147353454E-16, 1.000000000000000000 ) ) ;
#97 = ADVANCED_FACE ( 'NONE', ( #256 ), #143, .F. ) ;
#98 = APPROVAL_PERSON_ORGANIZATION ( #19, #243, #296 ) ;
#99 = CARTESIAN_POINT ( 'NONE',  ( -1.324146925080550696E-31, 4.644482201179432744E-33, -3.792507524955848931E-17 ) ) ;
#100 = DIRECTION ( 'NONE',  ( 3.998470472776271801E-31, 1.000000000000000000, 1.125469383202946791E-16 ) ) ;
#101 = APPROVAL_DATE_TIME ( #217, #243 ) ;
#102 = DIRECTION ( 'NONE',  ( -3.491481338843133355E-15, 1.224646799147353454E-16, -1.000000000000000000 ) ) ;
#103 = AXIS2_PLACEMENT_3D ( 'NONE', #4, #216, #100 ) ;
#104 = FACE_BOUND ( 'NONE', #223, .T. ) ;
#105 = APPLICATION_CONTEXT ( 'configuration controlled 3d designs of mechanical parts and assemblies' ) ;
#106 = CONICAL_SURFACE ( 'NONE', #288, 1.244999999999998330, 0.5235987755982929315 ) ;
#107 = DIRECTION ( 'NONE',  ( 0.0000000000000000000, 1.000000000000000000, 0.0000000000000000000 ) ) ;
#108 = ORIENTED_EDGE ( 'NONE', *, *, #204, .F. ) ;
#109 = EDGE_LOOP ( 'NONE', ( #226 ) ) ;
#110 = PERSON_AND_ORGANIZATION ( #119, #128 ) ;
#111 = CIRCLE ( 'NONE', #50, 1.499999999999996003 ) ;
#112 = EDGE_CURVE ( 'NONE', #76, #76, #153, .T. ) ;
#113 = FACE_OUTER_BOUND ( 'NONE', #88, .T. ) ;
#114 = FACE_OUTER_BOUND ( 'NONE', #32, .T. ) ;
#115 = CIRCLE ( 'NONE', #177, 1.244999999999998330 ) ;
#116 = DIRECTION ( 'NONE',  ( -4.275831445896959482E-31, -1.000000000000000000, -1.224646799147353454E-16 ) ) ;
#117 = CARTESIAN_POINT ( 'NONE',  ( 8.728703347107833388E-16, 1.444999999999998730, 0.2500000000000000000 ) ) ;
#118 = FACE_OUTER_BOUND ( 'NONE', #205, .T. ) ;
#119 = PERSON ( 'UNSPECIFIED', 'UNSPECIFIED', 'UNSPECIFIED', ('UNSPECIFIED'), ('UNSPECIFIED'), ('UNSPECIFIED') ) ;
#120 = FACE_OUTER_BOUND ( 'NONE', #207, .T. ) ;
#121 = PRODUCT ( '327111', '327111', '', ( #42 ) ) ;
#122 = PRODUCT_DEFINITION_FORMATION_WITH_SPECIFIED_SOURCE ( 'ANY', '', #121, .NOT_KNOWN. ) ;
#123 = APPROVAL_STATUS ( 'not_yet_approved' ) ;
#124 = PLANE ( 'NONE',  #270 ) ;
#125 = CC_DESIGN_PERSON_AND_ORGANIZATION_ASSIGNMENT ( #110, #70, ( #122 ) ) ;
#126 = COORDINATED_UNIVERSAL_TIME_OFFSET ( 1, 0, .AHEAD. ) ;
#127 = DIRECTION ( 'NONE',  ( -3.998470472776271801E-31, -1.000000000000000000, -1.125469383202946791E-16 ) ) ;
#128 = ORGANIZATION ( 'UNSPECIFIED', 'UNSPECIFIED', '' ) ;
#129 = ADVANCED_FACE ( 'NONE', ( #120, #214 ), #251, .T. ) ;
#130 = ORIENTED_EDGE ( 'NONE', *, *, #302, .F. ) ;
#131 = AXIS2_PLACEMENT_3D ( 'NONE', #14, #18, #116 ) ;
#132 = DIRECTION ( 'NONE',  ( 3.491481338843133355E-15, -1.224646799147353454E-16, 1.000000000000000000 ) ) ;
#133 = ORIENTED_EDGE ( 'NONE', *, *, #302, .T. ) ;
#134 = LOCAL_TIME ( 8, 16, 34.00000000000000000, #266 ) ;
#135 = PERSON_AND_ORGANIZATION ( #119, #128 ) ;
#136 = ORIENTED_EDGE ( 'NONE', *, *, #291, .T. ) ;
#137 = DIRECTION ( 'NONE',  ( 0.0000000000000000000, 1.000000000000000000, 0.0000000000000000000 ) ) ;
#138 = FACE_OUTER_BOUND ( 'NONE', #91, .T. ) ;
#139 = VERTEX_POINT ( 'NONE', #253 ) ;
#140 = CYLINDRICAL_SURFACE ( 'NONE', #43, 1.244999999999999218 ) ;
#141 = CLOSED_SHELL ( 'NONE', ( #29, #199, #56, #87, #165, #244, #263, #97 ) ) ;
#142 = CIRCLE ( 'NONE', #103, 1.444999999999998730 ) ;
#143 = PLANE ( 'NONE',  #81 ) ;
#144 = CARTESIAN_POINT ( 'NONE',  ( 3.491481338843133355E-14, 1.444999999999998730, 10.00000000000000000 ) ) ;
#145 = PLANE ( 'NONE',  #131 ) ;
#146 = DIRECTION ( 'NONE',  ( 4.275831445896960358E-31, 1.000000000000000000, 1.224646799147353454E-16 ) ) ;
#147 = ORIENTED_EDGE ( 'NONE', *, *, #291, .F. ) ;
#148 = CC_DESIGN_SECURITY_CLASSIFICATION ( #25, ( #122 ) ) ;
#149 = APPROVAL_ROLE ( '' ) ;
#150 = CALENDAR_DATE ( 2021, 2, 12 ) ;
#151 = ADVANCED_FACE ( 'NONE', ( #104, #269 ), #83, .T. ) ;
#152 = CIRCLE ( 'NONE', #171, 1.275384493975580513 ) ;
#153 = CIRCLE ( 'NONE', #264, 1.200000000000002842 ) ;
#154 = DIRECTION ( 'NONE',  ( 0.0000000000000000000, 1.000000000000000000, 0.0000000000000000000 ) ) ;
#155 = EDGE_LOOP ( 'NONE', ( #136 ) ) ;
#156 = AXIS2_PLACEMENT_3D ( 'NONE', #99, #261, #13 ) ;
#157 = FACE_OUTER_BOUND ( 'NONE', #295, .T. ) ;
#158 = ORIENTED_EDGE ( 'NONE', *, *, #208, .F. ) ;
#159 = ORIENTED_EDGE ( 'NONE', *, *, #27, .F. ) ;
#160 = DIRECTION ( 'NONE',  ( -3.491481338843133355E-15, 1.224646799147353454E-16, -1.000000000000000000 ) ) ;
#161 = CC_DESIGN_APPROVAL ( #52, ( #122 ) ) ;
#162 = ORIENTED_EDGE ( 'NONE', *, *, #208, .T. ) ;
#163 = APPROVAL_DATE_TIME ( #45, #84 ) ;
#164 =( NAMED_UNIT ( * ) SI_UNIT ( $, .STERADIAN. ) SOLID_ANGLE_UNIT ( ) );
#165 = ADVANCED_FACE ( 'NONE', ( #180, #157 ), #300, .T. ) ;
#166 = EDGE_LOOP ( 'NONE', ( #275 ) ) ;
#167 = SECURITY_CLASSIFICATION_LEVEL ( 'unclassified' ) ;
#168 =( NAMED_UNIT ( * ) PLANE_ANGLE_UNIT ( ) SI_UNIT ( $, .RADIAN. ) );
#169 = DIRECTION ( 'NONE',  ( 0.0000000000000000000, 1.000000000000000000, 0.0000000000000000000 ) ) ;
#170 = DATE_TIME_ROLE ( 'classification_date' ) ;
#171 = AXIS2_PLACEMENT_3D ( 'NONE', #201, #160, #154 ) ;
#172 = CARTESIAN_POINT ( 'NONE',  ( 3.491481338843133355E-14, -1.224646799147353454E-15, 10.00000000000000000 ) ) ;
#173 = APPROVAL_ROLE ( '' ) ;
#174 = DIRECTION ( 'NONE',  ( 1.000000000000000000, 0.0000000000000000000, 0.0000000000000000000 ) ) ;
#175 = DIRECTION ( 'NONE',  ( -3.491481338843133355E-15, 1.224646799147353454E-16, -1.000000000000000000 ) ) ;
#176 = DATE_TIME_ROLE ( 'creation_date' ) ;
#177 = AXIS2_PLACEMENT_3D ( 'NONE', #58, #271, #62 ) ;
#178 = CARTESIAN_POINT ( 'NONE',  ( 8.728703347107827472E-16, -3.061616997868381785E-17, 0.2499999999999998335 ) ) ;
#179 = PERSON_AND_ORGANIZATION_ROLE ( 'creator' ) ;
#180 = FACE_BOUND ( 'NONE', #30, .T. ) ;
#181 = PERSON_AND_ORGANIZATION ( #119, #128 ) ;
#182 = CIRCLE ( 'NONE', #282, 1.500000000000002887 ) ;
#183 = CYLINDRICAL_SURFACE ( 'NONE', #5, 1.499999999999999334 ) ;
#184 = CIRCLE ( 'NONE', #156, 1.195000000000001616 ) ;
#185 = DIRECTION ( 'NONE',  ( -3.491481338843133355E-15, 1.224646799147353454E-16, -1.000000000000000000 ) ) ;
#186 = ORIENTED_EDGE ( 'NONE', *, *, #112, .F. ) ;
#187 = ORIENTED_EDGE ( 'NONE', *, *, #27, .T. ) ;
#188 = AXIS2_PLACEMENT_3D ( 'NONE', #33, #132, #225 ) ;
#189 = CARTESIAN_POINT ( 'NONE',  ( 8.849961221477468513E-14, 1.275384493975577627, 25.34729635533384240 ) ) ;
#190 = ORIENTED_EDGE ( 'NONE', *, *, #89, .F. ) ;
#191 = DIRECTION ( 'NONE',  ( -4.275831445896959482E-31, -1.000000000000000000, -1.224646799147353454E-16 ) ) ;
#192 = DIRECTION ( 'NONE',  ( 0.0000000000000000000, 0.0000000000000000000, 1.000000000000000000 ) ) ;
#193 = DIRECTION ( 'NONE',  ( -3.491481338843133355E-15, 1.224646799147353454E-16, -1.000000000000000000 ) ) ;
#194 = CONICAL_SURFACE ( 'NONE', #54, 1.200000000000002842, 0.7853981633974453924 ) ;
#195 = DIRECTION ( 'NONE',  ( 4.275831445896959482E-31, 1.000000000000000000, 1.224646799147353454E-16 ) ) ;
#196 = DIRECTION ( 'NONE',  ( 0.0000000000000000000, 1.000000000000000000, 0.0000000000000000000 ) ) ;
#197 = COORDINATED_UNIVERSAL_TIME_OFFSET ( 1, 0, .AHEAD. ) ;
#198 = APPROVAL_DATE_TIME ( #221, #52 ) ;
#199 = ADVANCED_FACE ( 'NONE', ( #113, #249 ), #106, .T. ) ;
#200 = LOCAL_TIME ( 8, 16, 34.00000000000000000, #10 ) ;
#201 = CARTESIAN_POINT ( 'NONE',  ( 8.849961221477468513E-14, -3.104148534859897150E-15, 25.34729635533384240 ) ) ;
#202 = ORIENTED_EDGE ( 'NONE', *, *, #82, .T. ) ;
#203 = ORIENTED_EDGE ( 'NONE', *, *, #224, .T. ) ;
#204 = EDGE_CURVE ( 'NONE', #213, #213, #115, .T. ) ;
#205 = EDGE_LOOP ( 'NONE', ( #108 ) ) ;
#206 = FACE_OUTER_BOUND ( 'NONE', #272, .T. ) ;
#207 = EDGE_LOOP ( 'NONE', ( #159 ) ) ;
#208 = EDGE_CURVE ( 'NONE', #94, #94, #152, .T. ) ;
#209 = VERTEX_POINT ( 'NONE', #144 ) ;
#210 = DIRECTION ( 'NONE',  ( -4.275831445896959482E-31, -1.000000000000000000, -1.224646799147353454E-16 ) ) ;
#211 = PERSON_AND_ORGANIZATION_ROLE ( 'design_owner' ) ;
#212 = CARTESIAN_POINT ( 'NONE',  ( 3.491481338843133355E-14, 1.083576442973190726E-32, 10.00000000000000000 ) ) ;
#213 = VERTEX_POINT ( 'NONE', #232 ) ;
#214 = FACE_OUTER_BOUND ( 'NONE', #75, .T. ) ;
#215 = CARTESIAN_POINT ( 'NONE',  ( 0.0000000000000000000, 0.0000000000000000000, 0.0000000000000000000 ) ) ;
#216 = DIRECTION ( 'NONE',  ( -3.491481338843133355E-15, 1.224646799147353454E-16, -1.000000000000000000 ) ) ;
#217 = DATE_AND_TIME ( #79, #267 ) ;
#218 = CARTESIAN_POINT ( 'NONE',  ( 8.728703347107833388E-14, -3.035766082959412415E-15, 25.00000000000000000 ) ) ;
#219 = CC_DESIGN_PERSON_AND_ORGANIZATION_ASSIGNMENT ( #181, #179, ( #230 ) ) ;
#220 = CIRCLE ( 'NONE', #31, 1.245000000000000107 ) ;
#221 = DATE_AND_TIME ( #150, #290 ) ;
#222 = TOROIDAL_SURFACE ( 'NONE', #93, 3.245000000000000107, 2.000000000000000000 ) ;
#223 = EDGE_LOOP ( 'NONE', ( #147 ) ) ;
#224 = EDGE_CURVE ( 'NONE', #209, #209, #35, .T. ) ;
#225 = DIRECTION ( 'NONE',  ( 0.0000000000000000000, -1.000000000000000000, 0.0000000000000000000 ) ) ;
#226 = ORIENTED_EDGE ( 'NONE', *, *, #204, .T. ) ;
#227 = AXIS2_PLACEMENT_3D ( 'NONE', #172, #259, #137 ) ;
#228 = ORIENTED_EDGE ( 'NONE', *, *, #82, .F. ) ;
#229 = DIRECTION ( 'NONE',  ( -3.491481338843133355E-15, 1.224646799147353454E-16, -1.000000000000000000 ) ) ;
#230 = PRODUCT_DEFINITION ( 'UNKNOWN', '', #122, #65 ) ;
#231 = PERSON_AND_ORGANIZATION ( #119, #128 ) ;
#232 = CARTESIAN_POINT ( 'NONE',  ( 3.612429800294234159E-14, 1.244999999999996998, 10.34641016151378423 ) ) ;
#233 = PLANE ( 'NONE',  #9 ) ;
#234 = VERTEX_POINT ( 'NONE', #239 ) ;
#235 = DIRECTION ( 'NONE',  ( -3.491481338843133355E-15, 1.224646799147353454E-16, -1.000000000000000000 ) ) ;
#236 =( GEOMETRIC_REPRESENTATION_CONTEXT ( 3 ) GLOBAL_UNCERTAINTY_ASSIGNED_CONTEXT ( ( #12 ) ) GLOBAL_UNIT_ASSIGNED_CONTEXT ( ( #21, #168, #164 ) ) REPRESENTATION_CONTEXT ( 'NONE', 'WORKASPACE' ) );
#237 = APPLICATION_PROTOCOL_DEFINITION ( 'international standard', 'config_control_design', 1994, #105 ) ;
#238 = DIRECTION ( 'NONE',  ( -3.491481338843133355E-15, 1.224646799147353454E-16, -1.000000000000000000 ) ) ;
#239 = CARTESIAN_POINT ( 'NONE',  ( 2.119329172677781757E-13, 1.499999999999995559, 60.69999999999999574 ) ) ;
#240 = DIRECTION ( 'NONE',  ( 4.275831445896959482E-31, 1.000000000000000000, 1.224646799147353454E-16 ) ) ;
#241 = CARTESIAN_POINT ( 'NONE',  ( 2.129803616694311221E-13, -7.470345474798856659E-15, 61.00000000000000000 ) ) ;
#242 = LOCAL_TIME ( 8, 16, 34.00000000000000000, #92 ) ;
#243 = APPROVAL ( #123, 'UNSPECIFIED' ) ;
#244 = ADVANCED_FACE ( 'NONE', ( #206, #85 ), #183, .T. ) ;
#245 = CARTESIAN_POINT ( 'NONE',  ( 3.612429800294234159E-14, -1.267069808696350687E-15, 10.34641016151378423 ) ) ;
#246 = AXIS2_PLACEMENT_3D ( 'NONE', #178, #26, #127 ) ;
#247 = ORIENTED_EDGE ( 'NONE', *, *, #224, .F. ) ;
#248 = ORIENTED_EDGE ( 'NONE', *, *, #112, .T. ) ;
#249 = FACE_BOUND ( 'NONE', #109, .T. ) ;
#250 = CARTESIAN_POINT ( 'NONE',  ( 2.129803616694311221E-13, 1.199999999999995515, 61.00000000000000000 ) ) ;
#251 = CYLINDRICAL_SURFACE ( 'NONE', #281, 1.444999999999999396 ) ;
#252 = SHAPE_DEFINITION_REPRESENTATION ( #49, #284 ) ;
#253 = CARTESIAN_POINT ( 'NONE',  ( 9.294726307653205842E-14, 1.499999999999992673, 26.62115419105438718 ) ) ;
#254 = DIRECTION ( 'NONE',  ( 3.491481338843133355E-15, -1.224646799147353454E-16, 1.000000000000000000 ) ) ;
#255 = APPLICATION_PROTOCOL_DEFINITION ( 'international standard', 'config_control_design', 1994, #55 ) ;
#256 = FACE_OUTER_BOUND ( 'NONE', #63, .T. ) ;
#257 = CC_DESIGN_APPROVAL ( #243, ( #230 ) ) ;
#258 = PERSON_AND_ORGANIZATION ( #119, #128 ) ;
#259 = DIRECTION ( 'NONE',  ( -3.491481338843133355E-15, 1.224646799147353454E-16, -1.000000000000000000 ) ) ;
#260 = FACE_OUTER_BOUND ( 'NONE', #297, .T. ) ;
#261 = DIRECTION ( 'NONE',  ( -3.491481338843133355E-15, 1.224646799147353454E-16, -1.000000000000000000 ) ) ;
#262 = DIRECTION ( 'NONE',  ( -3.491481338843133355E-15, 1.224646799147353454E-16, -1.000000000000000000 ) ) ;
#263 = ADVANCED_FACE ( 'NONE', ( #73, #39 ), #194, .T. ) ;
#264 = AXIS2_PLACEMENT_3D ( 'NONE', #241, #102, #196 ) ;
#265 = PRODUCT_RELATED_PRODUCT_CATEGORY ( 'detail', '', ( #121 ) ) ;
#266 = COORDINATED_UNIVERSAL_TIME_OFFSET ( 1, 0, .AHEAD. ) ;
#267 = LOCAL_TIME ( 8, 16, 34.00000000000000000, #197 ) ;
#268 = DATE_AND_TIME ( #289, #134 ) ;
#269 = FACE_OUTER_BOUND ( 'NONE', #44, .T. ) ;
#270 = AXIS2_PLACEMENT_3D ( 'NONE', #46, #254, #210 ) ;
#271 = DIRECTION ( 'NONE',  ( -3.491481338843133355E-15, 1.224646799147353454E-16, -1.000000000000000000 ) ) ;
#272 = EDGE_LOOP ( 'NONE', ( #59 ) ) ;
#273 = VERTEX_POINT ( 'NONE', #117 ) ;
#274 = CC_DESIGN_APPROVAL ( #84, ( #25 ) ) ;
#275 = ORIENTED_EDGE ( 'NONE', *, *, #89, .T. ) ;
#276 = CARTESIAN_POINT ( 'NONE',  ( 3.785471652766322713E-31, 1.195000000000001616, 1.084202172485504434E-16 ) ) ;
#277 = DIRECTION ( 'NONE',  ( 0.0000000000000000000, 1.000000000000000000, 0.0000000000000000000 ) ) ;
#278 = FACE_OUTER_BOUND ( 'NONE', #37, .T. ) ;
#279 = VERTEX_POINT ( 'NONE', #276 ) ;
#280 = CARTESIAN_POINT ( 'NONE',  ( 0.0000000000000000000, 0.0000000000000000000, 0.0000000000000000000 ) ) ;
#281 = AXIS2_PLACEMENT_3D ( 'NONE', #40, #193, #195 ) ;
#282 = AXIS2_PLACEMENT_3D ( 'NONE', #287, #7, #169 ) ;
#283 = CALENDAR_DATE ( 2021, 2, 12 ) ;
#284 = ADVANCED_BREP_SHAPE_REPRESENTATION ( '327111', ( #57, #51, #74 ), #236 ) ;
#285 = EDGE_LOOP ( 'NONE', ( #133 ) ) ;
#286 = CC_DESIGN_PERSON_AND_ORGANIZATION_ASSIGNMENT ( #23, #211, ( #121 ) ) ;
#287 = CARTESIAN_POINT ( 'NONE',  ( 2.119329172677781757E-13, -7.433606070824434221E-15, 60.69999999999999574 ) ) ;
#288 = AXIS2_PLACEMENT_3D ( 'NONE', #245, #185, #107 ) ;
#289 = CALENDAR_DATE ( 2021, 2, 12 ) ;
#290 = LOCAL_TIME ( 8, 16, 34.00000000000000000, #126 ) ;
#291 = EDGE_CURVE ( 'NONE', #279, #279, #184, .T. ) ;
#292 = DIRECTION ( 'NONE',  ( 0.0000000000000000000, 1.000000000000000000, 0.0000000000000000000 ) ) ;
#293 = EDGE_LOOP ( 'NONE', ( #190 ) ) ;
#294 = APPROVAL_PERSON_ORGANIZATION ( #48, #52, #149 ) ;
#295 = EDGE_LOOP ( 'NONE', ( #2 ) ) ;
#296 = APPROVAL_ROLE ( '' ) ;
#297 = EDGE_LOOP ( 'NONE', ( #202 ) ) ;
#298 = PERSON_AND_ORGANIZATION_ROLE ( 'classification_officer' ) ;
#299 = DIRECTION ( 'NONE',  ( -3.491481338843133355E-15, 1.224646799147353454E-16, -1.000000000000000000 ) ) ;
#300 = CONICAL_SURFACE ( 'NONE', #188, 1.499999999999996003, 0.1745329251994268138 ) ;
#301 = CARTESIAN_POINT ( 'NONE',  ( 2.129803616694311221E-13, 8.998558695971062171E-33, 61.00000000000000000 ) ) ;
#302 = EDGE_CURVE ( 'NONE', #16, #16, #17, .T. ) ;
#303 = DIRECTION ( 'NONE',  ( 0.0000000000000000000, 1.000000000000000000, 0.0000000000000000000 ) ) ;
ENDSEC;
END-ISO-10303-21;
