ISO-10303-21;
HEADER;
FILE_DESCRIPTION (( 'STEP AP203' ),
    '1' );
FILE_NAME ('327110.step',
    '2021-12-02T07:16:34',
    ( '' ),
    ( '' ),
    'SwSTEP 2.0',
    'SolidWorks 2019',
    '' );
FILE_SCHEMA (( 'CONFIG_CONTROL_DESIGN' ));
ENDSEC;

DATA;
#1 = CARTESIAN_POINT ( 'NONE',  ( 2.119329172677781757E-13, -7.433606070824434221E-15, 60.69999999999999574 ) ) ;
#2 = AXIS2_PLACEMENT_3D ( 'NONE', #97, #72, #93 ) ;
#3 = EDGE_LOOP ( 'NONE', ( #298 ) ) ;
#4 = CARTESIAN_POINT ( 'NONE',  ( 2.129803616694311221E-13, 8.998558695971062171E-33, 61.00000000000000000 ) ) ;
#5 = COORDINATED_UNIVERSAL_TIME_OFFSET ( 1, 0, .AHEAD. ) ;
#6 = DIRECTION ( 'NONE',  ( -3.491481338843133355E-15, 1.224646799147353454E-16, -1.000000000000000000 ) ) ;
#7 = MECHANICAL_CONTEXT ( 'NONE', #186, 'mechanical' ) ;
#8 = DIRECTION ( 'NONE',  ( -4.275831445896959482E-31, -1.000000000000000000, -1.224646799147353454E-16 ) ) ;
#9 = DIRECTION ( 'NONE',  ( 4.275831445896958607E-31, 1.000000000000000000, 1.224646799147353454E-16 ) ) ;
#10 = LOCAL_TIME ( 8, 16, 34.00000000000000000, #5 ) ;
#11 = DIRECTION ( 'NONE',  ( 0.0000000000000000000, 1.000000000000000000, 0.0000000000000000000 ) ) ;
#12 = EDGE_CURVE ( 'NONE', #288, #288, #35, .T. ) ;
#13 = DATE_AND_TIME ( #154, #291 ) ;
#14 = ORIENTED_EDGE ( 'NONE', *, *, #166, .T. ) ;
#15 = AXIS2_PLACEMENT_3D ( 'NONE', #4, #165, #116 ) ;
#16 = EDGE_LOOP ( 'NONE', ( #70 ) ) ;
#17 = CIRCLE ( 'NONE', #41, 1.240000000000000213 ) ;
#18 = EDGE_LOOP ( 'NONE', ( #63 ) ) ;
#19 = ADVANCED_FACE ( 'NONE', ( #71, #20 ), #205, .T. ) ;
#20 = FACE_OUTER_BOUND ( 'NONE', #271, .T. ) ;
#21 = ORIENTED_EDGE ( 'NONE', *, *, #12, .T. ) ;
#22 = APPLICATION_CONTEXT ( 'configuration controlled 3d designs of mechanical parts and assemblies' ) ;
#23 = DIRECTION ( 'NONE',  ( -3.491481338843133355E-15, 1.224646799147353454E-16, -1.000000000000000000 ) ) ;
#24 = CIRCLE ( 'NONE', #202, 1.439999999999999947 ) ;
#25 = ORIENTED_EDGE ( 'NONE', *, *, #76, .T. ) ;
#26 = FACE_OUTER_BOUND ( 'NONE', #66, .T. ) ;
#27 = ORIENTED_EDGE ( 'NONE', *, *, #12, .F. ) ;
#28 = AXIS2_PLACEMENT_3D ( 'NONE', #260, #141, #229 ) ;
#29 = DIRECTION ( 'NONE',  ( -4.275831445896959482E-31, -1.000000000000000000, -1.224646799147353454E-16 ) ) ;
#30 = CARTESIAN_POINT ( 'NONE',  ( 2.119329172677781757E-13, 1.499999999999995559, 60.69999999999999574 ) ) ;
#31 = CARTESIAN_POINT ( 'NONE',  ( 2.129803616694311221E-13, 1.199999999999995515, 61.00000000000000000 ) ) ;
#32 = CARTESIAN_POINT ( 'NONE',  ( 8.728703347107833388E-14, -3.061616997868383831E-15, 25.00000000000000000 ) ) ;
#33 = APPLICATION_PROTOCOL_DEFINITION ( 'international standard', 'config_control_design', 1994, #186 ) ;
#34 = CC_DESIGN_PERSON_AND_ORGANIZATION_ASSIGNMENT ( #172, #250, ( #131 ) ) ;
#35 = CIRCLE ( 'NONE', #73, 1.499999999999996003 ) ;
#36 = FACE_OUTER_BOUND ( 'NONE', #117, .T. ) ;
#37 = LOCAL_TIME ( 8, 16, 34.00000000000000000, #272 ) ;
#38 = APPROVAL_STATUS ( 'not_yet_approved' ) ;
#39 = EDGE_LOOP ( 'NONE', ( #270 ) ) ;
#40 = ADVANCED_FACE ( 'NONE', ( #49 ), #210, .F. ) ;
#41 = AXIS2_PLACEMENT_3D ( 'NONE', #32, #219, #239 ) ;
#42 = EDGE_LOOP ( 'NONE', ( #183 ) ) ;
#43 = AXIS2_PLACEMENT_3D ( 'NONE', #231, #191, #259 ) ;
#44 = PRODUCT_DEFINITION ( 'UNKNOWN', '', #131, #54 ) ;
#45 = EDGE_LOOP ( 'NONE', ( #285 ) ) ;
#46 = DIRECTION ( 'NONE',  ( 0.0000000000000000000, 1.000000000000000000, 0.0000000000000000000 ) ) ;
#47 = CLOSED_SHELL ( 'NONE', ( #273, #134, #92, #254, #19, #178, #187, #40 ) ) ;
#48 = DIRECTION ( 'NONE',  ( -3.491481338843133355E-15, 1.224646799147353454E-16, -1.000000000000000000 ) ) ;
#49 = FACE_OUTER_BOUND ( 'NONE', #42, .T. ) ;
#50 = VERTEX_POINT ( 'NONE', #106 ) ;
#51 = DIRECTION ( 'NONE',  ( 4.275831445896960358E-31, 1.000000000000000000, 1.224646799147353454E-16 ) ) ;
#52 = AXIS2_PLACEMENT_3D ( 'NONE', #255, #23, #214 ) ;
#53 = CARTESIAN_POINT ( 'NONE',  ( 8.849961221477469775E-14, 1.270384493975576401, 25.34729635533384595 ) ) ;
#54 = DESIGN_CONTEXT ( 'detailed design', #22, 'design' ) ;
#55 = FACE_OUTER_BOUND ( 'NONE', #216, .T. ) ;
#56 = CARTESIAN_POINT ( 'NONE',  ( 8.728703347107833388E-14, 1.239999999999997105, 25.00000000000000000 ) ) ;
#57 = AXIS2_PLACEMENT_3D ( 'NONE', #153, #151, #244 ) ;
#58 = FACE_OUTER_BOUND ( 'NONE', #274, .T. ) ;
#59 = COORDINATED_UNIVERSAL_TIME_OFFSET ( 1, 0, .AHEAD. ) ;
#60 = CARTESIAN_POINT ( 'NONE',  ( 8.728703347107833388E-14, -3.035766082959412415E-15, 25.00000000000000000 ) ) ;
#61 = PERSON_AND_ORGANIZATION ( #281, #190 ) ;
#62 = CC_DESIGN_APPROVAL ( #295, ( #44 ) ) ;
#63 = ORIENTED_EDGE ( 'NONE', *, *, #120, .F. ) ;
#64 = APPROVAL_STATUS ( 'not_yet_approved' ) ;
#65 = TOROIDAL_SURFACE ( 'NONE', #233, 3.240000000000000213, 2.000000000000000444 ) ;
#66 = EDGE_LOOP ( 'NONE', ( #118 ) ) ;
#67 = EDGE_CURVE ( 'NONE', #241, #241, #139, .T. ) ;
#68 = AXIS2_PLACEMENT_3D ( 'NONE', #142, #257, #143 ) ;
#69 = CARTESIAN_POINT ( 'NONE',  ( 3.491481338843133355E-14, -1.224646799147353454E-15, 10.00000000000000000 ) ) ;
#70 = ORIENTED_EDGE ( 'NONE', *, *, #184, .F. ) ;
#71 = FACE_BOUND ( 'NONE', #123, .T. ) ;
#72 = DIRECTION ( 'NONE',  ( -3.491481338843133355E-15, 1.224646799147353454E-16, -1.000000000000000000 ) ) ;
#73 = AXIS2_PLACEMENT_3D ( 'NONE', #303, #94, #194 ) ;
#74 = CARTESIAN_POINT ( 'NONE',  ( 3.612429800294234159E-14, -1.267069808696350687E-15, 10.34641016151378423 ) ) ;
#75 = COORDINATED_UNIVERSAL_TIME_OFFSET ( 1, 0, .AHEAD. ) ;
#76 = EDGE_CURVE ( 'NONE', #152, #152, #215, .T. ) ;
#77 = DIRECTION ( 'NONE',  ( -4.012354050806745156E-31, -1.000000000000000000, -1.129377263005734854E-16 ) ) ;
#78 = APPROVAL_DATE_TIME ( #287, #283 ) ;
#79 = CARTESIAN_POINT ( 'NONE',  ( 9.304626894973464275E-14, 1.499999999999992673, 26.64951060015247819 ) ) ;
#80 = CARTESIAN_POINT ( 'NONE',  ( 3.612429800294234159E-14, 1.239999999999996882, 10.34641016151378423 ) ) ;
#81 = CYLINDRICAL_SURFACE ( 'NONE', #137, 1.499999999999999334 ) ;
#82 = EDGE_CURVE ( 'NONE', #147, #147, #238, .T. ) ;
#83 = AXIS2_PLACEMENT_3D ( 'NONE', #262, #245, #108 ) ;
#84 = CARTESIAN_POINT ( 'NONE',  ( 3.491481338843133355E-14, -1.224646799147353454E-15, 10.00000000000000000 ) ) ;
#85 = VERTEX_POINT ( 'NONE', #56 ) ;
#86 = AXIS2_PLACEMENT_3D ( 'NONE', #1, #99, #217 ) ;
#87 = DATE_AND_TIME ( #88, #37 ) ;
#88 = CALENDAR_DATE ( 2021, 2, 12 ) ;
#89 = CC_DESIGN_PERSON_AND_ORGANIZATION_ASSIGNMENT ( #185, #136, ( #168 ) ) ;
#90 = ORIENTED_EDGE ( 'NONE', *, *, #82, .F. ) ;
#91 = CC_DESIGN_APPROVAL ( #280, ( #168 ) ) ;
#92 = ADVANCED_FACE ( 'NONE', ( #146, #164 ), #302, .T. ) ;
#93 = DIRECTION ( 'NONE',  ( 0.0000000000000000000, 1.000000000000000000, 0.0000000000000000000 ) ) ;
#94 = DIRECTION ( 'NONE',  ( -3.491481338843133355E-15, 1.224646799147353454E-16, -1.000000000000000000 ) ) ;
#95 = AXIS2_PLACEMENT_3D ( 'NONE', #290, #265, #9 ) ;
#96 = FACE_BOUND ( 'NONE', #39, .T. ) ;
#97 = CARTESIAN_POINT ( 'NONE',  ( 8.849961221477469775E-14, -3.104148534859897544E-15, 25.34729635533384595 ) ) ;
#98 = EDGE_CURVE ( 'NONE', #289, #289, #179, .T. ) ;
#99 = DIRECTION ( 'NONE',  ( -3.491481338843133355E-15, 1.224646799147353454E-16, -1.000000000000000000 ) ) ;
#100 = DATE_TIME_ROLE ( 'creation_date' ) ;
#101 = CARTESIAN_POINT ( 'NONE',  ( 3.491481338843133355E-14, 1.079827043516535918E-32, 10.00000000000000000 ) ) ;
#102 =( NAMED_UNIT ( * ) PLANE_ANGLE_UNIT ( ) SI_UNIT ( $, .RADIAN. ) );
#103 =( NAMED_UNIT ( * ) SI_UNIT ( $, .STERADIAN. ) SOLID_ANGLE_UNIT ( ) );
#104 = ADVANCED_BREP_SHAPE_REPRESENTATION ( '327110', ( #212, #211, #278 ), #113 ) ;
#105 = FACE_OUTER_BOUND ( 'NONE', #282, .T. ) ;
#106 = CARTESIAN_POINT ( 'NONE',  ( 1.135641495829896858E-30, 1.190000000000001279, 3.252606517456513302E-16 ) ) ;
#107 = AXIS2_PLACEMENT_3D ( 'NONE', #101, #223, #29 ) ;
#108 = DIRECTION ( 'NONE',  ( 4.275831445896960358E-31, 1.000000000000000000, 1.224646799147353454E-16 ) ) ;
#109 = PERSON_AND_ORGANIZATION_ROLE ( 'creator' ) ;
#110 = APPROVAL_ROLE ( '' ) ;
#111 = CIRCLE ( 'NONE', #148, 1.200000000000002842 ) ;
#112 = ORIENTED_EDGE ( 'NONE', *, *, #67, .F. ) ;
#113 =( GEOMETRIC_REPRESENTATION_CONTEXT ( 3 ) GLOBAL_UNCERTAINTY_ASSIGNED_CONTEXT ( ( #264 ) ) GLOBAL_UNIT_ASSIGNED_CONTEXT ( ( #128, #102, #103 ) ) REPRESENTATION_CONTEXT ( 'NONE', 'WORKASPACE' ) );
#114 = PRODUCT_RELATED_PRODUCT_CATEGORY ( 'detail', '', ( #163 ) ) ;
#115 = LOCAL_TIME ( 8, 16, 34.00000000000000000, #180 ) ;
#116 = DIRECTION ( 'NONE',  ( 4.275831445896959482E-31, 1.000000000000000000, 1.224646799147353454E-16 ) ) ;
#117 = EDGE_LOOP ( 'NONE', ( #256 ) ) ;
#118 = ORIENTED_EDGE ( 'NONE', *, *, #98, .T. ) ;
#119 = APPROVAL_PERSON_ORGANIZATION ( #199, #295, #246 ) ;
#120 = EDGE_CURVE ( 'NONE', #150, #150, #276, .T. ) ;
#121 = CARTESIAN_POINT ( 'NONE',  ( 8.728703347107827472E-16, -3.061616997868381785E-17, 0.2499999999999998335 ) ) ;
#122 = AXIS2_PLACEMENT_3D ( 'NONE', #189, #232, #236 ) ;
#123 = EDGE_LOOP ( 'NONE', ( #228 ) ) ;
#124 = APPROVAL_DATE_TIME ( #13, #295 ) ;
#125 = DIRECTION ( 'NONE',  ( -3.491481338843133355E-15, 1.224646799147353454E-16, -1.000000000000000000 ) ) ;
#126 = CARTESIAN_POINT ( 'NONE',  ( 3.491481338843133355E-14, 1.439999999999998614, 10.00000000000000000 ) ) ;
#127 = CARTESIAN_POINT ( 'NONE',  ( 2.129803616694311221E-13, -7.470345474798856659E-15, 61.00000000000000000 ) ) ;
#128 =( LENGTH_UNIT ( ) NAMED_UNIT ( * ) SI_UNIT ( .MILLI., .METRE. ) );
#129 = FACE_OUTER_BOUND ( 'NONE', #249, .T. ) ;
#130 = PERSON_AND_ORGANIZATION ( #281, #190 ) ;
#131 = PRODUCT_DEFINITION_FORMATION_WITH_SPECIFIED_SOURCE ( 'ANY', '', #163, .NOT_KNOWN. ) ;
#132 = PLANE ( 'NONE',  #107 ) ;
#133 = DIRECTION ( 'NONE',  ( 0.0000000000000000000, 0.0000000000000000000, 1.000000000000000000 ) ) ;
#134 = ADVANCED_FACE ( 'NONE', ( #193, #96 ), #261, .T. ) ;
#135 = ORIENTED_EDGE ( 'NONE', *, *, #235, .F. ) ;
#136 = PERSON_AND_ORGANIZATION_ROLE ( 'classification_officer' ) ;
#137 = AXIS2_PLACEMENT_3D ( 'NONE', #174, #125, #51 ) ;
#138 = ADVANCED_FACE ( 'NONE', ( #234, #26 ), #253, .T. ) ;
#139 = CIRCLE ( 'NONE', #86, 1.500000000000002887 ) ;
#140 = LOCAL_TIME ( 8, 16, 34.00000000000000000, #75 ) ;
#141 = DIRECTION ( 'NONE',  ( 3.491481338843133355E-15, -1.224646799147353454E-16, 1.000000000000000000 ) ) ;
#142 = CARTESIAN_POINT ( 'NONE',  ( 0.0000000000000000000, 0.0000000000000000000, 0.0000000000000000000 ) ) ;
#143 = DIRECTION ( 'NONE',  ( 4.275831445896959482E-31, 1.000000000000000000, 1.224646799147353454E-16 ) ) ;
#144 = CC_DESIGN_DATE_AND_TIME_ASSIGNMENT ( #268, #100, ( #44 ) ) ;
#145 = DIRECTION ( 'NONE',  ( 0.0000000000000000000, 1.000000000000000000, 0.0000000000000000000 ) ) ;
#146 = FACE_OUTER_BOUND ( 'NONE', #18, .T. ) ;
#147 = VERTEX_POINT ( 'NONE', #242 ) ;
#148 = AXIS2_PLACEMENT_3D ( 'NONE', #127, #6, #200 ) ;
#149 = DIRECTION ( 'NONE',  ( -3.491481338843133355E-15, 1.224646799147353454E-16, -1.000000000000000000 ) ) ;
#150 = VERTEX_POINT ( 'NONE', #80 ) ;
#151 = DIRECTION ( 'NONE',  ( -3.491481338843133355E-15, 1.224646799147353454E-16, -1.000000000000000000 ) ) ;
#152 = VERTEX_POINT ( 'NONE', #53 ) ;
#153 = CARTESIAN_POINT ( 'NONE',  ( 2.129803616694311221E-13, -7.470345474798856659E-15, 61.00000000000000000 ) ) ;
#154 = CALENDAR_DATE ( 2021, 2, 12 ) ;
#155 = PLANE ( 'NONE',  #161 ) ;
#156 = VERTEX_POINT ( 'NONE', #126 ) ;
#157 = APPROVAL_PERSON_ORGANIZATION ( #297, #280, #110 ) ;
#158 = ADVANCED_FACE ( 'NONE', ( #169 ), #171, .T. ) ;
#159 = PERSON_AND_ORGANIZATION ( #281, #190 ) ;
#160 = EDGE_LOOP ( 'NONE', ( #225 ) ) ;
#161 = AXIS2_PLACEMENT_3D ( 'NONE', #218, #292, #8 ) ;
#162 = ORIENTED_EDGE ( 'NONE', *, *, #82, .T. ) ;
#163 = PRODUCT ( '327110', '327110', '', ( #7 ) ) ;
#164 = FACE_OUTER_BOUND ( 'NONE', #160, .T. ) ;
#165 = DIRECTION ( 'NONE',  ( -3.491481338843133355E-15, 1.224646799147353454E-16, -1.000000000000000000 ) ) ;
#166 = EDGE_CURVE ( 'NONE', #240, #240, #111, .T. ) ;
#167 = DIRECTION ( 'NONE',  ( -3.491481338843133355E-15, 1.224646799147353454E-16, -1.000000000000000000 ) ) ;
#168 = SECURITY_CLASSIFICATION ( '', '', #248 ) ;
#169 = FACE_OUTER_BOUND ( 'NONE', #16, .T. ) ;
#170 = CALENDAR_DATE ( 2021, 2, 12 ) ;
#171 = PLANE ( 'NONE',  #28 ) ;
#172 = PERSON_AND_ORGANIZATION ( #281, #190 ) ;
#173 = FACE_BOUND ( 'NONE', #277, .T. ) ;
#174 = CARTESIAN_POINT ( 'NONE',  ( 0.0000000000000000000, 0.0000000000000000000, 0.0000000000000000000 ) ) ;
#175 = CONICAL_SURFACE ( 'NONE', #57, 1.200000000000002842, 0.7853981633974453924 ) ;
#176 = DIRECTION ( 'NONE',  ( -3.491481338843133355E-15, 1.224646799147353454E-16, -1.000000000000000000 ) ) ;
#177 = CALENDAR_DATE ( 2021, 2, 12 ) ;
#178 = ADVANCED_FACE ( 'NONE', ( #129, #294 ), #81, .T. ) ;
#179 = CIRCLE ( 'NONE', #122, 1.439999999999998614 ) ;
#180 = COORDINATED_UNIVERSAL_TIME_OFFSET ( 1, 0, .AHEAD. ) ;
#181 = EDGE_LOOP ( 'NONE', ( #25 ) ) ;
#182 = SHAPE_DEFINITION_REPRESENTATION ( #275, #104 ) ;
#183 = ORIENTED_EDGE ( 'NONE', *, *, #166, .F. ) ;
#184 = EDGE_CURVE ( 'NONE', #156, #156, #24, .T. ) ;
#185 = PERSON_AND_ORGANIZATION ( #281, #190 ) ;
#186 = APPLICATION_CONTEXT ( 'configuration controlled 3d designs of mechanical parts and assemblies' ) ;
#187 = ADVANCED_FACE ( 'NONE', ( #58, #173 ), #175, .T. ) ;
#188 = AXIS2_PLACEMENT_3D ( 'NONE', #69, #167, #46 ) ;
#189 = CARTESIAN_POINT ( 'NONE',  ( 8.728703347107827472E-16, -3.061616997868381785E-17, 0.2499999999999998335 ) ) ;
#190 = ORGANIZATION ( 'UNSPECIFIED', 'UNSPECIFIED', '' ) ;
#191 = DIRECTION ( 'NONE',  ( 3.491481338843133355E-15, -1.224646799147353454E-16, 1.000000000000000000 ) ) ;
#192 = EDGE_LOOP ( 'NONE', ( #135 ) ) ;
#193 = FACE_OUTER_BOUND ( 'NONE', #206, .T. ) ;
#194 = DIRECTION ( 'NONE',  ( 0.0000000000000000000, 1.000000000000000000, 0.0000000000000000000 ) ) ;
#195 = APPROVAL_STATUS ( 'not_yet_approved' ) ;
#196 = FACE_OUTER_BOUND ( 'NONE', #45, .T. ) ;
#197 = DIRECTION ( 'NONE',  ( 1.000000000000000000, 0.0000000000000000000, 0.0000000000000000000 ) ) ;
#198 = DIRECTION ( 'NONE',  ( 4.275831445896959482E-31, 1.000000000000000000, 1.224646799147353454E-16 ) ) ;
#199 = PERSON_AND_ORGANIZATION ( #281, #190 ) ;
#200 = DIRECTION ( 'NONE',  ( 0.0000000000000000000, 1.000000000000000000, 0.0000000000000000000 ) ) ;
#201 = CC_DESIGN_PERSON_AND_ORGANIZATION_ASSIGNMENT ( #130, #109, ( #44 ) ) ;
#202 = AXIS2_PLACEMENT_3D ( 'NONE', #84, #176, #11 ) ;
#203 = CYLINDRICAL_SURFACE ( 'NONE', #95, 1.439999999999999281 ) ;
#204 = APPROVAL_ROLE ( '' ) ;
#205 = CONICAL_SURFACE ( 'NONE', #43, 1.499999999999996003, 0.1745329251994281738 ) ;
#206 = EDGE_LOOP ( 'NONE', ( #90 ) ) ;
#207 = DATE_TIME_ROLE ( 'classification_date' ) ;
#208 = ORIENTED_EDGE ( 'NONE', *, *, #235, .T. ) ;
#209 = EDGE_CURVE ( 'NONE', #85, #85, #17, .T. ) ;
#210 = PLANE ( 'NONE',  #15 ) ;
#211 = MANIFOLD_SOLID_BREP ( 'Corps-Déplacer/Copier1[2]', #230 ) ;
#212 = MANIFOLD_SOLID_BREP ( 'Corps-Déplacer/Copier1[1]', #47 ) ;
#213 = CIRCLE ( 'NONE', #83, 1.190000000000001279 ) ;
#214 = DIRECTION ( 'NONE',  ( 0.0000000000000000000, 1.000000000000000000, 0.0000000000000000000 ) ) ;
#215 = CIRCLE ( 'NONE', #2, 1.270384493975579510 ) ;
#216 = EDGE_LOOP ( 'NONE', ( #208 ) ) ;
#217 = DIRECTION ( 'NONE',  ( 0.0000000000000000000, 1.000000000000000000, 0.0000000000000000000 ) ) ;
#218 = CARTESIAN_POINT ( 'NONE',  ( 3.134087768840790160E-31, -1.099290009560662933E-32, 8.976384132355805178E-17 ) ) ;
#219 = DIRECTION ( 'NONE',  ( -3.491481338843133355E-15, 1.224646799147353454E-16, -1.000000000000000000 ) ) ;
#220 = FACE_OUTER_BOUND ( 'NONE', #279, .T. ) ;
#221 = CARTESIAN_POINT ( 'NONE',  ( 8.728703347107833388E-16, 1.439999999999998614, 0.2500000000000000000 ) ) ;
#222 = CC_DESIGN_SECURITY_CLASSIFICATION ( #168, ( #131 ) ) ;
#223 = DIRECTION ( 'NONE',  ( 3.491481338843133355E-15, -1.224646799147353454E-16, 1.000000000000000000 ) ) ;
#224 = APPROVAL_DATE_TIME ( #87, #280 ) ;
#225 = ORIENTED_EDGE ( 'NONE', *, *, #209, .T. ) ;
#226 = DATE_AND_TIME ( #247, #115 ) ;
#227 = CC_DESIGN_PERSON_AND_ORGANIZATION_ASSIGNMENT ( #159, #299, ( #131 ) ) ;
#228 = ORIENTED_EDGE ( 'NONE', *, *, #76, .F. ) ;
#229 = DIRECTION ( 'NONE',  ( -4.275831445896959482E-31, -1.000000000000000000, -1.224646799147353454E-16 ) ) ;
#230 = CLOSED_SHELL ( 'NONE', ( #243, #138, #258, #158 ) ) ;
#231 = CARTESIAN_POINT ( 'NONE',  ( 9.304626894973464275E-14, -3.263623785532019704E-15, 26.64951060015247819 ) ) ;
#232 = DIRECTION ( 'NONE',  ( -3.491481338843133355E-15, 1.224646799147353454E-16, -1.000000000000000000 ) ) ;
#233 = AXIS2_PLACEMENT_3D ( 'NONE', #60, #149, #198 ) ;
#234 = FACE_BOUND ( 'NONE', #192, .T. ) ;
#235 = EDGE_CURVE ( 'NONE', #50, #50, #213, .T. ) ;
#236 = DIRECTION ( 'NONE',  ( 4.012354050806745156E-31, 1.000000000000000000, 1.129377263005734854E-16 ) ) ;
#237 = PERSON_AND_ORGANIZATION_ROLE ( 'design_owner' ) ;
#238 = CIRCLE ( 'NONE', #188, 1.439999999999999947 ) ;
#239 = DIRECTION ( 'NONE',  ( 0.0000000000000000000, 1.000000000000000000, 0.0000000000000000000 ) ) ;
#240 = VERTEX_POINT ( 'NONE', #31 ) ;
#241 = VERTEX_POINT ( 'NONE', #30 ) ;
#242 = CARTESIAN_POINT ( 'NONE',  ( 3.491481338843133355E-14, 1.439999999999998614, 10.00000000000000000 ) ) ;
#243 = ADVANCED_FACE ( 'NONE', ( #55 ), #155, .F. ) ;
#244 = DIRECTION ( 'NONE',  ( 0.0000000000000000000, 1.000000000000000000, 0.0000000000000000000 ) ) ;
#245 = DIRECTION ( 'NONE',  ( -3.491481338843133355E-15, 1.224646799147353454E-16, -1.000000000000000000 ) ) ;
#246 = APPROVAL_ROLE ( '' ) ;
#247 = CALENDAR_DATE ( 2021, 2, 12 ) ;
#248 = SECURITY_CLASSIFICATION_LEVEL ( 'unclassified' ) ;
#249 = EDGE_LOOP ( 'NONE', ( #27 ) ) ;
#250 = PERSON_AND_ORGANIZATION_ROLE ( 'creator' ) ;
#251 = CC_DESIGN_DATE_AND_TIME_ASSIGNMENT ( #226, #207, ( #168 ) ) ;
#252 = AXIS2_PLACEMENT_3D ( 'NONE', #74, #48, #145 ) ;
#253 = CONICAL_SURFACE ( 'NONE', #296, 1.439999999999998614, 0.7853981633974432830 ) ;
#254 = ADVANCED_FACE ( 'NONE', ( #196, #267 ), #65, .F. ) ;
#255 = CARTESIAN_POINT ( 'NONE',  ( 3.612429800294234159E-14, -1.267069808696350687E-15, 10.34641016151378423 ) ) ;
#256 = ORIENTED_EDGE ( 'NONE', *, *, #184, .T. ) ;
#257 = DIRECTION ( 'NONE',  ( -3.491481338843133355E-15, 1.224646799147353454E-16, -1.000000000000000000 ) ) ;
#258 = ADVANCED_FACE ( 'NONE', ( #220, #36 ), #203, .T. ) ;
#259 = DIRECTION ( 'NONE',  ( 0.0000000000000000000, -1.000000000000000000, 0.0000000000000000000 ) ) ;
#260 = CARTESIAN_POINT ( 'NONE',  ( 3.491481338843133355E-14, 1.079827043516535918E-32, 10.00000000000000000 ) ) ;
#261 = CONICAL_SURFACE ( 'NONE', #252, 1.239999999999998215, 0.5235987755982924874 ) ;
#262 = CARTESIAN_POINT ( 'NONE',  ( 6.268175537681580320E-31, -2.198580019121325867E-32, 1.795276826471161036E-16 ) ) ;
#263 = APPLICATION_PROTOCOL_DEFINITION ( 'international standard', 'config_control_design', 1994, #22 ) ;
#264 = UNCERTAINTY_MEASURE_WITH_UNIT (LENGTH_MEASURE( 1.000000000000000082E-05 ), #128, 'distance_accuracy_value', 'NONE');
#265 = DIRECTION ( 'NONE',  ( -3.491481338843133355E-15, 1.224646799147353454E-16, -1.000000000000000000 ) ) ;
#266 = CARTESIAN_POINT ( 'NONE',  ( 0.0000000000000000000, 0.0000000000000000000, 0.0000000000000000000 ) ) ;
#267 = FACE_OUTER_BOUND ( 'NONE', #181, .T. ) ;
#268 = DATE_AND_TIME ( #177, #10 ) ;
#269 = CC_DESIGN_PERSON_AND_ORGANIZATION_ASSIGNMENT ( #293, #237, ( #163 ) ) ;
#270 = ORIENTED_EDGE ( 'NONE', *, *, #120, .T. ) ;
#271 = EDGE_LOOP ( 'NONE', ( #21 ) ) ;
#272 = COORDINATED_UNIVERSAL_TIME_OFFSET ( 1, 0, .AHEAD. ) ;
#273 = ADVANCED_FACE ( 'NONE', ( #105 ), #132, .F. ) ;
#274 = EDGE_LOOP ( 'NONE', ( #112 ) ) ;
#275 = PRODUCT_DEFINITION_SHAPE ( 'NONE', 'NONE',  #44 ) ;
#276 = CIRCLE ( 'NONE', #52, 1.239999999999998215 ) ;
#277 = EDGE_LOOP ( 'NONE', ( #14 ) ) ;
#278 = AXIS2_PLACEMENT_3D ( 'NONE', #266, #133, #197 ) ;
#279 = EDGE_LOOP ( 'NONE', ( #300 ) ) ;
#280 = APPROVAL ( #64, 'UNSPECIFIED' ) ;
#281 = PERSON ( 'UNSPECIFIED', 'UNSPECIFIED', 'UNSPECIFIED', ('UNSPECIFIED'), ('UNSPECIFIED'), ('UNSPECIFIED') ) ;
#282 = EDGE_LOOP ( 'NONE', ( #162 ) ) ;
#283 = APPROVAL ( #195, 'UNSPECIFIED' ) ;
#284 = CC_DESIGN_APPROVAL ( #283, ( #131 ) ) ;
#285 = ORIENTED_EDGE ( 'NONE', *, *, #209, .F. ) ;
#286 = DIRECTION ( 'NONE',  ( 3.491481338843133355E-15, -1.224646799147353454E-16, 1.000000000000000000 ) ) ;
#287 = DATE_AND_TIME ( #170, #140 ) ;
#288 = VERTEX_POINT ( 'NONE', #79 ) ;
#289 = VERTEX_POINT ( 'NONE', #221 ) ;
#290 = CARTESIAN_POINT ( 'NONE',  ( 0.0000000000000000000, 0.0000000000000000000, 0.0000000000000000000 ) ) ;
#291 = LOCAL_TIME ( 8, 16, 34.00000000000000000, #59 ) ;
#292 = DIRECTION ( 'NONE',  ( 3.491481338843133355E-15, -1.224646799147353454E-16, 1.000000000000000000 ) ) ;
#293 = PERSON_AND_ORGANIZATION ( #281, #190 ) ;
#294 = FACE_OUTER_BOUND ( 'NONE', #3, .T. ) ;
#295 = APPROVAL ( #38, 'UNSPECIFIED' ) ;
#296 = AXIS2_PLACEMENT_3D ( 'NONE', #121, #286, #77 ) ;
#297 = PERSON_AND_ORGANIZATION ( #281, #190 ) ;
#298 = ORIENTED_EDGE ( 'NONE', *, *, #67, .T. ) ;
#299 = PERSON_AND_ORGANIZATION_ROLE ( 'design_supplier' ) ;
#300 = ORIENTED_EDGE ( 'NONE', *, *, #98, .F. ) ;
#301 = APPROVAL_PERSON_ORGANIZATION ( #61, #283, #204 ) ;
#302 = CYLINDRICAL_SURFACE ( 'NONE', #68, 1.239999999999999325 ) ;
#303 = CARTESIAN_POINT ( 'NONE',  ( 9.304626894973464275E-14, -3.263623785532019704E-15, 26.64951060015247819 ) ) ;
ENDSEC;
END-ISO-10303-21;
