ISO-10303-21;
HEADER;
FILE_DESCRIPTION (( 'STEP AP203' ),
    '1' );
FILE_NAME ('327109.step',
    '2021-12-02T07:16:33',
    ( '' ),
    ( '' ),
    'SwSTEP 2.0',
    'SolidWorks 2019',
    '' );
FILE_SCHEMA (( 'CONFIG_CONTROL_DESIGN' ));
ENDSEC;

DATA;
#1 = AXIS2_PLACEMENT_3D ( 'NONE', #57, #154, #271 ) ;
#2 = APPLICATION_PROTOCOL_DEFINITION ( 'international standard', 'config_control_design', 1994, #98 ) ;
#3 = COORDINATED_UNIVERSAL_TIME_OFFSET ( 1, 0, .AHEAD. ) ;
#4 = CC_DESIGN_PERSON_AND_ORGANIZATION_ASSIGNMENT ( #261, #164, ( #82 ) ) ;
#5 = EDGE_LOOP ( 'NONE', ( #262 ) ) ;
#6 = FACE_BOUND ( 'NONE', #56, .T. ) ;
#7 = DIRECTION ( 'NONE',  ( 0.0000000000000000000, 1.000000000000000000, 0.0000000000000000000 ) ) ;
#8 = EDGE_LOOP ( 'NONE', ( #285 ) ) ;
#9 = AXIS2_PLACEMENT_3D ( 'NONE', #214, #168, #7 ) ;
#10 = FACE_OUTER_BOUND ( 'NONE', #19, .T. ) ;
#11 = APPROVAL ( #50, 'UNSPECIFIED' ) ;
#12 = PLANE ( 'NONE',  #158 ) ;
#13 = CARTESIAN_POINT ( 'NONE',  ( 8.728703347107833388E-14, 1.234999999999997433, 25.00000000000000000 ) ) ;
#14 = DIRECTION ( 'NONE',  ( 0.0000000000000000000, 1.000000000000000000, 0.0000000000000000000 ) ) ;
#15 = FACE_OUTER_BOUND ( 'NONE', #217, .T. ) ;
#16 = TOROIDAL_SURFACE ( 'NONE', #216, 3.235000000000000320, 2.000000000000000444 ) ;
#17 = CARTESIAN_POINT ( 'NONE',  ( 8.728703347107827472E-16, -3.061616997868381785E-17, 0.2499999999999998335 ) ) ;
#18 = DIRECTION ( 'NONE',  ( 3.491481338843133355E-15, -1.224646799147353454E-16, 1.000000000000000000 ) ) ;
#19 = EDGE_LOOP ( 'NONE', ( #238 ) ) ;
#20 = COORDINATED_UNIVERSAL_TIME_OFFSET ( 1, 0, .AHEAD. ) ;
#21 = EDGE_LOOP ( 'NONE', ( #52 ) ) ;
#22 = CALENDAR_DATE ( 2021, 2, 12 ) ;
#23 = AXIS2_PLACEMENT_3D ( 'NONE', #172, #85, #180 ) ;
#24 = LOCAL_TIME ( 8, 16, 33.00000000000000000, #20 ) ;
#25 = DIRECTION ( 'NONE',  ( 0.0000000000000000000, 1.000000000000000000, 0.0000000000000000000 ) ) ;
#26 = ORIENTED_EDGE ( 'NONE', *, *, #232, .T. ) ;
#27 = EDGE_LOOP ( 'NONE', ( #83 ) ) ;
#28 = CIRCLE ( 'NONE', #81, 1.435000000000000053 ) ;
#29 = DIRECTION ( 'NONE',  ( -3.491481338843133355E-15, 1.224646799147353454E-16, -1.000000000000000000 ) ) ;
#30 = DIRECTION ( 'NONE',  ( -3.491481338843133355E-15, 1.224646799147353454E-16, -1.000000000000000000 ) ) ;
#31 = CARTESIAN_POINT ( 'NONE',  ( 2.119329172677781757E-13, -7.433606070824434221E-15, 60.69999999999999574 ) ) ;
#32 = ADVANCED_FACE ( 'NONE', ( #241, #6 ), #286, .T. ) ;
#33 = CONICAL_SURFACE ( 'NONE', #265, 1.499999999999996003, 0.1745329251994260367 ) ;
#34 = LOCAL_TIME ( 8, 16, 33.00000000000000000, #3 ) ;
#35 = DIRECTION ( 'NONE',  ( 0.0000000000000000000, 1.000000000000000000, 0.0000000000000000000 ) ) ;
#36 = CARTESIAN_POINT ( 'NONE',  ( 2.129803616694311221E-13, 1.199999999999995515, 61.00000000000000000 ) ) ;
#37 = FACE_OUTER_BOUND ( 'NONE', #27, .T. ) ;
#38 =( NAMED_UNIT ( * ) SI_UNIT ( $, .STERADIAN. ) SOLID_ANGLE_UNIT ( ) );
#39 = CARTESIAN_POINT ( 'NONE',  ( 1.007502634767738731E-30, -3.533843538197615074E-32, 2.885602232952401852E-16 ) ) ;
#40 = CARTESIAN_POINT ( 'NONE',  ( 8.728703347107833388E-14, -3.035766082959412415E-15, 25.00000000000000000 ) ) ;
#41 = FACE_OUTER_BOUND ( 'NONE', #21, .T. ) ;
#42 = CARTESIAN_POINT ( 'NONE',  ( 5.037513173838693655E-31, -1.766921769098807537E-32, 1.442801116476200926E-16 ) ) ;
#43 = FACE_OUTER_BOUND ( 'NONE', #146, .T. ) ;
#44 = VERTEX_POINT ( 'NONE', #88 ) ;
#45 = ORIENTED_EDGE ( 'NONE', *, *, #77, .F. ) ;
#46 = CC_DESIGN_APPROVAL ( #11, ( #228 ) ) ;
#47 = ORIENTED_EDGE ( 'NONE', *, *, #49, .F. ) ;
#48 = APPROVAL_DATE_TIME ( #140, #92 ) ;
#49 = EDGE_CURVE ( 'NONE', #298, #298, #28, .T. ) ;
#50 = APPROVAL_STATUS ( 'not_yet_approved' ) ;
#51 = AXIS2_PLACEMENT_3D ( 'NONE', #31, #198, #84 ) ;
#52 = ORIENTED_EDGE ( 'NONE', *, *, #254, .F. ) ;
#53 = ADVANCED_FACE ( 'NONE', ( #148 ), #264, .F. ) ;
#54 = ORIENTED_EDGE ( 'NONE', *, *, #232, .F. ) ;
#55 = AXIS2_PLACEMENT_3D ( 'NONE', #130, #136, #276 ) ;
#56 = EDGE_LOOP ( 'NONE', ( #267 ) ) ;
#57 = CARTESIAN_POINT ( 'NONE',  ( 0.0000000000000000000, 0.0000000000000000000, 0.0000000000000000000 ) ) ;
#58 = EDGE_CURVE ( 'NONE', #208, #208, #142, .T. ) ;
#59 = DIRECTION ( 'NONE',  ( -3.491481338843133355E-15, 1.224646799147353454E-16, -1.000000000000000000 ) ) ;
#60 = DIRECTION ( 'NONE',  ( 0.0000000000000000000, 0.0000000000000000000, 1.000000000000000000 ) ) ;
#61 = AXIS2_PLACEMENT_3D ( 'NONE', #159, #68, #253 ) ;
#62 = CARTESIAN_POINT ( 'NONE',  ( 0.0000000000000000000, 0.0000000000000000000, 0.0000000000000000000 ) ) ;
#63 = PRODUCT_RELATED_PRODUCT_CATEGORY ( 'detail', '', ( #213 ) ) ;
#64 = DIRECTION ( 'NONE',  ( 3.491481338843133355E-15, -1.224646799147353454E-16, 1.000000000000000000 ) ) ;
#65 = DIRECTION ( 'NONE',  ( 1.000000000000000000, 0.0000000000000000000, 0.0000000000000000000 ) ) ;
#66 = DIRECTION ( 'NONE',  ( 4.275831445896960358E-31, 1.000000000000000000, 1.224646799147353454E-16 ) ) ;
#67 = AXIS2_PLACEMENT_3D ( 'NONE', #243, #272, #104 ) ;
#68 = DIRECTION ( 'NONE',  ( -3.491481338843133355E-15, 1.224646799147353454E-16, -1.000000000000000000 ) ) ;
#69 = PERSON_AND_ORGANIZATION ( #186, #245 ) ;
#70 = MANIFOLD_SOLID_BREP ( 'Corps-Déplacer/Copier1[2]', #277 ) ;
#71 = AXIS2_PLACEMENT_3D ( 'NONE', #102, #289, #274 ) ;
#72 = COORDINATED_UNIVERSAL_TIME_OFFSET ( 1, 0, .AHEAD. ) ;
#73 = ADVANCED_BREP_SHAPE_REPRESENTATION ( '327109', ( #79, #70, #100 ), #270 ) ;
#74 = APPROVAL_STATUS ( 'not_yet_approved' ) ;
#75 = ORIENTED_EDGE ( 'NONE', *, *, #144, .F. ) ;
#76 = CIRCLE ( 'NONE', #244, 1.235000000000000320 ) ;
#77 = EDGE_CURVE ( 'NONE', #255, #255, #91, .T. ) ;
#78 = EDGE_LOOP ( 'NONE', ( #263 ) ) ;
#79 = MANIFOLD_SOLID_BREP ( 'Corps-Déplacer/Copier1[1]', #301 ) ;
#80 = CARTESIAN_POINT ( 'NONE',  ( 3.491481338843133355E-14, 1.076077644059881383E-32, 10.00000000000000000 ) ) ;
#81 = AXIS2_PLACEMENT_3D ( 'NONE', #143, #29, #288 ) ;
#82 = PRODUCT_DEFINITION ( 'UNKNOWN', '', #139, #95 ) ;
#83 = ORIENTED_EDGE ( 'NONE', *, *, #144, .T. ) ;
#84 = DIRECTION ( 'NONE',  ( 0.0000000000000000000, 1.000000000000000000, 0.0000000000000000000 ) ) ;
#85 = DIRECTION ( 'NONE',  ( -3.491481338843133355E-15, 1.224646799147353454E-16, -1.000000000000000000 ) ) ;
#86 = ADVANCED_FACE ( 'NONE', ( #133 ), #206, .F. ) ;
#87 = FACE_BOUND ( 'NONE', #5, .T. ) ;
#88 = CARTESIAN_POINT ( 'NONE',  ( 9.314527482293723971E-14, 1.499999999999992673, 26.67786700925056920 ) ) ;
#89 = DIRECTION ( 'NONE',  ( -3.491481338843133355E-15, 1.224646799147353454E-16, -1.000000000000000000 ) ) ;
#90 = DIRECTION ( 'NONE',  ( -3.491481338843133355E-15, 1.224646799147353454E-16, -1.000000000000000000 ) ) ;
#91 = CIRCLE ( 'NONE', #71, 1.234999999999998543 ) ;
#92 = APPROVAL ( #160, 'UNSPECIFIED' ) ;
#93 = PERSON_AND_ORGANIZATION_ROLE ( 'classification_officer' ) ;
#94 = PRODUCT_DEFINITION_SHAPE ( 'NONE', 'NONE',  #82 ) ;
#95 = DESIGN_CONTEXT ( 'detailed design', #98, 'design' ) ;
#96 = PERSON_AND_ORGANIZATION ( #186, #245 ) ;
#97 = ORIENTED_EDGE ( 'NONE', *, *, #123, .F. ) ;
#98 = APPLICATION_CONTEXT ( 'configuration controlled 3d designs of mechanical parts and assemblies' ) ;
#99 = EDGE_LOOP ( 'NONE', ( #75 ) ) ;
#100 = AXIS2_PLACEMENT_3D ( 'NONE', #269, #60, #65 ) ;
#101 = CARTESIAN_POINT ( 'NONE',  ( 3.612429800294234159E-14, -1.267069808696350687E-15, 10.34641016151378423 ) ) ;
#102 = CARTESIAN_POINT ( 'NONE',  ( 3.612429800294234159E-14, -1.267069808696350687E-15, 10.34641016151378423 ) ) ;
#103 = EDGE_LOOP ( 'NONE', ( #287 ) ) ;
#104 = DIRECTION ( 'NONE',  ( 4.275831445896960358E-31, 1.000000000000000000, 1.224646799147353454E-16 ) ) ;
#105 = DIRECTION ( 'NONE',  ( -3.491481338843133355E-15, 1.224646799147353454E-16, -1.000000000000000000 ) ) ;
#106 = ADVANCED_FACE ( 'NONE', ( #199, #156 ), #201, .T. ) ;
#107 = VERTEX_POINT ( 'NONE', #178 ) ;
#108 = CIRCLE ( 'NONE', #51, 1.500000000000002887 ) ;
#109 = APPROVAL_PERSON_ORGANIZATION ( #69, #92, #283 ) ;
#110 = DIRECTION ( 'NONE',  ( -3.491481338843133355E-15, 1.224646799147353454E-16, -1.000000000000000000 ) ) ;
#111 = DIRECTION ( 'NONE',  ( 0.0000000000000000000, -1.000000000000000000, 0.0000000000000000000 ) ) ;
#112 = DIRECTION ( 'NONE',  ( 4.275831445896959482E-31, 1.000000000000000000, 1.224646799147353454E-16 ) ) ;
#113 = ADVANCED_FACE ( 'NONE', ( #248, #150 ), #119, .T. ) ;
#114 = LOCAL_TIME ( 8, 16, 33.00000000000000000, #233 ) ;
#115 = COORDINATED_UNIVERSAL_TIME_OFFSET ( 1, 0, .AHEAD. ) ;
#116 = CC_DESIGN_PERSON_AND_ORGANIZATION_ASSIGNMENT ( #259, #256, ( #139 ) ) ;
#117 = CALENDAR_DATE ( 2021, 2, 12 ) ;
#118 = SHAPE_DEFINITION_REPRESENTATION ( #94, #73 ) ;
#119 = CONICAL_SURFACE ( 'NONE', #227, 1.434999999999998721, 0.7853981633974435050 ) ;
#120 = CC_DESIGN_APPROVAL ( #191, ( #82 ) ) ;
#121 = CALENDAR_DATE ( 2021, 2, 12 ) ;
#122 = EDGE_LOOP ( 'NONE', ( #97 ) ) ;
#123 = EDGE_CURVE ( 'NONE', #107, #107, #126, .T. ) ;
#124 = EDGE_LOOP ( 'NONE', ( #240 ) ) ;
#125 = ORIENTED_EDGE ( 'NONE', *, *, #254, .T. ) ;
#126 = CIRCLE ( 'NONE', #129, 1.185000000000001608 ) ;
#127 = EDGE_LOOP ( 'NONE', ( #125 ) ) ;
#128 = FACE_OUTER_BOUND ( 'NONE', #103, .T. ) ;
#129 = AXIS2_PLACEMENT_3D ( 'NONE', #39, #89, #66 ) ;
#130 = CARTESIAN_POINT ( 'NONE',  ( 8.728703347107827472E-16, -3.061616997868381785E-17, 0.2499999999999998335 ) ) ;
#131 = DIRECTION ( 'NONE',  ( 3.491481338843133355E-15, -1.224646799147353454E-16, 1.000000000000000000 ) ) ;
#132 = DIRECTION ( 'NONE',  ( -4.275831445896959482E-31, -1.000000000000000000, -1.224646799147353454E-16 ) ) ;
#133 = FACE_OUTER_BOUND ( 'NONE', #124, .T. ) ;
#134 = VERTEX_POINT ( 'NONE', #13 ) ;
#135 = DIRECTION ( 'NONE',  ( -3.491481338843133355E-15, 1.224646799147353454E-16, -1.000000000000000000 ) ) ;
#136 = DIRECTION ( 'NONE',  ( -3.491481338843133355E-15, 1.224646799147353454E-16, -1.000000000000000000 ) ) ;
#137 = PERSON_AND_ORGANIZATION ( #186, #245 ) ;
#138 = ADVANCED_FACE ( 'NONE', ( #41, #37 ), #177, .T. ) ;
#139 = PRODUCT_DEFINITION_FORMATION_WITH_SPECIFIED_SOURCE ( 'ANY', '', #213, .NOT_KNOWN. ) ;
#140 = DATE_AND_TIME ( #121, #176 ) ;
#141 = DATE_AND_TIME ( #117, #24 ) ;
#142 = CIRCLE ( 'NONE', #9, 1.200000000000002842 ) ;
#143 = CARTESIAN_POINT ( 'NONE',  ( 3.491481338843133355E-14, -1.224646799147353454E-15, 10.00000000000000000 ) ) ;
#144 = EDGE_CURVE ( 'NONE', #246, #246, #165, .T. ) ;
#145 = ORIENTED_EDGE ( 'NONE', *, *, #123, .T. ) ;
#146 = EDGE_LOOP ( 'NONE', ( #145 ) ) ;
#147 = APPLICATION_CONTEXT ( 'configuration controlled 3d designs of mechanical parts and assemblies' ) ;
#148 = FACE_OUTER_BOUND ( 'NONE', #78, .T. ) ;
#149 = EDGE_LOOP ( 'NONE', ( #166 ) ) ;
#150 = FACE_OUTER_BOUND ( 'NONE', #127, .T. ) ;
#151 = AXIS2_PLACEMENT_3D ( 'NONE', #226, #135, #173 ) ;
#152 = FACE_OUTER_BOUND ( 'NONE', #260, .T. ) ;
#153 = LOCAL_TIME ( 8, 16, 33.00000000000000000, #115 ) ;
#154 = DIRECTION ( 'NONE',  ( -3.491481338843133355E-15, 1.224646799147353454E-16, -1.000000000000000000 ) ) ;
#155 = VERTEX_POINT ( 'NONE', #230 ) ;
#156 = FACE_OUTER_BOUND ( 'NONE', #211, .T. ) ;
#157 = DIRECTION ( 'NONE',  ( 3.491481338843133355E-15, -1.224646799147353454E-16, 1.000000000000000000 ) ) ;
#158 = AXIS2_PLACEMENT_3D ( 'NONE', #250, #157, #294 ) ;
#159 = CARTESIAN_POINT ( 'NONE',  ( 9.314527482293723971E-14, -3.267096444095748887E-15, 26.67786700925056920 ) ) ;
#160 = APPROVAL_STATUS ( 'not_yet_approved' ) ;
#161 = CALENDAR_DATE ( 2021, 2, 12 ) ;
#162 = PERSON_AND_ORGANIZATION_ROLE ( 'creator' ) ;
#163 = PERSON_AND_ORGANIZATION ( #186, #245 ) ;
#164 = PERSON_AND_ORGANIZATION_ROLE ( 'creator' ) ;
#165 = CIRCLE ( 'NONE', #239, 1.435000000000000053 ) ;
#166 = ORIENTED_EDGE ( 'NONE', *, *, #219, .T. ) ;
#167 = EDGE_LOOP ( 'NONE', ( #195 ) ) ;
#168 = DIRECTION ( 'NONE',  ( -3.491481338843133355E-15, 1.224646799147353454E-16, -1.000000000000000000 ) ) ;
#169 = EDGE_LOOP ( 'NONE', ( #47 ) ) ;
#170 = APPROVAL_PERSON_ORGANIZATION ( #137, #191, #190 ) ;
#171 = ORIENTED_EDGE ( 'NONE', *, *, #215, .T. ) ;
#172 = CARTESIAN_POINT ( 'NONE',  ( 2.129803616694311221E-13, -7.470345474798856659E-15, 61.00000000000000000 ) ) ;
#173 = DIRECTION ( 'NONE',  ( 4.275831445896959482E-31, 1.000000000000000000, 1.224646799147353454E-16 ) ) ;
#174 = CONICAL_SURFACE ( 'NONE', #23, 1.200000000000002842, 0.7853981633974453924 ) ;
#175 = MECHANICAL_CONTEXT ( 'NONE', #147, 'mechanical' ) ;
#176 = LOCAL_TIME ( 8, 16, 33.00000000000000000, #72 ) ;
#177 = CYLINDRICAL_SURFACE ( 'NONE', #290, 1.434999999999999387 ) ;
#178 = CARTESIAN_POINT ( 'NONE',  ( 1.514188661106529085E-30, 1.185000000000001608, 4.336808689942017736E-16 ) ) ;
#179 = ADVANCED_FACE ( 'NONE', ( #292, #204 ), #297, .T. ) ;
#180 = DIRECTION ( 'NONE',  ( 0.0000000000000000000, 1.000000000000000000, 0.0000000000000000000 ) ) ;
#181 = DIRECTION ( 'NONE',  ( -3.491481338843133355E-15, 1.224646799147353454E-16, -1.000000000000000000 ) ) ;
#182 = FACE_BOUND ( 'NONE', #8, .T. ) ;
#183 = VERTEX_POINT ( 'NONE', #279 ) ;
#184 = CC_DESIGN_SECURITY_CLASSIFICATION ( #228, ( #139 ) ) ;
#185 = CALENDAR_DATE ( 2021, 2, 12 ) ;
#186 = PERSON ( 'UNSPECIFIED', 'UNSPECIFIED', 'UNSPECIFIED', ('UNSPECIFIED'), ('UNSPECIFIED'), ('UNSPECIFIED') ) ;
#187 = DATE_TIME_ROLE ( 'classification_date' ) ;
#188 = APPROVAL_DATE_TIME ( #231, #191 ) ;
#189 = CIRCLE ( 'NONE', #196, 1.265384493975581837 ) ;
#190 = APPROVAL_ROLE ( '' ) ;
#191 = APPROVAL ( #74, 'UNSPECIFIED' ) ;
#192 = CIRCLE ( 'NONE', #55, 1.434999999999998721 ) ;
#193 = EDGE_LOOP ( 'NONE', ( #45 ) ) ;
#194 = ADVANCED_FACE ( 'NONE', ( #10, #182 ), #174, .T. ) ;
#195 = ORIENTED_EDGE ( 'NONE', *, *, #266, .F. ) ;
#196 = AXIS2_PLACEMENT_3D ( 'NONE', #300, #90, #242 ) ;
#197 = ADVANCED_FACE ( 'NONE', ( #221 ), #12, .T. ) ;
#198 = DIRECTION ( 'NONE',  ( -3.491481338843133355E-15, 1.224646799147353454E-16, -1.000000000000000000 ) ) ;
#199 = FACE_OUTER_BOUND ( 'NONE', #193, .T. ) ;
#200 =( LENGTH_UNIT ( ) NAMED_UNIT ( * ) SI_UNIT ( .MILLI., .METRE. ) );
#201 = CYLINDRICAL_SURFACE ( 'NONE', #1, 1.234999999999999654 ) ;
#202 = ADVANCED_FACE ( 'NONE', ( #87, #128 ), #33, .T. ) ;
#203 = CARTESIAN_POINT ( 'NONE',  ( 3.491481338843133355E-14, 1.434999999999998721, 10.00000000000000000 ) ) ;
#204 = FACE_OUTER_BOUND ( 'NONE', #149, .T. ) ;
#205 = PERSON_AND_ORGANIZATION_ROLE ( 'design_owner' ) ;
#206 = PLANE ( 'NONE',  #151 ) ;
#207 = VERTEX_POINT ( 'NONE', #222 ) ;
#208 = VERTEX_POINT ( 'NONE', #36 ) ;
#209 = DATE_TIME_ROLE ( 'creation_date' ) ;
#210 = UNCERTAINTY_MEASURE_WITH_UNIT (LENGTH_MEASURE( 1.000000000000000082E-05 ), #200, 'distance_accuracy_value', 'NONE');
#211 = EDGE_LOOP ( 'NONE', ( #26 ) ) ;
#212 = AXIS2_PLACEMENT_3D ( 'NONE', #101, #30, #25 ) ;
#213 = PRODUCT ( '327109', '327109', '', ( #175 ) ) ;
#214 = CARTESIAN_POINT ( 'NONE',  ( 2.129803616694311221E-13, -7.470345474798856659E-15, 61.00000000000000000 ) ) ;
#215 = EDGE_CURVE ( 'NONE', #155, #155, #189, .T. ) ;
#216 = AXIS2_PLACEMENT_3D ( 'NONE', #40, #181, #112 ) ;
#217 = EDGE_LOOP ( 'NONE', ( #54 ) ) ;
#218 = DIRECTION ( 'NONE',  ( 3.491481338843133355E-15, -1.224646799147353454E-16, 1.000000000000000000 ) ) ;
#219 = EDGE_CURVE ( 'NONE', #207, #207, #108, .T. ) ;
#220 = DIRECTION ( 'NONE',  ( 4.275831445896959482E-31, 1.000000000000000000, 1.224646799147353454E-16 ) ) ;
#221 = FACE_OUTER_BOUND ( 'NONE', #99, .T. ) ;
#222 = CARTESIAN_POINT ( 'NONE',  ( 2.119329172677781757E-13, 1.499999999999995559, 60.69999999999999574 ) ) ;
#223 = DIRECTION ( 'NONE',  ( -4.026334378509904580E-31, -1.000000000000000000, -1.133312375420388992E-16 ) ) ;
#224 = CC_DESIGN_PERSON_AND_ORGANIZATION_ASSIGNMENT ( #303, #162, ( #139 ) ) ;
#225 = PERSON_AND_ORGANIZATION ( #186, #245 ) ;
#226 = CARTESIAN_POINT ( 'NONE',  ( 2.129803616694311221E-13, 8.998558695971062171E-33, 61.00000000000000000 ) ) ;
#227 = AXIS2_PLACEMENT_3D ( 'NONE', #17, #64, #223 ) ;
#228 = SECURITY_CLASSIFICATION ( '', '', #257 ) ;
#229 = CARTESIAN_POINT ( 'NONE',  ( 9.314527482293723971E-14, -3.267096444095748887E-15, 26.67786700925056920 ) ) ;
#230 = CARTESIAN_POINT ( 'NONE',  ( 8.849961221477469775E-14, 1.265384493975578728, 25.34729635533384595 ) ) ;
#231 = DATE_AND_TIME ( #185, #34 ) ;
#232 = EDGE_CURVE ( 'NONE', #134, #134, #76, .T. ) ;
#233 = COORDINATED_UNIVERSAL_TIME_OFFSET ( 1, 0, .AHEAD. ) ;
#234 = DATE_AND_TIME ( #22, #114 ) ;
#235 = APPROVAL_DATE_TIME ( #234, #11 ) ;
#236 = CC_DESIGN_DATE_AND_TIME_ASSIGNMENT ( #280, #209, ( #82 ) ) ;
#237 = DIRECTION ( 'NONE',  ( -4.275831445896959482E-31, -1.000000000000000000, -1.224646799147353454E-16 ) ) ;
#238 = ORIENTED_EDGE ( 'NONE', *, *, #219, .F. ) ;
#239 = AXIS2_PLACEMENT_3D ( 'NONE', #247, #105, #14 ) ;
#240 = ORIENTED_EDGE ( 'NONE', *, *, #58, .F. ) ;
#241 = FACE_OUTER_BOUND ( 'NONE', #169, .T. ) ;
#242 = DIRECTION ( 'NONE',  ( 0.0000000000000000000, 1.000000000000000000, 0.0000000000000000000 ) ) ;
#243 = CARTESIAN_POINT ( 'NONE',  ( 0.0000000000000000000, 0.0000000000000000000, 0.0000000000000000000 ) ) ;
#244 = AXIS2_PLACEMENT_3D ( 'NONE', #268, #59, #35 ) ;
#245 = ORGANIZATION ( 'UNSPECIFIED', 'UNSPECIFIED', '' ) ;
#246 = VERTEX_POINT ( 'NONE', #203 ) ;
#247 = CARTESIAN_POINT ( 'NONE',  ( 3.491481338843133355E-14, -1.224646799147353454E-15, 10.00000000000000000 ) ) ;
#248 = FACE_BOUND ( 'NONE', #122, .T. ) ;
#249 = CARTESIAN_POINT ( 'NONE',  ( 3.491481338843133355E-14, 1.434999999999998721, 10.00000000000000000 ) ) ;
#250 = CARTESIAN_POINT ( 'NONE',  ( 3.491481338843133355E-14, 1.076077644059881383E-32, 10.00000000000000000 ) ) ;
#251 = AXIS2_PLACEMENT_3D ( 'NONE', #80, #218, #237 ) ;
#252 = CARTESIAN_POINT ( 'NONE',  ( 3.612429800294234159E-14, 1.234999999999997211, 10.34641016151378423 ) ) ;
#253 = DIRECTION ( 'NONE',  ( 0.0000000000000000000, 1.000000000000000000, 0.0000000000000000000 ) ) ;
#254 = EDGE_CURVE ( 'NONE', #183, #183, #192, .T. ) ;
#255 = VERTEX_POINT ( 'NONE', #252 ) ;
#256 = PERSON_AND_ORGANIZATION_ROLE ( 'design_supplier' ) ;
#257 = SECURITY_CLASSIFICATION_LEVEL ( 'unclassified' ) ;
#258 = APPROVAL_ROLE ( '' ) ;
#259 = PERSON_AND_ORGANIZATION ( #186, #245 ) ;
#260 = EDGE_LOOP ( 'NONE', ( #171 ) ) ;
#261 = PERSON_AND_ORGANIZATION ( #186, #245 ) ;
#262 = ORIENTED_EDGE ( 'NONE', *, *, #215, .F. ) ;
#263 = ORIENTED_EDGE ( 'NONE', *, *, #49, .T. ) ;
#264 = PLANE ( 'NONE',  #251 ) ;
#265 = AXIS2_PLACEMENT_3D ( 'NONE', #229, #18, #111 ) ;
#266 = EDGE_CURVE ( 'NONE', #44, #44, #282, .T. ) ;
#267 = ORIENTED_EDGE ( 'NONE', *, *, #77, .T. ) ;
#268 = CARTESIAN_POINT ( 'NONE',  ( 8.728703347107833388E-14, -3.061616997868383831E-15, 25.00000000000000000 ) ) ;
#269 = CARTESIAN_POINT ( 'NONE',  ( 0.0000000000000000000, 0.0000000000000000000, 0.0000000000000000000 ) ) ;
#270 =( GEOMETRIC_REPRESENTATION_CONTEXT ( 3 ) GLOBAL_UNCERTAINTY_ASSIGNED_CONTEXT ( ( #210 ) ) GLOBAL_UNIT_ASSIGNED_CONTEXT ( ( #200, #275, #38 ) ) REPRESENTATION_CONTEXT ( 'NONE', 'WORKASPACE' ) );
#271 = DIRECTION ( 'NONE',  ( 4.275831445896959482E-31, 1.000000000000000000, 1.224646799147353454E-16 ) ) ;
#272 = DIRECTION ( 'NONE',  ( -3.491481338843133355E-15, 1.224646799147353454E-16, -1.000000000000000000 ) ) ;
#273 = APPLICATION_PROTOCOL_DEFINITION ( 'international standard', 'config_control_design', 1994, #147 ) ;
#274 = DIRECTION ( 'NONE',  ( 0.0000000000000000000, 1.000000000000000000, 0.0000000000000000000 ) ) ;
#275 =( NAMED_UNIT ( * ) PLANE_ANGLE_UNIT ( ) SI_UNIT ( $, .RADIAN. ) );
#276 = DIRECTION ( 'NONE',  ( 4.026334378509904580E-31, 1.000000000000000000, 1.133312375420388992E-16 ) ) ;
#277 = CLOSED_SHELL ( 'NONE', ( #291, #113, #138, #197 ) ) ;
#278 = APPROVAL_PERSON_ORGANIZATION ( #96, #11, #258 ) ;
#279 = CARTESIAN_POINT ( 'NONE',  ( 8.728703347107833388E-16, 1.434999999999998721, 0.2500000000000000000 ) ) ;
#280 = DATE_AND_TIME ( #161, #153 ) ;
#281 = CC_DESIGN_PERSON_AND_ORGANIZATION_ASSIGNMENT ( #225, #205, ( #213 ) ) ;
#282 = CIRCLE ( 'NONE', #61, 1.499999999999996003 ) ;
#283 = APPROVAL_ROLE ( '' ) ;
#284 = CC_DESIGN_PERSON_AND_ORGANIZATION_ASSIGNMENT ( #163, #93, ( #228 ) ) ;
#285 = ORIENTED_EDGE ( 'NONE', *, *, #58, .T. ) ;
#286 = CONICAL_SURFACE ( 'NONE', #212, 1.234999999999998543, 0.5235987755982924874 ) ;
#287 = ORIENTED_EDGE ( 'NONE', *, *, #266, .T. ) ;
#288 = DIRECTION ( 'NONE',  ( 0.0000000000000000000, 1.000000000000000000, 0.0000000000000000000 ) ) ;
#289 = DIRECTION ( 'NONE',  ( -3.491481338843133355E-15, 1.224646799147353454E-16, -1.000000000000000000 ) ) ;
#290 = AXIS2_PLACEMENT_3D ( 'NONE', #62, #110, #220 ) ;
#291 = ADVANCED_FACE ( 'NONE', ( #43 ), #296, .F. ) ;
#292 = FACE_OUTER_BOUND ( 'NONE', #167, .T. ) ;
#293 = AXIS2_PLACEMENT_3D ( 'NONE', #42, #131, #132 ) ;
#294 = DIRECTION ( 'NONE',  ( -4.275831445896959482E-31, -1.000000000000000000, -1.224646799147353454E-16 ) ) ;
#295 = CC_DESIGN_APPROVAL ( #92, ( #139 ) ) ;
#296 = PLANE ( 'NONE',  #293 ) ;
#297 = CYLINDRICAL_SURFACE ( 'NONE', #67, 1.499999999999999334 ) ;
#298 = VERTEX_POINT ( 'NONE', #249 ) ;
#299 = CC_DESIGN_DATE_AND_TIME_ASSIGNMENT ( #141, #187, ( #228 ) ) ;
#300 = CARTESIAN_POINT ( 'NONE',  ( 8.849961221477469775E-14, -3.104148534859897544E-15, 25.34729635533384595 ) ) ;
#301 = CLOSED_SHELL ( 'NONE', ( #53, #32, #106, #302, #202, #179, #194, #86 ) ) ;
#302 = ADVANCED_FACE ( 'NONE', ( #15, #152 ), #16, .F. ) ;
#303 = PERSON_AND_ORGANIZATION ( #186, #245 ) ;
ENDSEC;
END-ISO-10303-21;
