ISO-10303-21;
HEADER;
FILE_DESCRIPTION (( 'STEP AP203' ),
    '1' );
FILE_NAME ('327108.step',
    '2021-12-02T07:16:33',
    ( '' ),
    ( '' ),
    'SwSTEP 2.0',
    'SolidWorks 2019',
    '' );
FILE_SCHEMA (( 'CONFIG_CONTROL_DESIGN' ));
ENDSEC;

DATA;
#1 = APPROVAL_STATUS ( 'not_yet_approved' ) ;
#2 = CLOSED_SHELL ( 'NONE', ( #14, #103, #93, #299, #303, #157, #34, #113 ) ) ;
#3 = EDGE_LOOP ( 'NONE', ( #266 ) ) ;
#4 = VERTEX_POINT ( 'NONE', #22 ) ;
#5 = AXIS2_PLACEMENT_3D ( 'NONE', #58, #151, #101 ) ;
#6 = FACE_OUTER_BOUND ( 'NONE', #150, .T. ) ;
#7 = CC_DESIGN_SECURITY_CLASSIFICATION ( #295, ( #70 ) ) ;
#8 = CC_DESIGN_DATE_AND_TIME_ASSIGNMENT ( #100, #55, ( #295 ) ) ;
#9 = ORIENTED_EDGE ( 'NONE', *, *, #195, .F. ) ;
#10 = DIRECTION ( 'NONE',  ( 3.491481338843133355E-15, -1.224646799147353454E-16, 1.000000000000000000 ) ) ;
#11 = APPROVAL_DATE_TIME ( #98, #250 ) ;
#12 = DIRECTION ( 'NONE',  ( 0.0000000000000000000, 1.000000000000000000, 0.0000000000000000000 ) ) ;
#13 = DIRECTION ( 'NONE',  ( -3.491481338843133355E-15, 1.224646799147353454E-16, -1.000000000000000000 ) ) ;
#14 = ADVANCED_FACE ( 'NONE', ( #123 ), #265, .F. ) ;
#15 = CARTESIAN_POINT ( 'NONE',  ( 3.491481338843133355E-14, 1.429999999999998606, 10.00000000000000000 ) ) ;
#16 = FACE_BOUND ( 'NONE', #239, .T. ) ;
#17 = AXIS2_PLACEMENT_3D ( 'NONE', #276, #73, #111 ) ;
#18 = CARTESIAN_POINT ( 'NONE',  ( 2.119329172677781757E-13, 1.499999999999995559, 60.69999999999999574 ) ) ;
#19 = CARTESIAN_POINT ( 'NONE',  ( 0.0000000000000000000, 0.0000000000000000000, 0.0000000000000000000 ) ) ;
#20 = AXIS2_PLACEMENT_3D ( 'NONE', #68, #84, #129 ) ;
#21 = ORIENTED_EDGE ( 'NONE', *, *, #282, .F. ) ;
#22 = CARTESIAN_POINT ( 'NONE',  ( 2.129803616694311221E-13, 1.199999999999995515, 61.00000000000000000 ) ) ;
#23 = PERSON_AND_ORGANIZATION ( #87, #119 ) ;
#24 = EDGE_LOOP ( 'NONE', ( #261 ) ) ;
#25 = CARTESIAN_POINT ( 'NONE',  ( 8.849961221477468513E-14, 1.260384493975577280, 25.34729635533384240 ) ) ;
#26 = EDGE_LOOP ( 'NONE', ( #218 ) ) ;
#27 = CC_DESIGN_PERSON_AND_ORGANIZATION_ASSIGNMENT ( #76, #146, ( #295 ) ) ;
#28 = APPROVAL_STATUS ( 'not_yet_approved' ) ;
#29 = DIRECTION ( 'NONE',  ( 4.275831445896959482E-31, 1.000000000000000000, 1.224646799147353454E-16 ) ) ;
#30 = FACE_OUTER_BOUND ( 'NONE', #54, .T. ) ;
#31 = CALENDAR_DATE ( 2021, 2, 12 ) ;
#32 = EDGE_LOOP ( 'NONE', ( #121 ) ) ;
#33 = EDGE_LOOP ( 'NONE', ( #139 ) ) ;
#34 = ADVANCED_FACE ( 'NONE', ( #52, #223 ), #200, .T. ) ;
#35 = AXIS2_PLACEMENT_3D ( 'NONE', #132, #228, #156 ) ;
#36 =( GEOMETRIC_REPRESENTATION_CONTEXT ( 3 ) GLOBAL_UNCERTAINTY_ASSIGNED_CONTEXT ( ( #184 ) ) GLOBAL_UNIT_ASSIGNED_CONTEXT ( ( #115, #278, #235 ) ) REPRESENTATION_CONTEXT ( 'NONE', 'WORKASPACE' ) );
#37 = DIRECTION ( 'NONE',  ( -3.491481338843133355E-15, 1.224646799147353454E-16, -1.000000000000000000 ) ) ;
#38 = FACE_OUTER_BOUND ( 'NONE', #236, .T. ) ;
#39 = VERTEX_POINT ( 'NONE', #226 ) ;
#40 = LOCAL_TIME ( 8, 16, 33.00000000000000000, #57 ) ;
#41 = CYLINDRICAL_SURFACE ( 'NONE', #274, 1.499999999999999334 ) ;
#42 = PERSON_AND_ORGANIZATION ( #87, #119 ) ;
#43 = CIRCLE ( 'NONE', #20, 1.260384493975580389 ) ;
#44 = ORIENTED_EDGE ( 'NONE', *, *, #217, .T. ) ;
#45 = DESIGN_CONTEXT ( 'detailed design', #297, 'design' ) ;
#46 = PERSON_AND_ORGANIZATION ( #87, #119 ) ;
#47 = CC_DESIGN_PERSON_AND_ORGANIZATION_ASSIGNMENT ( #197, #260, ( #70 ) ) ;
#48 = APPROVAL_DATE_TIME ( #251, #277 ) ;
#49 = AXIS2_PLACEMENT_3D ( 'NONE', #275, #158, #296 ) ;
#50 = EDGE_LOOP ( 'NONE', ( #258 ) ) ;
#51 = APPROVAL_ROLE ( '' ) ;
#52 = FACE_OUTER_BOUND ( 'NONE', #24, .T. ) ;
#53 = EDGE_CURVE ( 'NONE', #268, #268, #174, .T. ) ;
#54 = EDGE_LOOP ( 'NONE', ( #138 ) ) ;
#55 = DATE_TIME_ROLE ( 'classification_date' ) ;
#56 = PLANE ( 'NONE',  #247 ) ;
#57 = COORDINATED_UNIVERSAL_TIME_OFFSET ( 1, 0, .AHEAD. ) ;
#58 = CARTESIAN_POINT ( 'NONE',  ( 2.119329172677781757E-13, -7.433606070824434221E-15, 60.69999999999999574 ) ) ;
#59 = CC_DESIGN_PERSON_AND_ORGANIZATION_ASSIGNMENT ( #23, #302, ( #120 ) ) ;
#60 = DIRECTION ( 'NONE',  ( -3.491481338843133355E-15, 1.224646799147353454E-16, -1.000000000000000000 ) ) ;
#61 = DIRECTION ( 'NONE',  ( -3.491481338843133355E-15, 1.224646799147353454E-16, -1.000000000000000000 ) ) ;
#62 = CC_DESIGN_APPROVAL ( #148, ( #295 ) ) ;
#63 = DIRECTION ( 'NONE',  ( 3.491481338843133355E-15, -1.224646799147353454E-16, 1.000000000000000000 ) ) ;
#64 = ADVANCED_FACE ( 'NONE', ( #117 ), #56, .T. ) ;
#65 = DIRECTION ( 'NONE',  ( 0.0000000000000000000, 1.000000000000000000, 0.0000000000000000000 ) ) ;
#66 = FACE_OUTER_BOUND ( 'NONE', #3, .T. ) ;
#67 = AXIS2_PLACEMENT_3D ( 'NONE', #105, #207, #270 ) ;
#68 = CARTESIAN_POINT ( 'NONE',  ( 8.849961221477468513E-14, -3.104148534859897150E-15, 25.34729635533384240 ) ) ;
#69 = VERTEX_POINT ( 'NONE', #25 ) ;
#70 = PRODUCT_DEFINITION_FORMATION_WITH_SPECIFIED_SOURCE ( 'ANY', '', #120, .NOT_KNOWN. ) ;
#71 = DATE_AND_TIME ( #279, #284 ) ;
#72 = EDGE_LOOP ( 'NONE', ( #114 ) ) ;
#73 = DIRECTION ( 'NONE',  ( 0.0000000000000000000, 0.0000000000000000000, 1.000000000000000000 ) ) ;
#74 = CC_DESIGN_PERSON_AND_ORGANIZATION_ASSIGNMENT ( #42, #186, ( #133 ) ) ;
#75 = CARTESIAN_POINT ( 'NONE',  ( 2.129803616694311221E-13, -7.470345474798856659E-15, 61.00000000000000000 ) ) ;
#76 = PERSON_AND_ORGANIZATION ( #87, #119 ) ;
#77 = FACE_OUTER_BOUND ( 'NONE', #50, .T. ) ;
#78 = FACE_OUTER_BOUND ( 'NONE', #72, .T. ) ;
#79 = FACE_BOUND ( 'NONE', #26, .T. ) ;
#80 = LOCAL_TIME ( 8, 16, 33.00000000000000000, #257 ) ;
#81 = ADVANCED_FACE ( 'NONE', ( #30, #6 ), #287, .T. ) ;
#82 = PERSON_AND_ORGANIZATION ( #87, #119 ) ;
#83 = FACE_OUTER_BOUND ( 'NONE', #213, .T. ) ;
#84 = DIRECTION ( 'NONE',  ( -3.491481338843133355E-15, 1.224646799147353454E-16, -1.000000000000000000 ) ) ;
#85 = CARTESIAN_POINT ( 'NONE',  ( 8.728703347107833388E-14, -3.061616997868383831E-15, 25.00000000000000000 ) ) ;
#86 = CC_DESIGN_DATE_AND_TIME_ASSIGNMENT ( #71, #256, ( #133 ) ) ;
#87 = PERSON ( 'UNSPECIFIED', 'UNSPECIFIED', 'UNSPECIFIED', ('UNSPECIFIED'), ('UNSPECIFIED'), ('UNSPECIFIED') ) ;
#88 = DIRECTION ( 'NONE',  ( -3.491481338843133355E-15, 1.224646799147353454E-16, -1.000000000000000000 ) ) ;
#89 = DIRECTION ( 'NONE',  ( 0.0000000000000000000, -1.000000000000000000, 0.0000000000000000000 ) ) ;
#90 = CC_DESIGN_APPROVAL ( #250, ( #70 ) ) ;
#91 = CALENDAR_DATE ( 2021, 2, 12 ) ;
#92 = EDGE_LOOP ( 'NONE', ( #168 ) ) ;
#93 = ADVANCED_FACE ( 'NONE', ( #83, #77 ), #170, .T. ) ;
#94 = CARTESIAN_POINT ( 'NONE',  ( 3.491481338843133355E-14, 1.072328244603226438E-32, 10.00000000000000000 ) ) ;
#95 = AXIS2_PLACEMENT_3D ( 'NONE', #97, #10, #145 ) ;
#96 = DIRECTION ( 'NONE',  ( -3.491481338843133355E-15, 1.224646799147353454E-16, -1.000000000000000000 ) ) ;
#97 = CARTESIAN_POINT ( 'NONE',  ( 3.491481338843133355E-14, 1.072328244603226438E-32, 10.00000000000000000 ) ) ;
#98 = DATE_AND_TIME ( #264, #212 ) ;
#99 = DIRECTION ( 'NONE',  ( -3.491481338843133355E-15, 1.224646799147353454E-16, -1.000000000000000000 ) ) ;
#100 = DATE_AND_TIME ( #31, #175 ) ;
#101 = DIRECTION ( 'NONE',  ( 0.0000000000000000000, 1.000000000000000000, 0.0000000000000000000 ) ) ;
#102 = CARTESIAN_POINT ( 'NONE',  ( 8.728703347107833388E-14, -3.035766082959412415E-15, 25.00000000000000000 ) ) ;
#103 = ADVANCED_FACE ( 'NONE', ( #78, #79 ), #142, .T. ) ;
#104 = VERTEX_POINT ( 'NONE', #205 ) ;
#105 = CARTESIAN_POINT ( 'NONE',  ( 3.491481338843133355E-14, -1.224646799147353454E-15, 10.00000000000000000 ) ) ;
#106 = AXIS2_PLACEMENT_3D ( 'NONE', #190, #172, #12 ) ;
#107 = VERTEX_POINT ( 'NONE', #15 ) ;
#108 = FACE_OUTER_BOUND ( 'NONE', #252, .T. ) ;
#109 = EDGE_CURVE ( 'NONE', #128, #128, #289, .T. ) ;
#110 = MECHANICAL_CONTEXT ( 'NONE', #169, 'mechanical' ) ;
#111 = DIRECTION ( 'NONE',  ( 1.000000000000000000, 0.0000000000000000000, 0.0000000000000000000 ) ) ;
#112 = ORIENTED_EDGE ( 'NONE', *, *, #137, .T. ) ;
#113 = ADVANCED_FACE ( 'NONE', ( #202 ), #177, .F. ) ;
#114 = ORIENTED_EDGE ( 'NONE', *, *, #53, .F. ) ;
#115 =( LENGTH_UNIT ( ) NAMED_UNIT ( * ) SI_UNIT ( .MILLI., .METRE. ) );
#116 = EDGE_CURVE ( 'NONE', #39, #39, #243, .T. ) ;
#117 = FACE_OUTER_BOUND ( 'NONE', #141, .T. ) ;
#118 = CIRCLE ( 'NONE', #294, 1.200000000000002842 ) ;
#119 = ORGANIZATION ( 'UNSPECIFIED', 'UNSPECIFIED', '' ) ;
#120 = PRODUCT ( '327108', '327108', '', ( #110 ) ) ;
#121 = ORIENTED_EDGE ( 'NONE', *, *, #203, .F. ) ;
#122 = CALENDAR_DATE ( 2021, 2, 12 ) ;
#123 = FACE_OUTER_BOUND ( 'NONE', #92, .T. ) ;
#124 = CIRCLE ( 'NONE', #301, 1.429999999999998606 ) ;
#125 = ORIENTED_EDGE ( 'NONE', *, *, #208, .T. ) ;
#126 = APPROVAL_PERSON_ORGANIZATION ( #140, #250, #285 ) ;
#127 = CARTESIAN_POINT ( 'NONE',  ( 3.491481338843133355E-14, 1.429999999999998606, 10.00000000000000000 ) ) ;
#128 = VERTEX_POINT ( 'NONE', #18 ) ;
#129 = DIRECTION ( 'NONE',  ( 0.0000000000000000000, 1.000000000000000000, 0.0000000000000000000 ) ) ;
#130 = AXIS2_PLACEMENT_3D ( 'NONE', #75, #99, #238 ) ;
#131 = CONICAL_SURFACE ( 'NONE', #240, 1.499999999999996003, 0.1745329251994263697 ) ;
#132 = CARTESIAN_POINT ( 'NONE',  ( -6.300047266960475101E-32, 2.209759116890074520E-33, -1.804405252541871021E-17 ) ) ;
#133 = PRODUCT_DEFINITION ( 'UNKNOWN', '', #70, #45 ) ;
#134 = CARTESIAN_POINT ( 'NONE',  ( 3.612429800294234159E-14, -1.267069808696350687E-15, 10.34641016151378423 ) ) ;
#135 = COORDINATED_UNIVERSAL_TIME_OFFSET ( 1, 0, .AHEAD. ) ;
#136 = CIRCLE ( 'NONE', #259, 1.229999999999999760 ) ;
#137 = EDGE_CURVE ( 'NONE', #107, #107, #253, .T. ) ;
#138 = ORIENTED_EDGE ( 'NONE', *, *, #217, .F. ) ;
#139 = ORIENTED_EDGE ( 'NONE', *, *, #109, .T. ) ;
#140 = PERSON_AND_ORGANIZATION ( #87, #119 ) ;
#141 = EDGE_LOOP ( 'NONE', ( #147 ) ) ;
#142 = CONICAL_SURFACE ( 'NONE', #106, 1.229999999999998206, 0.5235987755982924874 ) ;
#143 = COORDINATED_UNIVERSAL_TIME_OFFSET ( 1, 0, .AHEAD. ) ;
#144 = APPROVAL_DATE_TIME ( #171, #148 ) ;
#145 = DIRECTION ( 'NONE',  ( -4.275831445896959482E-31, -1.000000000000000000, -1.224646799147353454E-16 ) ) ;
#146 = PERSON_AND_ORGANIZATION_ROLE ( 'classification_officer' ) ;
#147 = ORIENTED_EDGE ( 'NONE', *, *, #137, .F. ) ;
#148 = APPROVAL ( #28, 'UNSPECIFIED' ) ;
#149 = AXIS2_PLACEMENT_3D ( 'NONE', #263, #225, #29 ) ;
#150 = EDGE_LOOP ( 'NONE', ( #112 ) ) ;
#151 = DIRECTION ( 'NONE',  ( -3.491481338843133355E-15, 1.224646799147353454E-16, -1.000000000000000000 ) ) ;
#152 = DIRECTION ( 'NONE',  ( 4.275831445896959482E-31, 1.000000000000000000, 1.224646799147353454E-16 ) ) ;
#153 = CONICAL_SURFACE ( 'NONE', #224, 1.429999999999998606, 0.7853981633974428389 ) ;
#154 = DIRECTION ( 'NONE',  ( -3.491481338843133355E-15, 1.224646799147353454E-16, -1.000000000000000000 ) ) ;
#155 = DIRECTION ( 'NONE',  ( -4.040412470742456379E-31, -1.000000000000000000, -1.137275006103676976E-16 ) ) ;
#156 = DIRECTION ( 'NONE',  ( -4.275831445896959482E-31, -1.000000000000000000, -1.224646799147353454E-16 ) ) ;
#157 = ADVANCED_FACE ( 'NONE', ( #291, #248 ), #41, .T. ) ;
#158 = DIRECTION ( 'NONE',  ( -3.491481338843133355E-15, 1.224646799147353454E-16, -1.000000000000000000 ) ) ;
#159 = AXIS2_PLACEMENT_3D ( 'NONE', #267, #60, #152 ) ;
#160 = DIRECTION ( 'NONE',  ( 0.0000000000000000000, 1.000000000000000000, 0.0000000000000000000 ) ) ;
#161 = PRODUCT_DEFINITION_SHAPE ( 'NONE', 'NONE',  #133 ) ;
#162 = CARTESIAN_POINT ( 'NONE',  ( 9.324428069613982404E-14, 1.499999999999992673, 26.70622341834866376 ) ) ;
#163 = CARTESIAN_POINT ( 'NONE',  ( 8.728703347107833388E-16, 1.429999999999998606, 0.2500000000000000000 ) ) ;
#164 = TOROIDAL_SURFACE ( 'NONE', #206, 3.229999999999999982, 2.000000000000000000 ) ;
#165 = ORIENTED_EDGE ( 'NONE', *, *, #237, .F. ) ;
#166 = APPROVAL_ROLE ( '' ) ;
#167 = PERSON_AND_ORGANIZATION ( #87, #119 ) ;
#168 = ORIENTED_EDGE ( 'NONE', *, *, #53, .T. ) ;
#169 = APPLICATION_CONTEXT ( 'configuration controlled 3d designs of mechanical parts and assemblies' ) ;
#170 = CYLINDRICAL_SURFACE ( 'NONE', #149, 1.229999999999998872 ) ;
#171 = DATE_AND_TIME ( #122, #40 ) ;
#172 = DIRECTION ( 'NONE',  ( -3.491481338843133355E-15, 1.224646799147353454E-16, -1.000000000000000000 ) ) ;
#173 = MANIFOLD_SOLID_BREP ( 'Corps-Déplacer/Copier1[2]', #219 ) ;
#174 = CIRCLE ( 'NONE', #269, 1.429999999999999938 ) ;
#175 = LOCAL_TIME ( 8, 16, 33.00000000000000000, #216 ) ;
#176 = DIRECTION ( 'NONE',  ( 0.0000000000000000000, 1.000000000000000000, 0.0000000000000000000 ) ) ;
#177 = PLANE ( 'NONE',  #159 ) ;
#178 = DIRECTION ( 'NONE',  ( -3.491481338843133355E-15, 1.224646799147353454E-16, -1.000000000000000000 ) ) ;
#179 = DIRECTION ( 'NONE',  ( 0.0000000000000000000, 1.000000000000000000, 0.0000000000000000000 ) ) ;
#180 = DIRECTION ( 'NONE',  ( 0.0000000000000000000, 1.000000000000000000, 0.0000000000000000000 ) ) ;
#181 = DIRECTION ( 'NONE',  ( -3.491481338843133355E-15, 1.224646799147353454E-16, -1.000000000000000000 ) ) ;
#182 = DIRECTION ( 'NONE',  ( 4.040412470742456379E-31, 1.000000000000000000, 1.137275006103676976E-16 ) ) ;
#183 = CIRCLE ( 'NONE', #49, 1.180000000000001270 ) ;
#184 = UNCERTAINTY_MEASURE_WITH_UNIT (LENGTH_MEASURE( 1.000000000000000082E-05 ), #115, 'distance_accuracy_value', 'NONE');
#185 = CIRCLE ( 'NONE', #192, 1.499999999999996003 ) ;
#186 = PERSON_AND_ORGANIZATION_ROLE ( 'creator' ) ;
#187 = EDGE_LOOP ( 'NONE', ( #281 ) ) ;
#188 = ADVANCED_FACE ( 'NONE', ( #210, #271 ), #153, .T. ) ;
#189 = APPLICATION_PROTOCOL_DEFINITION ( 'international standard', 'config_control_design', 1994, #169 ) ;
#190 = CARTESIAN_POINT ( 'NONE',  ( 3.612429800294234159E-14, -1.267069808696350687E-15, 10.34641016151378423 ) ) ;
#191 = AXIS2_PLACEMENT_3D ( 'NONE', #241, #288, #286 ) ;
#192 = AXIS2_PLACEMENT_3D ( 'NONE', #245, #88, #65 ) ;
#193 = APPROVAL_PERSON_ORGANIZATION ( #82, #148, #51 ) ;
#194 = APPROVAL_STATUS ( 'not_yet_approved' ) ;
#195 = EDGE_CURVE ( 'NONE', #104, #104, #183, .T. ) ;
#196 = EDGE_LOOP ( 'NONE', ( #9 ) ) ;
#197 = PERSON_AND_ORGANIZATION ( #87, #119 ) ;
#198 = CARTESIAN_POINT ( 'NONE',  ( 3.491481338843133355E-14, -1.224646799147353454E-15, 10.00000000000000000 ) ) ;
#199 = DIRECTION ( 'NONE',  ( 3.491481338843133355E-15, -1.224646799147353454E-16, 1.000000000000000000 ) ) ;
#200 = CONICAL_SURFACE ( 'NONE', #130, 1.200000000000002842, 0.7853981633974453924 ) ;
#201 = CC_DESIGN_APPROVAL ( #277, ( #133 ) ) ;
#202 = FACE_OUTER_BOUND ( 'NONE', #214, .T. ) ;
#203 = EDGE_CURVE ( 'NONE', #209, #209, #136, .T. ) ;
#204 = DIRECTION ( 'NONE',  ( 4.275831445896960358E-31, 1.000000000000000000, 1.224646799147353454E-16 ) ) ;
#205 = CARTESIAN_POINT ( 'NONE',  ( 3.785471652766322713E-31, 1.180000000000001270, 1.084202172485504434E-16 ) ) ;
#206 = AXIS2_PLACEMENT_3D ( 'NONE', #102, #181, #273 ) ;
#207 = DIRECTION ( 'NONE',  ( -3.491481338843133355E-15, 1.224646799147353454E-16, -1.000000000000000000 ) ) ;
#208 = EDGE_CURVE ( 'NONE', #211, #211, #185, .T. ) ;
#209 = VERTEX_POINT ( 'NONE', #298 ) ;
#210 = FACE_BOUND ( 'NONE', #196, .T. ) ;
#211 = VERTEX_POINT ( 'NONE', #162 ) ;
#212 = LOCAL_TIME ( 8, 16, 33.00000000000000000, #143 ) ;
#213 = EDGE_LOOP ( 'NONE', ( #283 ) ) ;
#214 = EDGE_LOOP ( 'NONE', ( #21 ) ) ;
#215 = EDGE_LOOP ( 'NONE', ( #254 ) ) ;
#216 = COORDINATED_UNIVERSAL_TIME_OFFSET ( 1, 0, .AHEAD. ) ;
#217 = EDGE_CURVE ( 'NONE', #233, #233, #124, .T. ) ;
#218 = ORIENTED_EDGE ( 'NONE', *, *, #116, .T. ) ;
#219 = CLOSED_SHELL ( 'NONE', ( #227, #188, #81, #64 ) ) ;
#220 = APPROVAL_PERSON_ORGANIZATION ( #46, #277, #166 ) ;
#221 = SHAPE_DEFINITION_REPRESENTATION ( #161, #292 ) ;
#222 = SECURITY_CLASSIFICATION_LEVEL ( 'unclassified' ) ;
#223 = FACE_BOUND ( 'NONE', #187, .T. ) ;
#224 = AXIS2_PLACEMENT_3D ( 'NONE', #293, #63, #155 ) ;
#225 = DIRECTION ( 'NONE',  ( -3.491481338843133355E-15, 1.224646799147353454E-16, -1.000000000000000000 ) ) ;
#226 = CARTESIAN_POINT ( 'NONE',  ( 3.612429800294234159E-14, 1.229999999999996874, 10.34641016151378423 ) ) ;
#227 = ADVANCED_FACE ( 'NONE', ( #66 ), #230, .F. ) ;
#228 = DIRECTION ( 'NONE',  ( 3.491481338843133355E-15, -1.224646799147353454E-16, 1.000000000000000000 ) ) ;
#229 = CARTESIAN_POINT ( 'NONE',  ( 8.728703347107827472E-16, -3.061616997868381785E-17, 0.2499999999999998335 ) ) ;
#230 = PLANE ( 'NONE',  #35 ) ;
#231 = AXIS2_PLACEMENT_3D ( 'NONE', #134, #61, #179 ) ;
#232 = ORIENTED_EDGE ( 'NONE', *, *, #237, .T. ) ;
#233 = VERTEX_POINT ( 'NONE', #163 ) ;
#234 = PRODUCT_RELATED_PRODUCT_CATEGORY ( 'detail', '', ( #120 ) ) ;
#235 =( NAMED_UNIT ( * ) SI_UNIT ( $, .STERADIAN. ) SOLID_ANGLE_UNIT ( ) );
#236 = EDGE_LOOP ( 'NONE', ( #232 ) ) ;
#237 = EDGE_CURVE ( 'NONE', #69, #69, #43, .T. ) ;
#238 = DIRECTION ( 'NONE',  ( 0.0000000000000000000, 1.000000000000000000, 0.0000000000000000000 ) ) ;
#239 = EDGE_LOOP ( 'NONE', ( #165 ) ) ;
#240 = AXIS2_PLACEMENT_3D ( 'NONE', #246, #300, #89 ) ;
#241 = CARTESIAN_POINT ( 'NONE',  ( 0.0000000000000000000, 0.0000000000000000000, 0.0000000000000000000 ) ) ;
#242 = DIRECTION ( 'NONE',  ( -4.275831445896959482E-31, -1.000000000000000000, -1.224646799147353454E-16 ) ) ;
#243 = CIRCLE ( 'NONE', #231, 1.229999999999998206 ) ;
#244 = CARTESIAN_POINT ( 'NONE',  ( 2.129803616694311221E-13, -7.470345474798856659E-15, 61.00000000000000000 ) ) ;
#245 = CARTESIAN_POINT ( 'NONE',  ( 9.324428069613982404E-14, -3.270569102659478070E-15, 26.70622341834866376 ) ) ;
#246 = CARTESIAN_POINT ( 'NONE',  ( 9.324428069613982404E-14, -3.270569102659478070E-15, 26.70622341834866376 ) ) ;
#247 = AXIS2_PLACEMENT_3D ( 'NONE', #94, #199, #242 ) ;
#248 = FACE_OUTER_BOUND ( 'NONE', #33, .T. ) ;
#249 = FACE_OUTER_BOUND ( 'NONE', #32, .T. ) ;
#250 = APPROVAL ( #194, 'UNSPECIFIED' ) ;
#251 = DATE_AND_TIME ( #91, #80 ) ;
#252 = EDGE_LOOP ( 'NONE', ( #125 ) ) ;
#253 = CIRCLE ( 'NONE', #67, 1.429999999999999938 ) ;
#254 = ORIENTED_EDGE ( 'NONE', *, *, #208, .F. ) ;
#255 = APPLICATION_PROTOCOL_DEFINITION ( 'international standard', 'config_control_design', 1994, #297 ) ;
#256 = DATE_TIME_ROLE ( 'creation_date' ) ;
#257 = COORDINATED_UNIVERSAL_TIME_OFFSET ( 1, 0, .AHEAD. ) ;
#258 = ORIENTED_EDGE ( 'NONE', *, *, #203, .T. ) ;
#259 = AXIS2_PLACEMENT_3D ( 'NONE', #85, #13, #180 ) ;
#260 = PERSON_AND_ORGANIZATION_ROLE ( 'design_supplier' ) ;
#261 = ORIENTED_EDGE ( 'NONE', *, *, #109, .F. ) ;
#262 = PERSON_AND_ORGANIZATION_ROLE ( 'creator' ) ;
#263 = CARTESIAN_POINT ( 'NONE',  ( 0.0000000000000000000, 0.0000000000000000000, 0.0000000000000000000 ) ) ;
#264 = CALENDAR_DATE ( 2021, 2, 12 ) ;
#265 = PLANE ( 'NONE',  #95 ) ;
#266 = ORIENTED_EDGE ( 'NONE', *, *, #195, .T. ) ;
#267 = CARTESIAN_POINT ( 'NONE',  ( 2.129803616694311221E-13, 8.998558695971062171E-33, 61.00000000000000000 ) ) ;
#268 = VERTEX_POINT ( 'NONE', #127 ) ;
#269 = AXIS2_PLACEMENT_3D ( 'NONE', #198, #96, #176 ) ;
#270 = DIRECTION ( 'NONE',  ( 0.0000000000000000000, 1.000000000000000000, 0.0000000000000000000 ) ) ;
#271 = FACE_OUTER_BOUND ( 'NONE', #280, .T. ) ;
#272 = MANIFOLD_SOLID_BREP ( 'Corps-Déplacer/Copier1[1]', #2 ) ;
#273 = DIRECTION ( 'NONE',  ( 4.275831445896959482E-31, 1.000000000000000000, 1.224646799147353454E-16 ) ) ;
#274 = AXIS2_PLACEMENT_3D ( 'NONE', #19, #37, #204 ) ;
#275 = CARTESIAN_POINT ( 'NONE',  ( -1.260009453392095020E-31, 4.419518233780149040E-33, -3.608810505083742043E-17 ) ) ;
#276 = CARTESIAN_POINT ( 'NONE',  ( 0.0000000000000000000, 0.0000000000000000000, 0.0000000000000000000 ) ) ;
#277 = APPROVAL ( #1, 'UNSPECIFIED' ) ;
#278 =( NAMED_UNIT ( * ) PLANE_ANGLE_UNIT ( ) SI_UNIT ( $, .RADIAN. ) );
#279 = CALENDAR_DATE ( 2021, 2, 12 ) ;
#280 = EDGE_LOOP ( 'NONE', ( #44 ) ) ;
#281 = ORIENTED_EDGE ( 'NONE', *, *, #282, .T. ) ;
#282 = EDGE_CURVE ( 'NONE', #4, #4, #118, .T. ) ;
#283 = ORIENTED_EDGE ( 'NONE', *, *, #116, .F. ) ;
#284 = LOCAL_TIME ( 8, 16, 33.00000000000000000, #135 ) ;
#285 = APPROVAL_ROLE ( '' ) ;
#286 = DIRECTION ( 'NONE',  ( 4.275831445896959482E-31, 1.000000000000000000, 1.224646799147353454E-16 ) ) ;
#287 = CYLINDRICAL_SURFACE ( 'NONE', #191, 1.429999999999999272 ) ;
#288 = DIRECTION ( 'NONE',  ( -3.491481338843133355E-15, 1.224646799147353454E-16, -1.000000000000000000 ) ) ;
#289 = CIRCLE ( 'NONE', #5, 1.500000000000002887 ) ;
#290 = CC_DESIGN_PERSON_AND_ORGANIZATION_ASSIGNMENT ( #167, #262, ( #70 ) ) ;
#291 = FACE_OUTER_BOUND ( 'NONE', #215, .T. ) ;
#292 = ADVANCED_BREP_SHAPE_REPRESENTATION ( '327108', ( #272, #173, #17 ), #36 ) ;
#293 = CARTESIAN_POINT ( 'NONE',  ( 8.728703347107827472E-16, -3.061616997868381785E-17, 0.2499999999999998335 ) ) ;
#294 = AXIS2_PLACEMENT_3D ( 'NONE', #244, #178, #160 ) ;
#295 = SECURITY_CLASSIFICATION ( '', '', #222 ) ;
#296 = DIRECTION ( 'NONE',  ( 4.275831445896959482E-31, 1.000000000000000000, 1.224646799147353454E-16 ) ) ;
#297 = APPLICATION_CONTEXT ( 'configuration controlled 3d designs of mechanical parts and assemblies' ) ;
#298 = CARTESIAN_POINT ( 'NONE',  ( 8.728703347107833388E-14, 1.229999999999996652, 25.00000000000000000 ) ) ;
#299 = ADVANCED_FACE ( 'NONE', ( #249, #38 ), #164, .F. ) ;
#300 = DIRECTION ( 'NONE',  ( 3.491481338843133355E-15, -1.224646799147353454E-16, 1.000000000000000000 ) ) ;
#301 = AXIS2_PLACEMENT_3D ( 'NONE', #229, #154, #182 ) ;
#302 = PERSON_AND_ORGANIZATION_ROLE ( 'design_owner' ) ;
#303 = ADVANCED_FACE ( 'NONE', ( #16, #108 ), #131, .T. ) ;
ENDSEC;
END-ISO-10303-21;
