ISO-10303-21;
HEADER;
FILE_DESCRIPTION (( 'STEP AP203' ),
    '1' );
FILE_NAME ('327107.step',
    '2021-12-02T07:16:32',
    ( '' ),
    ( '' ),
    'SwSTEP 2.0',
    'SolidWorks 2019',
    '' );
FILE_SCHEMA (( 'CONFIG_CONTROL_DESIGN' ));
ENDSEC;

DATA;
#1 = SECURITY_CLASSIFICATION_LEVEL ( 'unclassified' ) ;
#2 = CARTESIAN_POINT ( 'NONE',  ( 8.849961221477468513E-14, 1.250384493975578160, 25.34729635533384240 ) ) ;
#3 = CC_DESIGN_APPROVAL ( #248, ( #63 ) ) ;
#4 = EDGE_LOOP ( 'NONE', ( #168 ) ) ;
#5 = DATE_AND_TIME ( #245, #47 ) ;
#6 = AXIS2_PLACEMENT_3D ( 'NONE', #217, #84, #149 ) ;
#7 = FACE_BOUND ( 'NONE', #138, .T. ) ;
#8 = ORIENTED_EDGE ( 'NONE', *, *, #100, .F. ) ;
#9 = DIRECTION ( 'NONE',  ( -3.491481338843133355E-15, 1.224646799147353454E-16, -1.000000000000000000 ) ) ;
#10 = EDGE_LOOP ( 'NONE', ( #285 ) ) ;
#11 = ADVANCED_FACE ( 'NONE', ( #33, #102 ), #256, .T. ) ;
#12 = ADVANCED_FACE ( 'NONE', ( #98 ), #82, .F. ) ;
#13 = APPROVAL_PERSON_ORGANIZATION ( #49, #188, #254 ) ;
#14 = CARTESIAN_POINT ( 'NONE',  ( 3.491481338843133355E-14, 1.064829445689917232E-32, 10.00000000000000000 ) ) ;
#15 = FACE_OUTER_BOUND ( 'NONE', #281, .T. ) ;
#16 = CONICAL_SURFACE ( 'NONE', #121, 1.200000000000002842, 0.7853981633974453924 ) ;
#17 = CIRCLE ( 'NONE', #25, 1.419999999999998597 ) ;
#18 = FACE_OUTER_BOUND ( 'NONE', #27, .T. ) ;
#19 = ADVANCED_FACE ( 'NONE', ( #101, #118 ), #16, .T. ) ;
#20 = CYLINDRICAL_SURFACE ( 'NONE', #131, 1.219999999999999307 ) ;
#21 = CC_DESIGN_DATE_AND_TIME_ASSIGNMENT ( #133, #199, ( #63 ) ) ;
#22 = EDGE_LOOP ( 'NONE', ( #249 ) ) ;
#23 = PERSON_AND_ORGANIZATION_ROLE ( 'design_supplier' ) ;
#24 = CARTESIAN_POINT ( 'NONE',  ( 3.491481338843133355E-14, 1.419999999999998597, 10.00000000000000000 ) ) ;
#25 = AXIS2_PLACEMENT_3D ( 'NONE', #297, #268, #89 ) ;
#26 = PERSON_AND_ORGANIZATION ( #211, #141 ) ;
#27 = EDGE_LOOP ( 'NONE', ( #230 ) ) ;
#28 = CARTESIAN_POINT ( 'NONE',  ( 2.129803616694311221E-13, 1.199999999999995515, 61.00000000000000000 ) ) ;
#29 = MECHANICAL_CONTEXT ( 'NONE', #265, 'mechanical' ) ;
#30 = FACE_OUTER_BOUND ( 'NONE', #10, .T. ) ;
#31 = CARTESIAN_POINT ( 'NONE',  ( 1.135641495829896858E-30, 1.170000000000001261, 3.252606517456513302E-16 ) ) ;
#32 = CARTESIAN_POINT ( 'NONE',  ( 8.849961221477468513E-14, -3.104148534859897150E-15, 25.34729635533384240 ) ) ;
#33 = FACE_OUTER_BOUND ( 'NONE', #244, .T. ) ;
#34 = TOROIDAL_SURFACE ( 'NONE', #179, 3.220000000000000195, 2.000000000000000000 ) ;
#35 = CIRCLE ( 'NONE', #234, 1.250384493975581046 ) ;
#36 = ADVANCED_FACE ( 'NONE', ( #7, #58 ), #159, .T. ) ;
#37 = CC_DESIGN_SECURITY_CLASSIFICATION ( #77, ( #271 ) ) ;
#38 = DIRECTION ( 'NONE',  ( -3.491481338843133355E-15, 1.224646799147353454E-16, -1.000000000000000000 ) ) ;
#39 = PRODUCT_RELATED_PRODUCT_CATEGORY ( 'detail', '', ( #185 ) ) ;
#40 = DIRECTION ( 'NONE',  ( 0.0000000000000000000, 1.000000000000000000, 0.0000000000000000000 ) ) ;
#41 = FACE_OUTER_BOUND ( 'NONE', #52, .T. ) ;
#42 = DIRECTION ( 'NONE',  ( 0.0000000000000000000, 1.000000000000000000, 0.0000000000000000000 ) ) ;
#43 = CALENDAR_DATE ( 2021, 2, 12 ) ;
#44 = VERTEX_POINT ( 'NONE', #31 ) ;
#45 = EDGE_LOOP ( 'NONE', ( #60 ) ) ;
#46 = PERSON_AND_ORGANIZATION ( #211, #141 ) ;
#47 = LOCAL_TIME ( 8, 16, 32.00000000000000000, #156 ) ;
#48 = EDGE_LOOP ( 'NONE', ( #111 ) ) ;
#49 = PERSON_AND_ORGANIZATION ( #211, #141 ) ;
#50 = UNCERTAINTY_MEASURE_WITH_UNIT (LENGTH_MEASURE( 1.000000000000000082E-05 ), #117, 'distance_accuracy_value', 'NONE');
#51 = CARTESIAN_POINT ( 'NONE',  ( 2.119329172677781757E-13, 1.499999999999995559, 60.69999999999999574 ) ) ;
#52 = EDGE_LOOP ( 'NONE', ( #295 ) ) ;
#53 = COORDINATED_UNIVERSAL_TIME_OFFSET ( 1, 0, .AHEAD. ) ;
#54 = DIRECTION ( 'NONE',  ( 0.0000000000000000000, -1.000000000000000000, 0.0000000000000000000 ) ) ;
#55 = APPLICATION_PROTOCOL_DEFINITION ( 'international standard', 'config_control_design', 1994, #265 ) ;
#56 =( GEOMETRIC_REPRESENTATION_CONTEXT ( 3 ) GLOBAL_UNCERTAINTY_ASSIGNED_CONTEXT ( ( #50 ) ) GLOBAL_UNIT_ASSIGNED_CONTEXT ( ( #117, #140, #219 ) ) REPRESENTATION_CONTEXT ( 'NONE', 'WORKASPACE' ) );
#57 = DIRECTION ( 'NONE',  ( -3.491481338843133355E-15, 1.224646799147353454E-16, -1.000000000000000000 ) ) ;
#58 = FACE_OUTER_BOUND ( 'NONE', #99, .T. ) ;
#59 = MANIFOLD_SOLID_BREP ( 'Corps-Déplacer/Copier1[1]', #145 ) ;
#60 = ORIENTED_EDGE ( 'NONE', *, *, #289, .F. ) ;
#61 = CIRCLE ( 'NONE', #293, 1.220000000000000195 ) ;
#62 = APPROVAL_PERSON_ORGANIZATION ( #224, #203, #222 ) ;
#63 = PRODUCT_DEFINITION ( 'UNKNOWN', '', #271, #246 ) ;
#64 = DIRECTION ( 'NONE',  ( -4.275831445896959482E-31, -1.000000000000000000, -1.224646799147353454E-16 ) ) ;
#65 = CARTESIAN_POINT ( 'NONE',  ( 8.728703347107833388E-14, -3.061616997868383831E-15, 25.00000000000000000 ) ) ;
#66 = DIRECTION ( 'NONE',  ( -3.491481338843133355E-15, 1.224646799147353454E-16, -1.000000000000000000 ) ) ;
#67 = ORIENTED_EDGE ( 'NONE', *, *, #289, .T. ) ;
#68 = DIRECTION ( 'NONE',  ( 3.491481338843133355E-15, -1.224646799147353454E-16, 1.000000000000000000 ) ) ;
#69 = CALENDAR_DATE ( 2021, 2, 12 ) ;
#70 = DATE_AND_TIME ( #162, #220 ) ;
#71 = CIRCLE ( 'NONE', #239, 1.500000000000002887 ) ;
#72 = CIRCLE ( 'NONE', #252, 1.499999999999996003 ) ;
#73 = ADVANCED_FACE ( 'NONE', ( #30, #116 ), #34, .F. ) ;
#74 = CARTESIAN_POINT ( 'NONE',  ( 8.728703347107833388E-14, -3.035766082959412415E-15, 25.00000000000000000 ) ) ;
#75 = CC_DESIGN_PERSON_AND_ORGANIZATION_ASSIGNMENT ( #26, #177, ( #185 ) ) ;
#76 = DIRECTION ( 'NONE',  ( -3.491481338843133355E-15, 1.224646799147353454E-16, -1.000000000000000000 ) ) ;
#77 = SECURITY_CLASSIFICATION ( '', '', #1 ) ;
#78 = CALENDAR_DATE ( 2021, 2, 12 ) ;
#79 = ORIENTED_EDGE ( 'NONE', *, *, #193, .F. ) ;
#80 = EDGE_CURVE ( 'NONE', #280, #280, #216, .T. ) ;
#81 = CC_DESIGN_PERSON_AND_ORGANIZATION_ASSIGNMENT ( #139, #23, ( #271 ) ) ;
#82 = PLANE ( 'NONE',  #201 ) ;
#83 = CIRCLE ( 'NONE', #192, 1.219999999999998197 ) ;
#84 = DIRECTION ( 'NONE',  ( 3.491481338843133355E-15, -1.224646799147353454E-16, 1.000000000000000000 ) ) ;
#85 = AXIS2_PLACEMENT_3D ( 'NONE', #14, #68, #64 ) ;
#86 = FACE_OUTER_BOUND ( 'NONE', #132, .T. ) ;
#87 = CC_DESIGN_PERSON_AND_ORGANIZATION_ASSIGNMENT ( #299, #90, ( #77 ) ) ;
#88 = DIRECTION ( 'NONE',  ( -3.491481338843133355E-15, 1.224646799147353454E-16, -1.000000000000000000 ) ) ;
#89 = DIRECTION ( 'NONE',  ( 4.068866079691347496E-31, 1.000000000000000000, 1.145283985019900217E-16 ) ) ;
#90 = PERSON_AND_ORGANIZATION_ROLE ( 'classification_officer' ) ;
#91 = VERTEX_POINT ( 'NONE', #28 ) ;
#92 = EDGE_LOOP ( 'NONE', ( #79 ) ) ;
#93 = VERTEX_POINT ( 'NONE', #225 ) ;
#94 = AXIS2_PLACEMENT_3D ( 'NONE', #163, #76, #300 ) ;
#95 = CARTESIAN_POINT ( 'NONE',  ( 0.0000000000000000000, 0.0000000000000000000, 0.0000000000000000000 ) ) ;
#96 = SHAPE_DEFINITION_REPRESENTATION ( #209, #243 ) ;
#97 = VERTEX_POINT ( 'NONE', #255 ) ;
#98 = FACE_OUTER_BOUND ( 'NONE', #120, .T. ) ;
#99 = EDGE_LOOP ( 'NONE', ( #205 ) ) ;
#100 = EDGE_CURVE ( 'NONE', #200, #200, #35, .T. ) ;
#101 = FACE_OUTER_BOUND ( 'NONE', #143, .T. ) ;
#102 = FACE_OUTER_BOUND ( 'NONE', #232, .T. ) ;
#103 = CC_DESIGN_DATE_AND_TIME_ASSIGNMENT ( #5, #250, ( #77 ) ) ;
#104 = DIRECTION ( 'NONE',  ( -3.491481338843133355E-15, 1.224646799147353454E-16, -1.000000000000000000 ) ) ;
#105 = DIRECTION ( 'NONE',  ( 4.275831445896959482E-31, 1.000000000000000000, 1.224646799147353454E-16 ) ) ;
#106 = COORDINATED_UNIVERSAL_TIME_OFFSET ( 1, 0, .AHEAD. ) ;
#107 = DIRECTION ( 'NONE',  ( -3.491481338843133355E-15, 1.224646799147353454E-16, -1.000000000000000000 ) ) ;
#108 = FACE_OUTER_BOUND ( 'NONE', #175, .T. ) ;
#109 = DIRECTION ( 'NONE',  ( -3.491481338843133355E-15, 1.224646799147353454E-16, -1.000000000000000000 ) ) ;
#110 = EDGE_CURVE ( 'NONE', #251, #251, #72, .T. ) ;
#111 = ORIENTED_EDGE ( 'NONE', *, *, #193, .T. ) ;
#112 = APPROVAL_DATE_TIME ( #70, #203 ) ;
#113 = CLOSED_SHELL ( 'NONE', ( #157, #135, #303, #176 ) ) ;
#114 = EDGE_CURVE ( 'NONE', #197, #197, #61, .T. ) ;
#115 = CARTESIAN_POINT ( 'NONE',  ( 8.728703347107833388E-14, 1.219999999999997087, 25.00000000000000000 ) ) ;
#116 = FACE_OUTER_BOUND ( 'NONE', #286, .T. ) ;
#117 =( LENGTH_UNIT ( ) NAMED_UNIT ( * ) SI_UNIT ( .MILLI., .METRE. ) );
#118 = FACE_BOUND ( 'NONE', #4, .T. ) ;
#119 = APPROVAL_ROLE ( '' ) ;
#120 = EDGE_LOOP ( 'NONE', ( #161 ) ) ;
#121 = AXIS2_PLACEMENT_3D ( 'NONE', #178, #180, #278 ) ;
#122 = AXIS2_PLACEMENT_3D ( 'NONE', #173, #151, #266 ) ;
#123 = ADVANCED_FACE ( 'NONE', ( #210, #18 ), #20, .T. ) ;
#124 = APPLICATION_CONTEXT ( 'configuration controlled 3d designs of mechanical parts and assemblies' ) ;
#125 = LOCAL_TIME ( 8, 16, 32.00000000000000000, #165 ) ;
#126 = PLANE ( 'NONE',  #6 ) ;
#127 = DIRECTION ( 'NONE',  ( 4.275831445896960358E-31, 1.000000000000000000, 1.224646799147353700E-16 ) ) ;
#128 = CC_DESIGN_PERSON_AND_ORGANIZATION_ASSIGNMENT ( #184, #287, ( #63 ) ) ;
#129 = CARTESIAN_POINT ( 'NONE',  ( 9.344229244254496746E-14, -3.277514419786935253E-15, 26.76293623654483511 ) ) ;
#130 = DIRECTION ( 'NONE',  ( 3.491481338843133355E-15, -1.224646799147353454E-16, 1.000000000000000000 ) ) ;
#131 = AXIS2_PLACEMENT_3D ( 'NONE', #150, #109, #105 ) ;
#132 = EDGE_LOOP ( 'NONE', ( #272 ) ) ;
#133 = DATE_AND_TIME ( #43, #298 ) ;
#134 = DIRECTION ( 'NONE',  ( 0.0000000000000000000, 1.000000000000000000, 0.0000000000000000000 ) ) ;
#135 = ADVANCED_FACE ( 'NONE', ( #213, #15 ), #241, .T. ) ;
#136 = APPROVAL_STATUS ( 'not_yet_approved' ) ;
#137 = VERTEX_POINT ( 'NONE', #242 ) ;
#138 = EDGE_LOOP ( 'NONE', ( #8 ) ) ;
#139 = PERSON_AND_ORGANIZATION ( #211, #141 ) ;
#140 =( NAMED_UNIT ( * ) PLANE_ANGLE_UNIT ( ) SI_UNIT ( $, .RADIAN. ) );
#141 = ORGANIZATION ( 'UNSPECIFIED', 'UNSPECIFIED', '' ) ;
#142 = DIRECTION ( 'NONE',  ( 0.0000000000000000000, 1.000000000000000000, 0.0000000000000000000 ) ) ;
#143 = EDGE_LOOP ( 'NONE', ( #144 ) ) ;
#144 = ORIENTED_EDGE ( 'NONE', *, *, #277, .F. ) ;
#145 = CLOSED_SHELL ( 'NONE', ( #275, #214, #123, #73, #36, #11, #19, #12 ) ) ;
#146 = AXIS2_PLACEMENT_3D ( 'NONE', #194, #296, #236 ) ;
#147 = MANIFOLD_SOLID_BREP ( 'Corps-Déplacer/Copier1[2]', #113 ) ;
#148 = CARTESIAN_POINT ( 'NONE',  ( 6.353692166599520053E-31, -2.228575214774563238E-32, 1.819769762454108045E-16 ) ) ;
#149 = DIRECTION ( 'NONE',  ( -4.275831445896959482E-31, -1.000000000000000000, -1.224646799147353454E-16 ) ) ;
#150 = CARTESIAN_POINT ( 'NONE',  ( 0.0000000000000000000, 0.0000000000000000000, 0.0000000000000000000 ) ) ;
#151 = DIRECTION ( 'NONE',  ( -3.491481338843133355E-15, 1.224646799147353454E-16, -1.000000000000000000 ) ) ;
#152 = CC_DESIGN_PERSON_AND_ORGANIZATION_ASSIGNMENT ( #46, #218, ( #271 ) ) ;
#153 = CARTESIAN_POINT ( 'NONE',  ( 2.119329172677781757E-13, -7.433606070824434221E-15, 60.69999999999999574 ) ) ;
#154 = APPROVAL_DATE_TIME ( #227, #188 ) ;
#155 = CARTESIAN_POINT ( 'NONE',  ( 0.0000000000000000000, 0.0000000000000000000, 0.0000000000000000000 ) ) ;
#156 = COORDINATED_UNIVERSAL_TIME_OFFSET ( 1, 0, .AHEAD. ) ;
#157 = ADVANCED_FACE ( 'NONE', ( #108 ), #126, .F. ) ;
#158 = APPROVAL_STATUS ( 'not_yet_approved' ) ;
#159 = CONICAL_SURFACE ( 'NONE', #276, 1.499999999999996003, 0.1745329251994263697 ) ;
#160 = DIRECTION ( 'NONE',  ( 1.000000000000000000, 0.0000000000000000000, 0.0000000000000000000 ) ) ;
#161 = ORIENTED_EDGE ( 'NONE', *, *, #264, .F. ) ;
#162 = CALENDAR_DATE ( 2021, 2, 12 ) ;
#163 = CARTESIAN_POINT ( 'NONE',  ( 0.0000000000000000000, 0.0000000000000000000, 0.0000000000000000000 ) ) ;
#164 = DIRECTION ( 'NONE',  ( 4.275831445896959482E-31, 1.000000000000000000, 1.224646799147353454E-16 ) ) ;
#165 = COORDINATED_UNIVERSAL_TIME_OFFSET ( 1, 0, .AHEAD. ) ;
#166 = CIRCLE ( 'NONE', #288, 1.170000000000001261 ) ;
#167 = APPROVAL_STATUS ( 'not_yet_approved' ) ;
#168 = ORIENTED_EDGE ( 'NONE', *, *, #264, .T. ) ;
#169 = DIRECTION ( 'NONE',  ( 4.275831445896959482E-31, 1.000000000000000000, 1.224646799147353454E-16 ) ) ;
#170 = AXIS2_PLACEMENT_3D ( 'NONE', #187, #130, #172 ) ;
#171 = DIRECTION ( 'NONE',  ( 0.0000000000000000000, 1.000000000000000000, 0.0000000000000000000 ) ) ;
#172 = DIRECTION ( 'NONE',  ( -4.068866079691347496E-31, -1.000000000000000000, -1.145283985019900217E-16 ) ) ;
#173 = CARTESIAN_POINT ( 'NONE',  ( 3.612429800294234159E-14, -1.267069808696350687E-15, 10.34641016151378423 ) ) ;
#174 = CARTESIAN_POINT ( 'NONE',  ( 2.129803616694311221E-13, -7.470345474798856659E-15, 61.00000000000000000 ) ) ;
#175 = EDGE_LOOP ( 'NONE', ( #67 ) ) ;
#176 = ADVANCED_FACE ( 'NONE', ( #41 ), #215, .T. ) ;
#177 = PERSON_AND_ORGANIZATION_ROLE ( 'design_owner' ) ;
#178 = CARTESIAN_POINT ( 'NONE',  ( 2.129803616694311221E-13, -7.470345474798856659E-15, 61.00000000000000000 ) ) ;
#179 = AXIS2_PLACEMENT_3D ( 'NONE', #74, #282, #164 ) ;
#180 = DIRECTION ( 'NONE',  ( -3.491481338843133355E-15, 1.224646799147353454E-16, -1.000000000000000000 ) ) ;
#181 = CARTESIAN_POINT ( 'NONE',  ( 2.129803616694311221E-13, 8.998558695971062171E-33, 61.00000000000000000 ) ) ;
#182 = DIRECTION ( 'NONE',  ( 3.491481338843133355E-15, -1.224646799147353454E-16, 1.000000000000000000 ) ) ;
#183 = DIRECTION ( 'NONE',  ( -3.491481338843133355E-15, 1.224646799147353454E-16, -1.000000000000000000 ) ) ;
#184 = PERSON_AND_ORGANIZATION ( #211, #141 ) ;
#185 = PRODUCT ( '327107', '327107', '', ( #29 ) ) ;
#186 = CC_DESIGN_APPROVAL ( #203, ( #271 ) ) ;
#187 = CARTESIAN_POINT ( 'NONE',  ( 8.728703347107827472E-16, -3.061616997868381785E-17, 0.2499999999999998335 ) ) ;
#188 = APPROVAL ( #158, 'UNSPECIFIED' ) ;
#189 = FACE_BOUND ( 'NONE', #48, .T. ) ;
#190 = CIRCLE ( 'NONE', #291, 1.419999999999999929 ) ;
#191 = FACE_OUTER_BOUND ( 'NONE', #223, .T. ) ;
#192 = AXIS2_PLACEMENT_3D ( 'NONE', #195, #88, #294 ) ;
#193 = EDGE_CURVE ( 'NONE', #137, #137, #83, .T. ) ;
#194 = CARTESIAN_POINT ( 'NONE',  ( 3.491481338843133355E-14, 1.064829445689917232E-32, 10.00000000000000000 ) ) ;
#195 = CARTESIAN_POINT ( 'NONE',  ( 3.612429800294234159E-14, -1.267069808696350687E-15, 10.34641016151378423 ) ) ;
#196 = CIRCLE ( 'NONE', #206, 1.200000000000002842 ) ;
#197 = VERTEX_POINT ( 'NONE', #115 ) ;
#198 = FACE_OUTER_BOUND ( 'NONE', #253, .T. ) ;
#199 = DATE_TIME_ROLE ( 'creation_date' ) ;
#200 = VERTEX_POINT ( 'NONE', #2 ) ;
#201 = AXIS2_PLACEMENT_3D ( 'NONE', #181, #9, #169 ) ;
#202 = CONICAL_SURFACE ( 'NONE', #122, 1.219999999999998197, 0.5235987755982924874 ) ;
#203 = APPROVAL ( #136, 'UNSPECIFIED' ) ;
#204 = ORIENTED_EDGE ( 'NONE', *, *, #273, .T. ) ;
#205 = ORIENTED_EDGE ( 'NONE', *, *, #110, .T. ) ;
#206 = AXIS2_PLACEMENT_3D ( 'NONE', #174, #269, #240 ) ;
#207 = ORIENTED_EDGE ( 'NONE', *, *, #231, .T. ) ;
#208 = APPROVAL_DATE_TIME ( #260, #248 ) ;
#209 = PRODUCT_DEFINITION_SHAPE ( 'NONE', 'NONE',  #63 ) ;
#210 = FACE_OUTER_BOUND ( 'NONE', #92, .T. ) ;
#211 = PERSON ( 'UNSPECIFIED', 'UNSPECIFIED', 'UNSPECIFIED', ('UNSPECIFIED'), ('UNSPECIFIED'), ('UNSPECIFIED') ) ;
#212 = PLANE ( 'NONE',  #85 ) ;
#213 = FACE_BOUND ( 'NONE', #45, .T. ) ;
#214 = ADVANCED_FACE ( 'NONE', ( #267, #189 ), #202, .T. ) ;
#215 = PLANE ( 'NONE',  #146 ) ;
#216 = CIRCLE ( 'NONE', #262, 1.419999999999999929 ) ;
#217 = CARTESIAN_POINT ( 'NONE',  ( 3.176846083299760026E-31, -1.114287607387281619E-32, 9.098848812270540227E-17 ) ) ;
#218 = PERSON_AND_ORGANIZATION_ROLE ( 'creator' ) ;
#219 =( NAMED_UNIT ( * ) SI_UNIT ( $, .STERADIAN. ) SOLID_ANGLE_UNIT ( ) );
#220 = LOCAL_TIME ( 8, 16, 32.00000000000000000, #53 ) ;
#221 = ORIENTED_EDGE ( 'NONE', *, *, #277, .T. ) ;
#222 = APPROVAL_ROLE ( '' ) ;
#223 = EDGE_LOOP ( 'NONE', ( #259 ) ) ;
#224 = PERSON_AND_ORGANIZATION ( #211, #141 ) ;
#225 = CARTESIAN_POINT ( 'NONE',  ( 3.491481338843133355E-14, 1.419999999999998597, 10.00000000000000000 ) ) ;
#226 = ORIENTED_EDGE ( 'NONE', *, *, #100, .T. ) ;
#227 = DATE_AND_TIME ( #69, #233 ) ;
#228 = DIRECTION ( 'NONE',  ( 4.275831445896960358E-31, 1.000000000000000000, 1.224646799147353454E-16 ) ) ;
#229 = CYLINDRICAL_SURFACE ( 'NONE', #94, 1.419999999999999263 ) ;
#230 = ORIENTED_EDGE ( 'NONE', *, *, #114, .T. ) ;
#231 = EDGE_CURVE ( 'NONE', #97, #97, #17, .T. ) ;
#232 = EDGE_LOOP ( 'NONE', ( #221 ) ) ;
#233 = LOCAL_TIME ( 8, 16, 32.00000000000000000, #279 ) ;
#234 = AXIS2_PLACEMENT_3D ( 'NONE', #32, #104, #292 ) ;
#235 = CC_DESIGN_APPROVAL ( #188, ( #77 ) ) ;
#236 = DIRECTION ( 'NONE',  ( -4.275831445896959482E-31, -1.000000000000000000, -1.224646799147353454E-16 ) ) ;
#237 = CARTESIAN_POINT ( 'NONE',  ( 3.491481338843133355E-14, -1.224646799147353454E-15, 10.00000000000000000 ) ) ;
#238 = DIRECTION ( 'NONE',  ( -3.491481338843133355E-15, 1.224646799147353454E-16, -1.000000000000000000 ) ) ;
#239 = AXIS2_PLACEMENT_3D ( 'NONE', #153, #290, #40 ) ;
#240 = DIRECTION ( 'NONE',  ( 0.0000000000000000000, 1.000000000000000000, 0.0000000000000000000 ) ) ;
#241 = CONICAL_SURFACE ( 'NONE', #170, 1.419999999999998597, 0.7853981633974432830 ) ;
#242 = CARTESIAN_POINT ( 'NONE',  ( 3.612429800294234159E-14, 1.219999999999996865, 10.34641016151378423 ) ) ;
#243 = ADVANCED_BREP_SHAPE_REPRESENTATION ( '327107', ( #59, #147, #283 ), #56 ) ;
#244 = EDGE_LOOP ( 'NONE', ( #301 ) ) ;
#245 = CALENDAR_DATE ( 2021, 2, 12 ) ;
#246 = DESIGN_CONTEXT ( 'detailed design', #124, 'design' ) ;
#247 = CARTESIAN_POINT ( 'NONE',  ( 9.344229244254496746E-14, 1.499999999999992673, 26.76293623654483511 ) ) ;
#248 = APPROVAL ( #167, 'UNSPECIFIED' ) ;
#249 = ORIENTED_EDGE ( 'NONE', *, *, #80, .F. ) ;
#250 = DATE_TIME_ROLE ( 'classification_date' ) ;
#251 = VERTEX_POINT ( 'NONE', #247 ) ;
#252 = AXIS2_PLACEMENT_3D ( 'NONE', #129, #107, #134 ) ;
#253 = EDGE_LOOP ( 'NONE', ( #204 ) ) ;
#254 = APPROVAL_ROLE ( '' ) ;
#255 = CARTESIAN_POINT ( 'NONE',  ( 8.728703347107833388E-16, 1.419999999999998597, 0.2500000000000000000 ) ) ;
#256 = CYLINDRICAL_SURFACE ( 'NONE', #284, 1.499999999999999334 ) ;
#257 = CARTESIAN_POINT ( 'NONE',  ( 3.491481338843133355E-14, -1.224646799147353454E-15, 10.00000000000000000 ) ) ;
#258 = CARTESIAN_POINT ( 'NONE',  ( 9.344229244254496746E-14, -3.277514419786935253E-15, 26.76293623654483511 ) ) ;
#259 = ORIENTED_EDGE ( 'NONE', *, *, #231, .F. ) ;
#260 = DATE_AND_TIME ( #78, #125 ) ;
#261 = APPROVAL_PERSON_ORGANIZATION ( #263, #248, #119 ) ;
#262 = AXIS2_PLACEMENT_3D ( 'NONE', #257, #57, #142 ) ;
#263 = PERSON_AND_ORGANIZATION ( #211, #141 ) ;
#264 = EDGE_CURVE ( 'NONE', #91, #91, #196, .T. ) ;
#265 = APPLICATION_CONTEXT ( 'configuration controlled 3d designs of mechanical parts and assemblies' ) ;
#266 = DIRECTION ( 'NONE',  ( 0.0000000000000000000, 1.000000000000000000, 0.0000000000000000000 ) ) ;
#267 = FACE_OUTER_BOUND ( 'NONE', #22, .T. ) ;
#268 = DIRECTION ( 'NONE',  ( -3.491481338843133355E-15, 1.224646799147353454E-16, -1.000000000000000000 ) ) ;
#269 = DIRECTION ( 'NONE',  ( -3.491481338843133355E-15, 1.224646799147353454E-16, -1.000000000000000000 ) ) ;
#270 = APPLICATION_PROTOCOL_DEFINITION ( 'international standard', 'config_control_design', 1994, #124 ) ;
#271 = PRODUCT_DEFINITION_FORMATION_WITH_SPECIFIED_SOURCE ( 'ANY', '', #185, .NOT_KNOWN. ) ;
#272 = ORIENTED_EDGE ( 'NONE', *, *, #80, .T. ) ;
#273 = EDGE_CURVE ( 'NONE', #93, #93, #190, .T. ) ;
#274 = DIRECTION ( 'NONE',  ( 0.0000000000000000000, 0.0000000000000000000, 1.000000000000000000 ) ) ;
#275 = ADVANCED_FACE ( 'NONE', ( #86 ), #212, .F. ) ;
#276 = AXIS2_PLACEMENT_3D ( 'NONE', #258, #182, #54 ) ;
#277 = EDGE_CURVE ( 'NONE', #302, #302, #71, .T. ) ;
#278 = DIRECTION ( 'NONE',  ( 0.0000000000000000000, 1.000000000000000000, 0.0000000000000000000 ) ) ;
#279 = COORDINATED_UNIVERSAL_TIME_OFFSET ( 1, 0, .AHEAD. ) ;
#280 = VERTEX_POINT ( 'NONE', #24 ) ;
#281 = EDGE_LOOP ( 'NONE', ( #207 ) ) ;
#282 = DIRECTION ( 'NONE',  ( -3.491481338843133355E-15, 1.224646799147353454E-16, -1.000000000000000000 ) ) ;
#283 = AXIS2_PLACEMENT_3D ( 'NONE', #155, #274, #160 ) ;
#284 = AXIS2_PLACEMENT_3D ( 'NONE', #95, #183, #228 ) ;
#285 = ORIENTED_EDGE ( 'NONE', *, *, #114, .F. ) ;
#286 = EDGE_LOOP ( 'NONE', ( #226 ) ) ;
#287 = PERSON_AND_ORGANIZATION_ROLE ( 'creator' ) ;
#288 = AXIS2_PLACEMENT_3D ( 'NONE', #148, #38, #127 ) ;
#289 = EDGE_CURVE ( 'NONE', #44, #44, #166, .T. ) ;
#290 = DIRECTION ( 'NONE',  ( -3.491481338843133355E-15, 1.224646799147353454E-16, -1.000000000000000000 ) ) ;
#291 = AXIS2_PLACEMENT_3D ( 'NONE', #237, #66, #42 ) ;
#292 = DIRECTION ( 'NONE',  ( 0.0000000000000000000, 1.000000000000000000, 0.0000000000000000000 ) ) ;
#293 = AXIS2_PLACEMENT_3D ( 'NONE', #65, #238, #171 ) ;
#294 = DIRECTION ( 'NONE',  ( 0.0000000000000000000, 1.000000000000000000, 0.0000000000000000000 ) ) ;
#295 = ORIENTED_EDGE ( 'NONE', *, *, #273, .F. ) ;
#296 = DIRECTION ( 'NONE',  ( 3.491481338843133355E-15, -1.224646799147353454E-16, 1.000000000000000000 ) ) ;
#297 = CARTESIAN_POINT ( 'NONE',  ( 8.728703347107827472E-16, -3.061616997868381785E-17, 0.2499999999999998335 ) ) ;
#298 = LOCAL_TIME ( 8, 16, 32.00000000000000000, #106 ) ;
#299 = PERSON_AND_ORGANIZATION ( #211, #141 ) ;
#300 = DIRECTION ( 'NONE',  ( 4.275831445896959482E-31, 1.000000000000000000, 1.224646799147353454E-16 ) ) ;
#301 = ORIENTED_EDGE ( 'NONE', *, *, #110, .F. ) ;
#302 = VERTEX_POINT ( 'NONE', #51 ) ;
#303 = ADVANCED_FACE ( 'NONE', ( #191, #198 ), #229, .T. ) ;
ENDSEC;
END-ISO-10303-21;
