ISO-10303-21;
HEADER;
FILE_DESCRIPTION (( 'STEP AP203' ),
    '1' );
FILE_NAME ('327106.step',
    '2021-12-02T07:16:31',
    ( '' ),
    ( '' ),
    'SwSTEP 2.0',
    'SolidWorks 2019',
    '' );
FILE_SCHEMA (( 'CONFIG_CONTROL_DESIGN' ));
ENDSEC;

DATA;
#1 = CARTESIAN_POINT ( 'NONE',  ( 0.0000000000000000000, 0.0000000000000000000, 0.0000000000000000000 ) ) ;
#2 = APPROVAL_DATE_TIME ( #124, #56 ) ;
#3 = FACE_OUTER_BOUND ( 'NONE', #132, .T. ) ;
#4 = ADVANCED_FACE ( 'NONE', ( #107 ), #196, .T. ) ;
#5 = CONICAL_SURFACE ( 'NONE', #42, 1.200000000000002842, 0.7853981633974453924 ) ;
#6 = PERSON_AND_ORGANIZATION ( #293, #83 ) ;
#7 = ORIENTED_EDGE ( 'NONE', *, *, #106, .F. ) ;
#8 = DIRECTION ( 'NONE',  ( -3.491481338843133355E-15, 1.224646799147353454E-16, -1.000000000000000000 ) ) ;
#9 = APPROVAL_STATUS ( 'not_yet_approved' ) ;
#10 = EDGE_LOOP ( 'NONE', ( #36 ) ) ;
#11 = APPROVAL_STATUS ( 'not_yet_approved' ) ;
#12 = ORIENTED_EDGE ( 'NONE', *, *, #270, .T. ) ;
#13 = VERTEX_POINT ( 'NONE', #204 ) ;
#14 = DIRECTION ( 'NONE',  ( -3.491481338843133355E-15, 1.224646799147353454E-16, -1.000000000000000000 ) ) ;
#15 = DIRECTION ( 'NONE',  ( 0.0000000000000000000, 1.000000000000000000, 0.0000000000000000000 ) ) ;
#16 = AXIS2_PLACEMENT_3D ( 'NONE', #151, #14, #40 ) ;
#17 = EDGE_CURVE ( 'NONE', #86, #86, #206, .T. ) ;
#18 = LOCAL_TIME ( 8, 16, 31.00000000000000000, #286 ) ;
#19 = FACE_BOUND ( 'NONE', #284, .T. ) ;
#20 = ADVANCED_FACE ( 'NONE', ( #152, #226 ), #267, .T. ) ;
#21 = DIRECTION ( 'NONE',  ( 0.0000000000000000000, 1.000000000000000000, 0.0000000000000000000 ) ) ;
#22 = DIRECTION ( 'NONE',  ( 0.0000000000000000000, 1.000000000000000000, 0.0000000000000000000 ) ) ;
#23 = CONICAL_SURFACE ( 'NONE', #243, 1.214999999999998526, 0.5235987755982924874 ) ;
#24 = DATE_AND_TIME ( #74, #274 ) ;
#25 = CARTESIAN_POINT ( 'NONE',  ( 2.129803616694311221E-13, 8.998558695971062171E-33, 61.00000000000000000 ) ) ;
#26 = COORDINATED_UNIVERSAL_TIME_OFFSET ( 1, 0, .AHEAD. ) ;
#27 = ADVANCED_FACE ( 'NONE', ( #19, #251 ), #246, .T. ) ;
#28 = DIRECTION ( 'NONE',  ( -3.491481338843133355E-15, 1.224646799147353454E-16, -1.000000000000000000 ) ) ;
#29 = PERSON_AND_ORGANIZATION ( #293, #83 ) ;
#30 = APPLICATION_CONTEXT ( 'configuration controlled 3d designs of mechanical parts and assemblies' ) ;
#31 = AXIS2_PLACEMENT_3D ( 'NONE', #283, #143, #34 ) ;
#32 = PERSON_AND_ORGANIZATION ( #293, #83 ) ;
#33 = EDGE_LOOP ( 'NONE', ( #258 ) ) ;
#34 = DIRECTION ( 'NONE',  ( 1.000000000000000000, 0.0000000000000000000, 0.0000000000000000000 ) ) ;
#35 = EDGE_LOOP ( 'NONE', ( #57 ) ) ;
#36 = ORIENTED_EDGE ( 'NONE', *, *, #205, .F. ) ;
#37 = AXIS2_PLACEMENT_3D ( 'NONE', #165, #28, #22 ) ;
#38 = FACE_BOUND ( 'NONE', #245, .T. ) ;
#39 = VERTEX_POINT ( 'NONE', #228 ) ;
#40 = DIRECTION ( 'NONE',  ( 4.275831445896960358E-31, 1.000000000000000000, 1.224646799147353454E-16 ) ) ;
#41 = CIRCLE ( 'NONE', #162, 1.415000000000000036 ) ;
#42 = AXIS2_PLACEMENT_3D ( 'NONE', #44, #192, #140 ) ;
#43 = DIRECTION ( 'NONE',  ( 4.275831445896960358E-31, 1.000000000000000000, 1.224646799147353700E-16 ) ) ;
#44 = CARTESIAN_POINT ( 'NONE',  ( 2.129803616694311221E-13, -7.470345474798856659E-15, 61.00000000000000000 ) ) ;
#45 = PERSON_AND_ORGANIZATION_ROLE ( 'creator' ) ;
#46 = DIRECTION ( 'NONE',  ( 0.0000000000000000000, 1.000000000000000000, 0.0000000000000000000 ) ) ;
#47 = CIRCLE ( 'NONE', #37, 1.215000000000000302 ) ;
#48 = APPROVAL_ROLE ( '' ) ;
#49 = CARTESIAN_POINT ( 'NONE',  ( 9.354129831574756441E-14, -3.280987078350664436E-15, 26.79129264564292967 ) ) ;
#50 = APPLICATION_PROTOCOL_DEFINITION ( 'international standard', 'config_control_design', 1994, #30 ) ;
#51 = CARTESIAN_POINT ( 'NONE',  ( 8.728703347107833388E-14, 1.214999999999997415, 25.00000000000000000 ) ) ;
#52 = ORIENTED_EDGE ( 'NONE', *, *, #205, .T. ) ;
#53 = AXIS2_PLACEMENT_3D ( 'NONE', #160, #120, #70 ) ;
#54 = COORDINATED_UNIVERSAL_TIME_OFFSET ( 1, 0, .AHEAD. ) ;
#55 = ORIENTED_EDGE ( 'NONE', *, *, #156, .F. ) ;
#56 = APPROVAL ( #11, 'UNSPECIFIED' ) ;
#57 = ORIENTED_EDGE ( 'NONE', *, *, #189, .T. ) ;
#58 = ORIENTED_EDGE ( 'NONE', *, *, #270, .F. ) ;
#59 = AXIS2_PLACEMENT_3D ( 'NONE', #103, #163, #302 ) ;
#60 = EDGE_CURVE ( 'NONE', #13, #13, #175, .T. ) ;
#61 = CC_DESIGN_SECURITY_CLASSIFICATION ( #114, ( #66 ) ) ;
#62 = CARTESIAN_POINT ( 'NONE',  ( 3.612429800294234159E-14, 1.214999999999997193, 10.34641016151378423 ) ) ;
#63 = ORIENTED_EDGE ( 'NONE', *, *, #17, .T. ) ;
#64 = DIRECTION ( 'NONE',  ( 0.0000000000000000000, 1.000000000000000000, 0.0000000000000000000 ) ) ;
#65 = CC_DESIGN_DATE_AND_TIME_ASSIGNMENT ( #24, #131, ( #114 ) ) ;
#66 = PRODUCT_DEFINITION_FORMATION_WITH_SPECIFIED_SOURCE ( 'ANY', '', #233, .NOT_KNOWN. ) ;
#67 = PRODUCT_DEFINITION ( 'UNKNOWN', '', #66, #255 ) ;
#68 = CC_DESIGN_APPROVAL ( #277, ( #66 ) ) ;
#69 = DIRECTION ( 'NONE',  ( 0.0000000000000000000, 1.000000000000000000, 0.0000000000000000000 ) ) ;
#70 = DIRECTION ( 'NONE',  ( 0.0000000000000000000, 1.000000000000000000, 0.0000000000000000000 ) ) ;
#71 = CALENDAR_DATE ( 2021, 2, 12 ) ;
#72 = FACE_OUTER_BOUND ( 'NONE', #84, .T. ) ;
#73 = UNCERTAINTY_MEASURE_WITH_UNIT (LENGTH_MEASURE( 1.000000000000000082E-05 ), #300, 'distance_accuracy_value', 'NONE');
#74 = CALENDAR_DATE ( 2021, 2, 12 ) ;
#75 = DIRECTION ( 'NONE',  ( -3.491481338843133355E-15, 1.224646799147353454E-16, -1.000000000000000000 ) ) ;
#76 = CARTESIAN_POINT ( 'NONE',  ( 3.491481338843133355E-14, 1.061080046233262698E-32, 10.00000000000000000 ) ) ;
#77 = DATE_AND_TIME ( #214, #18 ) ;
#78 = ORIENTED_EDGE ( 'NONE', *, *, #60, .T. ) ;
#79 = FACE_OUTER_BOUND ( 'NONE', #129, .T. ) ;
#80 = PERSON_AND_ORGANIZATION_ROLE ( 'design_supplier' ) ;
#81 = CC_DESIGN_PERSON_AND_ORGANIZATION_ASSIGNMENT ( #32, #212, ( #233 ) ) ;
#82 = EDGE_LOOP ( 'NONE', ( #87 ) ) ;
#83 = ORGANIZATION ( 'UNSPECIFIED', 'UNSPECIFIED', '' ) ;
#84 = EDGE_LOOP ( 'NONE', ( #63 ) ) ;
#85 = ORIENTED_EDGE ( 'NONE', *, *, #170, .F. ) ;
#86 = VERTEX_POINT ( 'NONE', #110 ) ;
#87 = ORIENTED_EDGE ( 'NONE', *, *, #164, .F. ) ;
#88 = CIRCLE ( 'NONE', #229, 1.245384493975580043 ) ;
#89 = CARTESIAN_POINT ( 'NONE',  ( 9.354129831574756441E-14, 1.499999999999992673, 26.79129264564292967 ) ) ;
#90 = VERTEX_POINT ( 'NONE', #179 ) ;
#91 = DIRECTION ( 'NONE',  ( 4.083243698347500123E-31, 1.000000000000000000, 1.149330924896295470E-16 ) ) ;
#92 = EDGE_CURVE ( 'NONE', #231, #231, #118, .T. ) ;
#93 = CIRCLE ( 'NONE', #150, 1.499999999999996003 ) ;
#94 =( NAMED_UNIT ( * ) SI_UNIT ( $, .STERADIAN. ) SOLID_ANGLE_UNIT ( ) );
#95 = AXIS2_PLACEMENT_3D ( 'NONE', #288, #133, #248 ) ;
#96 = PLANE ( 'NONE',  #281 ) ;
#97 = APPROVAL_PERSON_ORGANIZATION ( #6, #155, #128 ) ;
#98 = FACE_OUTER_BOUND ( 'NONE', #198, .T. ) ;
#99 = DIRECTION ( 'NONE',  ( 4.275831445896960358E-31, 1.000000000000000000, 1.224646799147353454E-16 ) ) ;
#100 = APPROVAL_DATE_TIME ( #216, #155 ) ;
#101 = FACE_OUTER_BOUND ( 'NONE', #169, .T. ) ;
#102 = SECURITY_CLASSIFICATION_LEVEL ( 'unclassified' ) ;
#103 = CARTESIAN_POINT ( 'NONE',  ( 3.187535661914501946E-31, -1.118037006843936017E-32, 9.129464982249223373E-17 ) ) ;
#104 = EDGE_LOOP ( 'NONE', ( #7 ) ) ;
#105 = CARTESIAN_POINT ( 'NONE',  ( 3.612429800294234159E-14, -1.267069808696350687E-15, 10.34641016151378423 ) ) ;
#106 = EDGE_CURVE ( 'NONE', #294, #294, #41, .T. ) ;
#107 = FACE_OUTER_BOUND ( 'NONE', #104, .T. ) ;
#108 = AXIS2_PLACEMENT_3D ( 'NONE', #25, #158, #280 ) ;
#109 = ORIENTED_EDGE ( 'NONE', *, *, #156, .T. ) ;
#110 = CARTESIAN_POINT ( 'NONE',  ( 2.119329172677781757E-13, 1.499999999999995559, 60.69999999999999574 ) ) ;
#111 = CARTESIAN_POINT ( 'NONE',  ( 3.491481338843133355E-14, 1.414999999999998703, 10.00000000000000000 ) ) ;
#112 = CARTESIAN_POINT ( 'NONE',  ( 0.0000000000000000000, 0.0000000000000000000, 0.0000000000000000000 ) ) ;
#113 = ADVANCED_FACE ( 'NONE', ( #211 ), #213, .F. ) ;
#114 = SECURITY_CLASSIFICATION ( '', '', #102 ) ;
#115 = FACE_OUTER_BOUND ( 'NONE', #174, .T. ) ;
#116 = CC_DESIGN_PERSON_AND_ORGANIZATION_ASSIGNMENT ( #219, #161, ( #67 ) ) ;
#117 = DIRECTION ( 'NONE',  ( -3.491481338843133355E-15, 1.224646799147353454E-16, -1.000000000000000000 ) ) ;
#118 = CIRCLE ( 'NONE', #126, 1.214999999999998526 ) ;
#119 = CYLINDRICAL_SURFACE ( 'NONE', #134, 1.214999999999999414 ) ;
#120 = DIRECTION ( 'NONE',  ( -3.491481338843133355E-15, 1.224646799147353454E-16, -1.000000000000000000 ) ) ;
#121 = CLOSED_SHELL ( 'NONE', ( #113, #296, #20, #4 ) ) ;
#122 = DIRECTION ( 'NONE',  ( 0.0000000000000000000, 1.000000000000000000, 0.0000000000000000000 ) ) ;
#123 = CARTESIAN_POINT ( 'NONE',  ( 3.612429800294234159E-14, -1.267069808696350687E-15, 10.34641016151378423 ) ) ;
#124 = DATE_AND_TIME ( #238, #225 ) ;
#125 = CARTESIAN_POINT ( 'NONE',  ( 0.0000000000000000000, 0.0000000000000000000, 0.0000000000000000000 ) ) ;
#126 = AXIS2_PLACEMENT_3D ( 'NONE', #123, #273, #46 ) ;
#127 = FACE_BOUND ( 'NONE', #33, .T. ) ;
#128 = APPROVAL_ROLE ( '' ) ;
#129 = EDGE_LOOP ( 'NONE', ( #85 ) ) ;
#130 = CC_DESIGN_PERSON_AND_ORGANIZATION_ASSIGNMENT ( #260, #256, ( #114 ) ) ;
#131 = DATE_TIME_ROLE ( 'classification_date' ) ;
#132 = EDGE_LOOP ( 'NONE', ( #149 ) ) ;
#133 = DIRECTION ( 'NONE',  ( 3.491481338843133355E-15, -1.224646799147353454E-16, 1.000000000000000000 ) ) ;
#134 = AXIS2_PLACEMENT_3D ( 'NONE', #1, #75, #43 ) ;
#135 = DIRECTION ( 'NONE',  ( -4.083243698347500123E-31, -1.000000000000000000, -1.149330924896295470E-16 ) ) ;
#136 = ADVANCED_FACE ( 'NONE', ( #98 ), #96, .F. ) ;
#137 = AXIS2_PLACEMENT_3D ( 'NONE', #125, #157, #99 ) ;
#138 = CARTESIAN_POINT ( 'NONE',  ( 8.728703347107827472E-16, -3.061616997868381785E-17, 0.2499999999999998335 ) ) ;
#139 = DIRECTION ( 'NONE',  ( -3.491481338843133355E-15, 1.224646799147353454E-16, -1.000000000000000000 ) ) ;
#140 = DIRECTION ( 'NONE',  ( 0.0000000000000000000, 1.000000000000000000, 0.0000000000000000000 ) ) ;
#141 = MECHANICAL_CONTEXT ( 'NONE', #263, 'mechanical' ) ;
#142 = CARTESIAN_POINT ( 'NONE',  ( 3.491481338843133355E-14, -1.224646799147353454E-15, 10.00000000000000000 ) ) ;
#143 = DIRECTION ( 'NONE',  ( 0.0000000000000000000, 0.0000000000000000000, 1.000000000000000000 ) ) ;
#144 = FACE_OUTER_BOUND ( 'NONE', #172, .T. ) ;
#145 = PERSON_AND_ORGANIZATION ( #293, #83 ) ;
#146 = ADVANCED_FACE ( 'NONE', ( #207, #144 ), #119, .T. ) ;
#147 = COORDINATED_UNIVERSAL_TIME_OFFSET ( 1, 0, .AHEAD. ) ;
#148 = EDGE_LOOP ( 'NONE', ( #78 ) ) ;
#149 = ORIENTED_EDGE ( 'NONE', *, *, #17, .F. ) ;
#150 = AXIS2_PLACEMENT_3D ( 'NONE', #49, #297, #69 ) ;
#151 = CARTESIAN_POINT ( 'NONE',  ( 8.728703347107833388E-14, -3.035766082959412415E-15, 25.00000000000000000 ) ) ;
#152 = FACE_OUTER_BOUND ( 'NONE', #10, .T. ) ;
#153 = FACE_OUTER_BOUND ( 'NONE', #264, .T. ) ;
#154 = CIRCLE ( 'NONE', #53, 1.200000000000002842 ) ;
#155 = APPROVAL ( #279, 'UNSPECIFIED' ) ;
#156 = EDGE_CURVE ( 'NONE', #180, #180, #93, .T. ) ;
#157 = DIRECTION ( 'NONE',  ( -3.491481338843133355E-15, 1.224646799147353454E-16, -1.000000000000000000 ) ) ;
#158 = DIRECTION ( 'NONE',  ( -3.491481338843133355E-15, 1.224646799147353454E-16, -1.000000000000000000 ) ) ;
#159 = DATE_AND_TIME ( #71, #197 ) ;
#160 = CARTESIAN_POINT ( 'NONE',  ( 2.129803616694311221E-13, -7.470345474798856659E-15, 61.00000000000000000 ) ) ;
#161 = PERSON_AND_ORGANIZATION_ROLE ( 'creator' ) ;
#162 = AXIS2_PLACEMENT_3D ( 'NONE', #142, #278, #122 ) ;
#163 = DIRECTION ( 'NONE',  ( 3.491481338843133355E-15, -1.224646799147353454E-16, 1.000000000000000000 ) ) ;
#164 = EDGE_CURVE ( 'NONE', #177, #177, #191, .T. ) ;
#165 = CARTESIAN_POINT ( 'NONE',  ( 8.728703347107833388E-14, -3.061616997868383831E-15, 25.00000000000000000 ) ) ;
#166 = ORIENTED_EDGE ( 'NONE', *, *, #164, .T. ) ;
#167 = DIRECTION ( 'NONE',  ( 0.0000000000000000000, 1.000000000000000000, 0.0000000000000000000 ) ) ;
#168 = APPROVAL_DATE_TIME ( #77, #277 ) ;
#169 = EDGE_LOOP ( 'NONE', ( #244 ) ) ;
#170 = EDGE_CURVE ( 'NONE', #173, #173, #47, .T. ) ;
#171 = AXIS2_PLACEMENT_3D ( 'NONE', #215, #139, #21 ) ;
#172 = EDGE_LOOP ( 'NONE', ( #218 ) ) ;
#173 = VERTEX_POINT ( 'NONE', #51 ) ;
#174 = EDGE_LOOP ( 'NONE', ( #12 ) ) ;
#175 = CIRCLE ( 'NONE', #261, 1.165000000000001590 ) ;
#176 = CC_DESIGN_APPROVAL ( #56, ( #114 ) ) ;
#177 = VERTEX_POINT ( 'NONE', #200 ) ;
#178 = DIRECTION ( 'NONE',  ( -3.491481338843133355E-15, 1.224646799147353454E-16, -1.000000000000000000 ) ) ;
#179 = CARTESIAN_POINT ( 'NONE',  ( 8.728703347107833388E-16, 1.414999999999998703, 0.2500000000000000000 ) ) ;
#180 = VERTEX_POINT ( 'NONE', #89 ) ;
#181 = ADVANCED_FACE ( 'NONE', ( #276, #72 ), #257, .T. ) ;
#182 = APPROVAL_PERSON_ORGANIZATION ( #221, #56, #48 ) ;
#183 = APPLICATION_PROTOCOL_DEFINITION ( 'international standard', 'config_control_design', 1994, #263 ) ;
#184 = DIRECTION ( 'NONE',  ( -4.275831445896959482E-31, -1.000000000000000000, -1.224646799147353454E-16 ) ) ;
#185 = DIRECTION ( 'NONE',  ( 0.0000000000000000000, -1.000000000000000000, 0.0000000000000000000 ) ) ;
#186 = DIRECTION ( 'NONE',  ( 3.491481338843133355E-15, -1.224646799147353454E-16, 1.000000000000000000 ) ) ;
#187 = COORDINATED_UNIVERSAL_TIME_OFFSET ( 1, 0, .AHEAD. ) ;
#188 = DIRECTION ( 'NONE',  ( 4.275831445896959482E-31, 1.000000000000000000, 1.224646799147353454E-16 ) ) ;
#189 = EDGE_CURVE ( 'NONE', #39, #39, #154, .T. ) ;
#190 = SHAPE_DEFINITION_REPRESENTATION ( #303, #199 ) ;
#191 = CIRCLE ( 'NONE', #171, 1.415000000000000036 ) ;
#192 = DIRECTION ( 'NONE',  ( -3.491481338843133355E-15, 1.224646799147353454E-16, -1.000000000000000000 ) ) ;
#193 = PERSON_AND_ORGANIZATION ( #293, #83 ) ;
#194 = ORIENTED_EDGE ( 'NONE', *, *, #106, .T. ) ;
#195 = ADVANCED_FACE ( 'NONE', ( #101 ), #237, .F. ) ;
#196 = PLANE ( 'NONE',  #95 ) ;
#197 = LOCAL_TIME ( 8, 16, 31.00000000000000000, #187 ) ;
#198 = EDGE_LOOP ( 'NONE', ( #166 ) ) ;
#199 = ADVANCED_BREP_SHAPE_REPRESENTATION ( '327106', ( #272, #275, #31 ), #210 ) ;
#200 = CARTESIAN_POINT ( 'NONE',  ( 3.491481338843133355E-14, 1.414999999999998703, 10.00000000000000000 ) ) ;
#201 = ADVANCED_FACE ( 'NONE', ( #3, #252 ), #5, .T. ) ;
#202 = CARTESIAN_POINT ( 'NONE',  ( 2.119329172677781757E-13, -7.433606070824434221E-15, 60.69999999999999574 ) ) ;
#203 = CONICAL_SURFACE ( 'NONE', #292, 1.414999999999998703, 0.7853981633974432830 ) ;
#204 = CARTESIAN_POINT ( 'NONE',  ( 1.135641495829896858E-30, 1.165000000000001590, 3.252606517456513302E-16 ) ) ;
#205 = EDGE_CURVE ( 'NONE', #90, #90, #254, .T. ) ;
#206 = CIRCLE ( 'NONE', #287, 1.500000000000002887 ) ;
#207 = FACE_OUTER_BOUND ( 'NONE', #290, .T. ) ;
#208 = CARTESIAN_POINT ( 'NONE',  ( 6.375071323829003891E-31, -2.236074013687872033E-32, 1.825892996449844675E-16 ) ) ;
#209 = CLOSED_SHELL ( 'NONE', ( #136, #230, #146, #232, #27, #181, #201, #195 ) ) ;
#210 =( GEOMETRIC_REPRESENTATION_CONTEXT ( 3 ) GLOBAL_UNCERTAINTY_ASSIGNED_CONTEXT ( ( #73 ) ) GLOBAL_UNIT_ASSIGNED_CONTEXT ( ( #300, #235, #94 ) ) REPRESENTATION_CONTEXT ( 'NONE', 'WORKASPACE' ) );
#211 = FACE_OUTER_BOUND ( 'NONE', #148, .T. ) ;
#212 = PERSON_AND_ORGANIZATION_ROLE ( 'design_owner' ) ;
#213 = PLANE ( 'NONE',  #59 ) ;
#214 = CALENDAR_DATE ( 2021, 2, 12 ) ;
#215 = CARTESIAN_POINT ( 'NONE',  ( 3.491481338843133355E-14, -1.224646799147353454E-15, 10.00000000000000000 ) ) ;
#216 = DATE_AND_TIME ( #236, #249 ) ;
#217 = AXIS2_PLACEMENT_3D ( 'NONE', #138, #8, #91 ) ;
#218 = ORIENTED_EDGE ( 'NONE', *, *, #170, .T. ) ;
#219 = PERSON_AND_ORGANIZATION ( #293, #83 ) ;
#220 = ORIENTED_EDGE ( 'NONE', *, *, #60, .F. ) ;
#221 = PERSON_AND_ORGANIZATION ( #293, #83 ) ;
#222 = EDGE_LOOP ( 'NONE', ( #194 ) ) ;
#223 = ORIENTED_EDGE ( 'NONE', *, *, #92, .F. ) ;
#224 = APPROVAL_PERSON_ORGANIZATION ( #193, #277, #240 ) ;
#225 = LOCAL_TIME ( 8, 16, 31.00000000000000000, #26 ) ;
#226 = FACE_OUTER_BOUND ( 'NONE', #222, .T. ) ;
#227 = CC_DESIGN_PERSON_AND_ORGANIZATION_ASSIGNMENT ( #145, #45, ( #66 ) ) ;
#228 = CARTESIAN_POINT ( 'NONE',  ( 2.129803616694311221E-13, 1.199999999999995515, 61.00000000000000000 ) ) ;
#229 = AXIS2_PLACEMENT_3D ( 'NONE', #247, #117, #167 ) ;
#230 = ADVANCED_FACE ( 'NONE', ( #241, #127 ), #23, .T. ) ;
#231 = VERTEX_POINT ( 'NONE', #62 ) ;
#232 = ADVANCED_FACE ( 'NONE', ( #79, #115 ), #269, .F. ) ;
#233 = PRODUCT ( '327106', '327106', '', ( #141 ) ) ;
#234 = DIRECTION ( 'NONE',  ( -3.491481338843133355E-15, 1.224646799147353454E-16, -1.000000000000000000 ) ) ;
#235 =( NAMED_UNIT ( * ) PLANE_ANGLE_UNIT ( ) SI_UNIT ( $, .RADIAN. ) );
#236 = CALENDAR_DATE ( 2021, 2, 12 ) ;
#237 = PLANE ( 'NONE',  #108 ) ;
#238 = CALENDAR_DATE ( 2021, 2, 12 ) ;
#239 = CC_DESIGN_DATE_AND_TIME_ASSIGNMENT ( #159, #242, ( #67 ) ) ;
#240 = APPROVAL_ROLE ( '' ) ;
#241 = FACE_OUTER_BOUND ( 'NONE', #82, .T. ) ;
#242 = DATE_TIME_ROLE ( 'creation_date' ) ;
#243 = AXIS2_PLACEMENT_3D ( 'NONE', #105, #285, #64 ) ;
#244 = ORIENTED_EDGE ( 'NONE', *, *, #189, .F. ) ;
#245 = EDGE_LOOP ( 'NONE', ( #220 ) ) ;
#246 = CONICAL_SURFACE ( 'NONE', #299, 1.499999999999996003, 0.1745329251994272024 ) ;
#247 = CARTESIAN_POINT ( 'NONE',  ( 8.849961221477469775E-14, -3.104148534859897544E-15, 25.34729635533384595 ) ) ;
#248 = DIRECTION ( 'NONE',  ( -4.275831445896959482E-31, -1.000000000000000000, -1.224646799147353454E-16 ) ) ;
#249 = LOCAL_TIME ( 8, 16, 31.00000000000000000, #147 ) ;
#250 = PRODUCT_RELATED_PRODUCT_CATEGORY ( 'detail', '', ( #233 ) ) ;
#251 = FACE_OUTER_BOUND ( 'NONE', #262, .T. ) ;
#252 = FACE_BOUND ( 'NONE', #35, .T. ) ;
#253 = DIRECTION ( 'NONE',  ( 3.491481338843133355E-15, -1.224646799147353454E-16, 1.000000000000000000 ) ) ;
#254 = CIRCLE ( 'NONE', #217, 1.414999999999998703 ) ;
#255 = DESIGN_CONTEXT ( 'detailed design', #30, 'design' ) ;
#256 = PERSON_AND_ORGANIZATION_ROLE ( 'classification_officer' ) ;
#257 = CYLINDRICAL_SURFACE ( 'NONE', #137, 1.499999999999999334 ) ;
#258 = ORIENTED_EDGE ( 'NONE', *, *, #92, .T. ) ;
#259 = CARTESIAN_POINT ( 'NONE',  ( 8.728703347107827472E-16, -3.061616997868381785E-17, 0.2499999999999998335 ) ) ;
#260 = PERSON_AND_ORGANIZATION ( #293, #83 ) ;
#261 = AXIS2_PLACEMENT_3D ( 'NONE', #208, #234, #298 ) ;
#262 = EDGE_LOOP ( 'NONE', ( #109 ) ) ;
#263 = APPLICATION_CONTEXT ( 'configuration controlled 3d designs of mechanical parts and assemblies' ) ;
#264 = EDGE_LOOP ( 'NONE', ( #52 ) ) ;
#265 = EDGE_LOOP ( 'NONE', ( #55 ) ) ;
#266 = AXIS2_PLACEMENT_3D ( 'NONE', #112, #178, #188 ) ;
#267 = CYLINDRICAL_SURFACE ( 'NONE', #266, 1.414999999999999369 ) ;
#268 = VERTEX_POINT ( 'NONE', #271 ) ;
#269 = TOROIDAL_SURFACE ( 'NONE', #16, 3.215000000000000302, 2.000000000000000888 ) ;
#270 = EDGE_CURVE ( 'NONE', #268, #268, #88, .T. ) ;
#271 = CARTESIAN_POINT ( 'NONE',  ( 8.849961221477469775E-14, 1.245384493975576934, 25.34729635533384595 ) ) ;
#272 = MANIFOLD_SOLID_BREP ( 'Corps-Déplacer/Copier1[1]', #209 ) ;
#273 = DIRECTION ( 'NONE',  ( -3.491481338843133355E-15, 1.224646799147353454E-16, -1.000000000000000000 ) ) ;
#274 = LOCAL_TIME ( 8, 16, 31.00000000000000000, #54 ) ;
#275 = MANIFOLD_SOLID_BREP ( 'Corps-Déplacer/Copier1[2]', #121 ) ;
#276 = FACE_OUTER_BOUND ( 'NONE', #265, .T. ) ;
#277 = APPROVAL ( #9, 'UNSPECIFIED' ) ;
#278 = DIRECTION ( 'NONE',  ( -3.491481338843133355E-15, 1.224646799147353454E-16, -1.000000000000000000 ) ) ;
#279 = APPROVAL_STATUS ( 'not_yet_approved' ) ;
#280 = DIRECTION ( 'NONE',  ( 4.275831445896959482E-31, 1.000000000000000000, 1.224646799147353454E-16 ) ) ;
#281 = AXIS2_PLACEMENT_3D ( 'NONE', #76, #253, #184 ) ;
#282 = CARTESIAN_POINT ( 'NONE',  ( 9.354129831574756441E-14, -3.280987078350664436E-15, 26.79129264564292967 ) ) ;
#283 = CARTESIAN_POINT ( 'NONE',  ( 0.0000000000000000000, 0.0000000000000000000, 0.0000000000000000000 ) ) ;
#284 = EDGE_LOOP ( 'NONE', ( #58 ) ) ;
#285 = DIRECTION ( 'NONE',  ( -3.491481338843133355E-15, 1.224646799147353454E-16, -1.000000000000000000 ) ) ;
#286 = COORDINATED_UNIVERSAL_TIME_OFFSET ( 1, 0, .AHEAD. ) ;
#287 = AXIS2_PLACEMENT_3D ( 'NONE', #202, #291, #15 ) ;
#288 = CARTESIAN_POINT ( 'NONE',  ( 3.491481338843133355E-14, 1.061080046233262698E-32, 10.00000000000000000 ) ) ;
#289 = DIRECTION ( 'NONE',  ( 3.491481338843133355E-15, -1.224646799147353454E-16, 1.000000000000000000 ) ) ;
#290 = EDGE_LOOP ( 'NONE', ( #223 ) ) ;
#291 = DIRECTION ( 'NONE',  ( -3.491481338843133355E-15, 1.224646799147353454E-16, -1.000000000000000000 ) ) ;
#292 = AXIS2_PLACEMENT_3D ( 'NONE', #259, #289, #135 ) ;
#293 = PERSON ( 'UNSPECIFIED', 'UNSPECIFIED', 'UNSPECIFIED', ('UNSPECIFIED'), ('UNSPECIFIED'), ('UNSPECIFIED') ) ;
#294 = VERTEX_POINT ( 'NONE', #111 ) ;
#295 = CC_DESIGN_APPROVAL ( #155, ( #67 ) ) ;
#296 = ADVANCED_FACE ( 'NONE', ( #38, #153 ), #203, .T. ) ;
#297 = DIRECTION ( 'NONE',  ( -3.491481338843133355E-15, 1.224646799147353454E-16, -1.000000000000000000 ) ) ;
#298 = DIRECTION ( 'NONE',  ( 4.275831445896959482E-31, 1.000000000000000000, 1.224646799147353454E-16 ) ) ;
#299 = AXIS2_PLACEMENT_3D ( 'NONE', #282, #186, #185 ) ;
#300 =( LENGTH_UNIT ( ) NAMED_UNIT ( * ) SI_UNIT ( .MILLI., .METRE. ) );
#301 = CC_DESIGN_PERSON_AND_ORGANIZATION_ASSIGNMENT ( #29, #80, ( #66 ) ) ;
#302 = DIRECTION ( 'NONE',  ( -4.275831445896959482E-31, -1.000000000000000000, -1.224646799147353454E-16 ) ) ;
#303 = PRODUCT_DEFINITION_SHAPE ( 'NONE', 'NONE',  #67 ) ;
ENDSEC;
END-ISO-10303-21;
