ISO-10303-21;
HEADER;
FILE_DESCRIPTION (( 'STEP AP203' ),
    '1' );
FILE_NAME ('327105.step',
    '2021-12-02T07:16:31',
    ( '' ),
    ( '' ),
    'SwSTEP 2.0',
    'SolidWorks 2019',
    '' );
FILE_SCHEMA (( 'CONFIG_CONTROL_DESIGN' ));
ENDSEC;

DATA;
#1 = FACE_OUTER_BOUND ( 'NONE', #136, .T. ) ;
#2 = DIRECTION ( 'NONE',  ( 4.275831445896959482E-31, 1.000000000000000000, 1.224646799147353700E-16 ) ) ;
#3 = CLOSED_SHELL ( 'NONE', ( #198, #291, #57, #262, #10, #114, #78, #4 ) ) ;
#4 = ADVANCED_FACE ( 'NONE', ( #206 ), #34, .F. ) ;
#5 = DIRECTION ( 'NONE',  ( 0.0000000000000000000, 1.000000000000000000, 0.0000000000000000000 ) ) ;
#6 = CARTESIAN_POINT ( 'NONE',  ( 2.129803616694311221E-13, 1.199999999999995515, 61.00000000000000000 ) ) ;
#7 = DIRECTION ( 'NONE',  ( -3.491481338843133355E-15, 1.224646799147353454E-16, -1.000000000000000000 ) ) ;
#8 = LOCAL_TIME ( 8, 16, 31.00000000000000000, #96 ) ;
#9 = DIRECTION ( 'NONE',  ( 3.491481338843133355E-15, -1.224646799147353454E-16, 1.000000000000000000 ) ) ;
#10 = ADVANCED_FACE ( 'NONE', ( #91, #58 ), #179, .T. ) ;
#11 = DIRECTION ( 'NONE',  ( 1.000000000000000000, 0.0000000000000000000, 0.0000000000000000000 ) ) ;
#12 = AXIS2_PLACEMENT_3D ( 'NONE', #256, #44, #139 ) ;
#13 = DIRECTION ( 'NONE',  ( 3.491481338843133355E-15, -1.224646799147353454E-16, 1.000000000000000000 ) ) ;
#14 = EDGE_LOOP ( 'NONE', ( #158 ) ) ;
#15 = EDGE_LOOP ( 'NONE', ( #250 ) ) ;
#16 = DIRECTION ( 'NONE',  ( -3.491481338843133355E-15, 1.224646799147353454E-16, -1.000000000000000000 ) ) ;
#17 = PERSON_AND_ORGANIZATION ( #18, #271 ) ;
#18 = PERSON ( 'UNSPECIFIED', 'UNSPECIFIED', 'UNSPECIFIED', ('UNSPECIFIED'), ('UNSPECIFIED'), ('UNSPECIFIED') ) ;
#19 = CARTESIAN_POINT ( 'NONE',  ( 3.491481338843133355E-14, -1.224646799147353454E-15, 10.00000000000000000 ) ) ;
#20 = DATE_TIME_ROLE ( 'classification_date' ) ;
#21 = EDGE_CURVE ( 'NONE', #264, #264, #159, .T. ) ;
#22 = FACE_OUTER_BOUND ( 'NONE', #134, .T. ) ;
#23 = AXIS2_PLACEMENT_3D ( 'NONE', #81, #285, #5 ) ;
#24 = APPROVAL_ROLE ( '' ) ;
#25 = DIRECTION ( 'NONE',  ( 3.491481338843133355E-15, -1.224646799147353454E-16, 1.000000000000000000 ) ) ;
#26 = APPROVAL_STATUS ( 'not_yet_approved' ) ;
#27 = VERTEX_POINT ( 'NONE', #80 ) ;
#28 = CIRCLE ( 'NONE', #184, 1.240384493975580149 ) ;
#29 = CARTESIAN_POINT ( 'NONE',  ( 9.364030418895016136E-14, 1.499999999999992673, 26.81964905474102068 ) ) ;
#30 = DIRECTION ( 'NONE',  ( -3.491481338843133355E-15, 1.224646799147353454E-16, -1.000000000000000000 ) ) ;
#31 = EDGE_CURVE ( 'NONE', #125, #125, #90, .T. ) ;
#32 = VERTEX_POINT ( 'NONE', #261 ) ;
#33 = EDGE_CURVE ( 'NONE', #287, #287, #154, .T. ) ;
#34 = PLANE ( 'NONE',  #50 ) ;
#35 = AXIS2_PLACEMENT_3D ( 'NONE', #19, #95, #236 ) ;
#36 = ORIENTED_EDGE ( 'NONE', *, *, #130, .F. ) ;
#37 = ORIENTED_EDGE ( 'NONE', *, *, #82, .T. ) ;
#38 = APPROVAL ( #26, 'UNSPECIFIED' ) ;
#39 = CONICAL_SURFACE ( 'NONE', #217, 1.409999999999998810, 0.7853981633974426169 ) ;
#40 = CC_DESIGN_DATE_AND_TIME_ASSIGNMENT ( #297, #20, ( #290 ) ) ;
#41 = EDGE_LOOP ( 'NONE', ( #294 ) ) ;
#42 = CARTESIAN_POINT ( 'NONE',  ( 9.364030418895016136E-14, -3.284459736914393619E-15, 26.81964905474102068 ) ) ;
#43 = APPROVAL_STATUS ( 'not_yet_approved' ) ;
#44 = DIRECTION ( 'NONE',  ( 3.491481338843133355E-15, -1.224646799147353454E-16, 1.000000000000000000 ) ) ;
#45 = CARTESIAN_POINT ( 'NONE',  ( 0.0000000000000000000, 0.0000000000000000000, 0.0000000000000000000 ) ) ;
#46 = CONICAL_SURFACE ( 'NONE', #128, 1.200000000000002842, 0.7853981633974453924 ) ;
#47 = DIRECTION ( 'NONE',  ( 0.0000000000000000000, 1.000000000000000000, 0.0000000000000000000 ) ) ;
#48 = COORDINATED_UNIVERSAL_TIME_OFFSET ( 1, 0, .AHEAD. ) ;
#49 = APPLICATION_CONTEXT ( 'configuration controlled 3d designs of mechanical parts and assemblies' ) ;
#50 = AXIS2_PLACEMENT_3D ( 'NONE', #228, #202, #273 ) ;
#51 = LOCAL_TIME ( 8, 16, 31.00000000000000000, #48 ) ;
#52 = CARTESIAN_POINT ( 'NONE',  ( 3.612429800294234159E-14, -1.267069808696350687E-15, 10.34641016151378423 ) ) ;
#53 = APPROVAL ( #43, 'UNSPECIFIED' ) ;
#54 = CARTESIAN_POINT ( 'NONE',  ( 3.612429800294234159E-14, 1.209999999999996856, 10.34641016151378423 ) ) ;
#55 =( NAMED_UNIT ( * ) PLANE_ANGLE_UNIT ( ) SI_UNIT ( $, .RADIAN. ) );
#56 = AXIS2_PLACEMENT_3D ( 'NONE', #117, #16, #279 ) ;
#57 = ADVANCED_FACE ( 'NONE', ( #215, #182 ), #259, .T. ) ;
#58 = FACE_OUTER_BOUND ( 'NONE', #200, .T. ) ;
#59 = ORIENTED_EDGE ( 'NONE', *, *, #302, .F. ) ;
#60 =( GEOMETRIC_REPRESENTATION_CONTEXT ( 3 ) GLOBAL_UNCERTAINTY_ASSIGNED_CONTEXT ( ( #124 ) ) GLOBAL_UNIT_ASSIGNED_CONTEXT ( ( #265, #55, #218 ) ) REPRESENTATION_CONTEXT ( 'NONE', 'WORKASPACE' ) );
#61 = EDGE_LOOP ( 'NONE', ( #63 ) ) ;
#62 = ADVANCED_FACE ( 'NONE', ( #22, #123 ), #187, .T. ) ;
#63 = ORIENTED_EDGE ( 'NONE', *, *, #164, .F. ) ;
#64 = AXIS2_PLACEMENT_3D ( 'NONE', #220, #7, #176 ) ;
#65 = CARTESIAN_POINT ( 'NONE',  ( 0.0000000000000000000, 0.0000000000000000000, 0.0000000000000000000 ) ) ;
#66 = PERSON_AND_ORGANIZATION ( #18, #271 ) ;
#67 = PLANE ( 'NONE',  #12 ) ;
#68 = SHAPE_DEFINITION_REPRESENTATION ( #197, #148 ) ;
#69 = DIRECTION ( 'NONE',  ( -3.491481338843133355E-15, 1.224646799147353454E-16, -1.000000000000000000 ) ) ;
#70 = DESIGN_CONTEXT ( 'detailed design', #49, 'design' ) ;
#71 = FACE_OUTER_BOUND ( 'NONE', #87, .T. ) ;
#72 = CC_DESIGN_SECURITY_CLASSIFICATION ( #290, ( #180 ) ) ;
#73 = PERSON_AND_ORGANIZATION ( #18, #271 ) ;
#74 = DIRECTION ( 'NONE',  ( -3.491481338843133355E-15, 1.224646799147353454E-16, -1.000000000000000000 ) ) ;
#75 = COORDINATED_UNIVERSAL_TIME_OFFSET ( 1, 0, .AHEAD. ) ;
#76 = CARTESIAN_POINT ( 'NONE',  ( 7.570943305532645426E-31, 1.160000000000001696, 2.168404344971008868E-16 ) ) ;
#77 = CARTESIAN_POINT ( 'NONE',  ( 8.728703347107827472E-16, -3.061616997868381785E-17, 0.2499999999999998335 ) ) ;
#78 = ADVANCED_FACE ( 'NONE', ( #141, #274 ), #46, .T. ) ;
#79 = CIRCLE ( 'NONE', #204, 1.409999999999999920 ) ;
#80 = CARTESIAN_POINT ( 'NONE',  ( 3.491481338843133355E-14, 1.409999999999998810, 10.00000000000000000 ) ) ;
#81 = CARTESIAN_POINT ( 'NONE',  ( 3.612429800294234159E-14, -1.267069808696350687E-15, 10.34641016151378423 ) ) ;
#82 = EDGE_CURVE ( 'NONE', #27, #27, #79, .T. ) ;
#83 = AXIS2_PLACEMENT_3D ( 'NONE', #106, #104, #284 ) ;
#84 = PRODUCT_RELATED_PRODUCT_CATEGORY ( 'detail', '', ( #201 ) ) ;
#85 = APPLICATION_PROTOCOL_DEFINITION ( 'international standard', 'config_control_design', 1994, #251 ) ;
#86 = ORIENTED_EDGE ( 'NONE', *, *, #92, .T. ) ;
#87 = EDGE_LOOP ( 'NONE', ( #252 ) ) ;
#88 = EDGE_LOOP ( 'NONE', ( #111 ) ) ;
#89 = ADVANCED_FACE ( 'NONE', ( #120 ), #210, .F. ) ;
#90 = CIRCLE ( 'NONE', #281, 1.409999999999998810 ) ;
#91 = FACE_BOUND ( 'NONE', #270, .T. ) ;
#92 = EDGE_CURVE ( 'NONE', #174, #174, #28, .T. ) ;
#93 = DIRECTION ( 'NONE',  ( 0.0000000000000000000, 1.000000000000000000, 0.0000000000000000000 ) ) ;
#94 = CALENDAR_DATE ( 2021, 2, 12 ) ;
#95 = DIRECTION ( 'NONE',  ( -3.491481338843133355E-15, 1.224646799147353454E-16, -1.000000000000000000 ) ) ;
#96 = COORDINATED_UNIVERSAL_TIME_OFFSET ( 1, 0, .AHEAD. ) ;
#97 = DIRECTION ( 'NONE',  ( 0.0000000000000000000, -1.000000000000000000, 0.0000000000000000000 ) ) ;
#98 = APPROVAL_ROLE ( '' ) ;
#99 = FACE_OUTER_BOUND ( 'NONE', #15, .T. ) ;
#100 = CC_DESIGN_DATE_AND_TIME_ASSIGNMENT ( #280, #138, ( #219 ) ) ;
#101 = DIRECTION ( 'NONE',  ( -3.491481338843133355E-15, 1.224646799147353454E-16, -1.000000000000000000 ) ) ;
#102 = CIRCLE ( 'NONE', #23, 1.209999999999998188 ) ;
#103 = CARTESIAN_POINT ( 'NONE',  ( 3.491481338843133355E-14, 1.409999999999998810, 10.00000000000000000 ) ) ;
#104 = DIRECTION ( 'NONE',  ( -3.491481338843133355E-15, 1.224646799147353454E-16, -1.000000000000000000 ) ) ;
#105 = AXIS2_PLACEMENT_3D ( 'NONE', #268, #223, #11 ) ;
#106 = CARTESIAN_POINT ( 'NONE',  ( 8.728703347107833388E-14, -3.035766082959412415E-15, 25.00000000000000000 ) ) ;
#107 = CARTESIAN_POINT ( 'NONE',  ( 2.119329172677781757E-13, 1.499999999999995559, 60.69999999999999574 ) ) ;
#108 = EDGE_LOOP ( 'NONE', ( #59 ) ) ;
#109 = AXIS2_PLACEMENT_3D ( 'NONE', #52, #30, #243 ) ;
#110 = EDGE_LOOP ( 'NONE', ( #181 ) ) ;
#111 = ORIENTED_EDGE ( 'NONE', *, *, #33, .T. ) ;
#112 = AXIS2_PLACEMENT_3D ( 'NONE', #225, #13, #97 ) ;
#113 = ORIENTED_EDGE ( 'NONE', *, *, #242, .T. ) ;
#114 = ADVANCED_FACE ( 'NONE', ( #1, #99 ), #276, .T. ) ;
#115 = PLANE ( 'NONE',  #231 ) ;
#116 = CALENDAR_DATE ( 2021, 2, 12 ) ;
#117 = CARTESIAN_POINT ( 'NONE',  ( 2.119329172677781757E-13, -7.433606070824434221E-15, 60.69999999999999574 ) ) ;
#118 = PERSON_AND_ORGANIZATION ( #18, #271 ) ;
#119 = AXIS2_PLACEMENT_3D ( 'NONE', #42, #145, #260 ) ;
#120 = FACE_OUTER_BOUND ( 'NONE', #131, .T. ) ;
#121 = CARTESIAN_POINT ( 'NONE',  ( 8.849961221477469775E-14, -3.104148534859897544E-15, 25.34729635533384595 ) ) ;
#122 = APPROVAL_DATE_TIME ( #275, #53 ) ;
#123 = FACE_OUTER_BOUND ( 'NONE', #232, .T. ) ;
#124 = UNCERTAINTY_MEASURE_WITH_UNIT (LENGTH_MEASURE( 1.000000000000000082E-05 ), #265, 'distance_accuracy_value', 'NONE');
#125 = VERTEX_POINT ( 'NONE', #193 ) ;
#126 = AXIS2_PLACEMENT_3D ( 'NONE', #239, #143, #207 ) ;
#127 = CC_DESIGN_PERSON_AND_ORGANIZATION_ASSIGNMENT ( #300, #188, ( #290 ) ) ;
#128 = AXIS2_PLACEMENT_3D ( 'NONE', #254, #69, #47 ) ;
#129 = FACE_OUTER_BOUND ( 'NONE', #226, .T. ) ;
#130 = EDGE_CURVE ( 'NONE', #288, #288, #147, .T. ) ;
#131 = EDGE_LOOP ( 'NONE', ( #113 ) ) ;
#132 = LOCAL_TIME ( 8, 16, 31.00000000000000000, #75 ) ;
#133 = ORIENTED_EDGE ( 'NONE', *, *, #31, .T. ) ;
#134 = EDGE_LOOP ( 'NONE', ( #253 ) ) ;
#135 = APPROVAL_PERSON_ORGANIZATION ( #17, #38, #98 ) ;
#136 = EDGE_LOOP ( 'NONE', ( #36 ) ) ;
#137 = DIRECTION ( 'NONE',  ( 3.491481338843133355E-15, -1.224646799147353454E-16, 1.000000000000000000 ) ) ;
#138 = DATE_TIME_ROLE ( 'creation_date' ) ;
#139 = DIRECTION ( 'NONE',  ( -4.275831445896959482E-31, -1.000000000000000000, -1.224646799147353454E-16 ) ) ;
#140 = APPROVAL_PERSON_ORGANIZATION ( #213, #53, #144 ) ;
#141 = FACE_OUTER_BOUND ( 'NONE', #61, .T. ) ;
#142 = DATE_AND_TIME ( #211, #293 ) ;
#143 = DIRECTION ( 'NONE',  ( -3.491481338843133355E-15, 1.224646799147353454E-16, -1.000000000000000000 ) ) ;
#144 = APPROVAL_ROLE ( '' ) ;
#145 = DIRECTION ( 'NONE',  ( -3.491481338843133355E-15, 1.224646799147353454E-16, -1.000000000000000000 ) ) ;
#146 = CARTESIAN_POINT ( 'NONE',  ( 8.728703347107833388E-14, -3.061616997868383831E-15, 25.00000000000000000 ) ) ;
#147 = CIRCLE ( 'NONE', #119, 1.499999999999996003 ) ;
#148 = ADVANCED_BREP_SHAPE_REPRESENTATION ( '327105', ( #171, #173, #105 ), #60 ) ;
#149 = VERTEX_POINT ( 'NONE', #54 ) ;
#150 = CC_DESIGN_PERSON_AND_ORGANIZATION_ASSIGNMENT ( #66, #167, ( #219 ) ) ;
#151 = AXIS2_PLACEMENT_3D ( 'NONE', #189, #301, #234 ) ;
#152 = ORIENTED_EDGE ( 'NONE', *, *, #21, .F. ) ;
#153 = EDGE_LOOP ( 'NONE', ( #152 ) ) ;
#154 = CIRCLE ( 'NONE', #126, 1.200000000000002842 ) ;
#155 = APPROVAL_PERSON_ORGANIZATION ( #118, #229, #24 ) ;
#156 = ORIENTED_EDGE ( 'NONE', *, *, #227, .T. ) ;
#157 = ORIENTED_EDGE ( 'NONE', *, *, #242, .F. ) ;
#158 = ORIENTED_EDGE ( 'NONE', *, *, #82, .F. ) ;
#159 = CIRCLE ( 'NONE', #35, 1.409999999999999920 ) ;
#160 = CARTESIAN_POINT ( 'NONE',  ( 1.305489414146082289E-31, -4.579040462191006187E-33, 3.739070289800383117E-17 ) ) ;
#161 = SECURITY_CLASSIFICATION_LEVEL ( 'unclassified' ) ;
#162 = DIRECTION ( 'NONE',  ( -4.275831445896959482E-31, -1.000000000000000000, -1.224646799147353454E-16 ) ) ;
#163 = APPLICATION_PROTOCOL_DEFINITION ( 'international standard', 'config_control_design', 1994, #49 ) ;
#164 = EDGE_CURVE ( 'NONE', #244, #244, #224, .T. ) ;
#165 = CARTESIAN_POINT ( 'NONE',  ( 8.728703347107827472E-16, -3.061616997868381785E-17, 0.2499999999999998335 ) ) ;
#166 = CARTESIAN_POINT ( 'NONE',  ( 3.491481338843133355E-14, 1.057330646776608163E-32, 10.00000000000000000 ) ) ;
#167 = PERSON_AND_ORGANIZATION_ROLE ( 'creator' ) ;
#168 = PERSON_AND_ORGANIZATION ( #18, #271 ) ;
#169 = VERTEX_POINT ( 'NONE', #76 ) ;
#170 = DIRECTION ( 'NONE',  ( -4.097723285930292124E-31, -1.000000000000000000, -1.153406566473941753E-16 ) ) ;
#171 = MANIFOLD_SOLID_BREP ( 'Corps-Déplacer/Copier1[1]', #3 ) ;
#172 = CC_DESIGN_APPROVAL ( #38, ( #180 ) ) ;
#173 = MANIFOLD_SOLID_BREP ( 'Corps-Déplacer/Copier1[2]', #199 ) ;
#174 = VERTEX_POINT ( 'NONE', #221 ) ;
#175 = DIRECTION ( 'NONE',  ( 0.0000000000000000000, 1.000000000000000000, 0.0000000000000000000 ) ) ;
#176 = DIRECTION ( 'NONE',  ( 4.275831445896960358E-31, 1.000000000000000000, 1.224646799147353700E-16 ) ) ;
#177 = TOROIDAL_SURFACE ( 'NONE', #83, 3.209999999999999964, 2.000000000000000444 ) ;
#178 = CC_DESIGN_APPROVAL ( #53, ( #219 ) ) ;
#179 = CONICAL_SURFACE ( 'NONE', #112, 1.499999999999996003, 0.1745329251994267028 ) ;
#180 = PRODUCT_DEFINITION_FORMATION_WITH_SPECIFIED_SOURCE ( 'ANY', '', #201, .NOT_KNOWN. ) ;
#181 = ORIENTED_EDGE ( 'NONE', *, *, #33, .F. ) ;
#182 = FACE_OUTER_BOUND ( 'NONE', #269, .T. ) ;
#183 = CALENDAR_DATE ( 2021, 2, 12 ) ;
#184 = AXIS2_PLACEMENT_3D ( 'NONE', #121, #214, #282 ) ;
#185 = FACE_OUTER_BOUND ( 'NONE', #14, .T. ) ;
#186 = APPROVAL_STATUS ( 'not_yet_approved' ) ;
#187 = CYLINDRICAL_SURFACE ( 'NONE', #299, 1.409999999999999254 ) ;
#188 = PERSON_AND_ORGANIZATION_ROLE ( 'classification_officer' ) ;
#189 = CARTESIAN_POINT ( 'NONE',  ( 0.0000000000000000000, 0.0000000000000000000, 0.0000000000000000000 ) ) ;
#190 = AXIS2_PLACEMENT_3D ( 'NONE', #65, #257, #296 ) ;
#191 = CARTESIAN_POINT ( 'NONE',  ( 3.491481338843133355E-14, -1.224646799147353454E-15, 10.00000000000000000 ) ) ;
#192 = COORDINATED_UNIVERSAL_TIME_OFFSET ( 1, 0, .AHEAD. ) ;
#193 = CARTESIAN_POINT ( 'NONE',  ( 8.728703347107833388E-16, 1.409999999999998810, 0.2500000000000000000 ) ) ;
#194 = FACE_OUTER_BOUND ( 'NONE', #230, .T. ) ;
#195 = AXIS2_PLACEMENT_3D ( 'NONE', #146, #267, #175 ) ;
#196 = FACE_BOUND ( 'NONE', #249, .T. ) ;
#197 = PRODUCT_DEFINITION_SHAPE ( 'NONE', 'NONE',  #219 ) ;
#198 = ADVANCED_FACE ( 'NONE', ( #71 ), #115, .F. ) ;
#199 = CLOSED_SHELL ( 'NONE', ( #89, #245, #62, #209 ) ) ;
#200 = EDGE_LOOP ( 'NONE', ( #247 ) ) ;
#201 = PRODUCT ( '327105', '327105', '', ( #246 ) ) ;
#202 = DIRECTION ( 'NONE',  ( -3.491481338843133355E-15, 1.224646799147353454E-16, -1.000000000000000000 ) ) ;
#203 = CC_DESIGN_PERSON_AND_ORGANIZATION_ASSIGNMENT ( #168, #255, ( #201 ) ) ;
#204 = AXIS2_PLACEMENT_3D ( 'NONE', #191, #237, #93 ) ;
#205 = CC_DESIGN_APPROVAL ( #229, ( #290 ) ) ;
#206 = FACE_OUTER_BOUND ( 'NONE', #110, .T. ) ;
#207 = DIRECTION ( 'NONE',  ( 0.0000000000000000000, 1.000000000000000000, 0.0000000000000000000 ) ) ;
#208 = DATE_AND_TIME ( #94, #286 ) ;
#209 = ADVANCED_FACE ( 'NONE', ( #185 ), #67, .T. ) ;
#210 = PLANE ( 'NONE',  #248 ) ;
#211 = CALENDAR_DATE ( 2021, 2, 12 ) ;
#212 = DIRECTION ( 'NONE',  ( -4.275831445896959482E-31, -1.000000000000000000, -1.224646799147353454E-16 ) ) ;
#213 = PERSON_AND_ORGANIZATION ( #18, #271 ) ;
#214 = DIRECTION ( 'NONE',  ( -3.491481338843133355E-15, 1.224646799147353454E-16, -1.000000000000000000 ) ) ;
#215 = FACE_OUTER_BOUND ( 'NONE', #41, .T. ) ;
#216 = PERSON_AND_ORGANIZATION_ROLE ( 'design_supplier' ) ;
#217 = AXIS2_PLACEMENT_3D ( 'NONE', #77, #9, #170 ) ;
#218 =( NAMED_UNIT ( * ) SI_UNIT ( $, .STERADIAN. ) SOLID_ANGLE_UNIT ( ) );
#219 = PRODUCT_DEFINITION ( 'UNKNOWN', '', #180, #70 ) ;
#220 = CARTESIAN_POINT ( 'NONE',  ( 2.610978828292164579E-31, -9.158080924382012373E-33, 7.478140579600766233E-17 ) ) ;
#221 = CARTESIAN_POINT ( 'NONE',  ( 8.849961221477469775E-14, 1.240384493975577263, 25.34729635533384595 ) ) ;
#222 = FACE_BOUND ( 'NONE', #292, .T. ) ;
#223 = DIRECTION ( 'NONE',  ( 0.0000000000000000000, 0.0000000000000000000, 1.000000000000000000 ) ) ;
#224 = CIRCLE ( 'NONE', #56, 1.500000000000002887 ) ;
#225 = CARTESIAN_POINT ( 'NONE',  ( 9.364030418895016136E-14, -3.284459736914393619E-15, 26.81964905474102068 ) ) ;
#226 = EDGE_LOOP ( 'NONE', ( #133 ) ) ;
#227 = EDGE_CURVE ( 'NONE', #149, #149, #102, .T. ) ;
#228 = CARTESIAN_POINT ( 'NONE',  ( 2.129803616694311221E-13, 8.998558695971062171E-33, 61.00000000000000000 ) ) ;
#229 = APPROVAL ( #186, 'UNSPECIFIED' ) ;
#230 = EDGE_LOOP ( 'NONE', ( #86 ) ) ;
#231 = AXIS2_PLACEMENT_3D ( 'NONE', #166, #137, #162 ) ;
#232 = EDGE_LOOP ( 'NONE', ( #37 ) ) ;
#233 = CC_DESIGN_PERSON_AND_ORGANIZATION_ASSIGNMENT ( #238, #216, ( #180 ) ) ;
#234 = DIRECTION ( 'NONE',  ( 4.275831445896960358E-31, 1.000000000000000000, 1.224646799147353454E-16 ) ) ;
#235 = APPROVAL_DATE_TIME ( #142, #38 ) ;
#236 = DIRECTION ( 'NONE',  ( 0.0000000000000000000, 1.000000000000000000, 0.0000000000000000000 ) ) ;
#237 = DIRECTION ( 'NONE',  ( -3.491481338843133355E-15, 1.224646799147353454E-16, -1.000000000000000000 ) ) ;
#238 = PERSON_AND_ORGANIZATION ( #18, #271 ) ;
#239 = CARTESIAN_POINT ( 'NONE',  ( 2.129803616694311221E-13, -7.470345474798856659E-15, 61.00000000000000000 ) ) ;
#240 = CONICAL_SURFACE ( 'NONE', #109, 1.209999999999998188, 0.5235987755982929315 ) ;
#241 = FACE_OUTER_BOUND ( 'NONE', #153, .T. ) ;
#242 = EDGE_CURVE ( 'NONE', #169, #169, #266, .T. ) ;
#243 = DIRECTION ( 'NONE',  ( 0.0000000000000000000, 1.000000000000000000, 0.0000000000000000000 ) ) ;
#244 = VERTEX_POINT ( 'NONE', #107 ) ;
#245 = ADVANCED_FACE ( 'NONE', ( #196, #129 ), #39, .T. ) ;
#246 = MECHANICAL_CONTEXT ( 'NONE', #251, 'mechanical' ) ;
#247 = ORIENTED_EDGE ( 'NONE', *, *, #130, .T. ) ;
#248 = AXIS2_PLACEMENT_3D ( 'NONE', #160, #25, #212 ) ;
#249 = EDGE_LOOP ( 'NONE', ( #157 ) ) ;
#250 = ORIENTED_EDGE ( 'NONE', *, *, #164, .T. ) ;
#251 = APPLICATION_CONTEXT ( 'configuration controlled 3d designs of mechanical parts and assemblies' ) ;
#252 = ORIENTED_EDGE ( 'NONE', *, *, #21, .T. ) ;
#253 = ORIENTED_EDGE ( 'NONE', *, *, #31, .F. ) ;
#254 = CARTESIAN_POINT ( 'NONE',  ( 2.129803616694311221E-13, -7.470345474798856659E-15, 61.00000000000000000 ) ) ;
#255 = PERSON_AND_ORGANIZATION_ROLE ( 'design_owner' ) ;
#256 = CARTESIAN_POINT ( 'NONE',  ( 3.491481338843133355E-14, 1.057330646776608163E-32, 10.00000000000000000 ) ) ;
#257 = DIRECTION ( 'NONE',  ( -3.491481338843133355E-15, 1.224646799147353454E-16, -1.000000000000000000 ) ) ;
#258 = PERSON_AND_ORGANIZATION_ROLE ( 'creator' ) ;
#259 = CYLINDRICAL_SURFACE ( 'NONE', #190, 1.209999999999998854 ) ;
#260 = DIRECTION ( 'NONE',  ( 0.0000000000000000000, 1.000000000000000000, 0.0000000000000000000 ) ) ;
#261 = CARTESIAN_POINT ( 'NONE',  ( 8.728703347107833388E-14, 1.209999999999996634, 25.00000000000000000 ) ) ;
#262 = ADVANCED_FACE ( 'NONE', ( #263, #194 ), #177, .F. ) ;
#263 = FACE_OUTER_BOUND ( 'NONE', #108, .T. ) ;
#264 = VERTEX_POINT ( 'NONE', #103 ) ;
#265 =( LENGTH_UNIT ( ) NAMED_UNIT ( * ) SI_UNIT ( .MILLI., .METRE. ) );
#266 = CIRCLE ( 'NONE', #64, 1.160000000000001696 ) ;
#267 = DIRECTION ( 'NONE',  ( -3.491481338843133355E-15, 1.224646799147353454E-16, -1.000000000000000000 ) ) ;
#268 = CARTESIAN_POINT ( 'NONE',  ( 0.0000000000000000000, 0.0000000000000000000, 0.0000000000000000000 ) ) ;
#269 = EDGE_LOOP ( 'NONE', ( #295 ) ) ;
#270 = EDGE_LOOP ( 'NONE', ( #272 ) ) ;
#271 = ORGANIZATION ( 'UNSPECIFIED', 'UNSPECIFIED', '' ) ;
#272 = ORIENTED_EDGE ( 'NONE', *, *, #92, .F. ) ;
#273 = DIRECTION ( 'NONE',  ( 4.275831445896959482E-31, 1.000000000000000000, 1.224646799147353454E-16 ) ) ;
#274 = FACE_BOUND ( 'NONE', #88, .T. ) ;
#275 = DATE_AND_TIME ( #183, #8 ) ;
#276 = CYLINDRICAL_SURFACE ( 'NONE', #151, 1.499999999999999334 ) ;
#277 = COORDINATED_UNIVERSAL_TIME_OFFSET ( 1, 0, .AHEAD. ) ;
#278 = APPROVAL_DATE_TIME ( #208, #229 ) ;
#279 = DIRECTION ( 'NONE',  ( 0.0000000000000000000, 1.000000000000000000, 0.0000000000000000000 ) ) ;
#280 = DATE_AND_TIME ( #303, #51 ) ;
#281 = AXIS2_PLACEMENT_3D ( 'NONE', #165, #101, #298 ) ;
#282 = DIRECTION ( 'NONE',  ( 0.0000000000000000000, 1.000000000000000000, 0.0000000000000000000 ) ) ;
#283 = CC_DESIGN_PERSON_AND_ORGANIZATION_ASSIGNMENT ( #73, #258, ( #180 ) ) ;
#284 = DIRECTION ( 'NONE',  ( 4.275831445896959482E-31, 1.000000000000000000, 1.224646799147353454E-16 ) ) ;
#285 = DIRECTION ( 'NONE',  ( -3.491481338843133355E-15, 1.224646799147353454E-16, -1.000000000000000000 ) ) ;
#286 = LOCAL_TIME ( 8, 16, 31.00000000000000000, #277 ) ;
#287 = VERTEX_POINT ( 'NONE', #6 ) ;
#288 = VERTEX_POINT ( 'NONE', #29 ) ;
#289 = CIRCLE ( 'NONE', #195, 1.209999999999999742 ) ;
#290 = SECURITY_CLASSIFICATION ( '', '', #161 ) ;
#291 = ADVANCED_FACE ( 'NONE', ( #241, #222 ), #240, .T. ) ;
#292 = EDGE_LOOP ( 'NONE', ( #156 ) ) ;
#293 = LOCAL_TIME ( 8, 16, 31.00000000000000000, #192 ) ;
#294 = ORIENTED_EDGE ( 'NONE', *, *, #227, .F. ) ;
#295 = ORIENTED_EDGE ( 'NONE', *, *, #302, .T. ) ;
#296 = DIRECTION ( 'NONE',  ( 4.275831445896959482E-31, 1.000000000000000000, 1.224646799147353207E-16 ) ) ;
#297 = DATE_AND_TIME ( #116, #132 ) ;
#298 = DIRECTION ( 'NONE',  ( 4.097723285930292124E-31, 1.000000000000000000, 1.153406566473941753E-16 ) ) ;
#299 = AXIS2_PLACEMENT_3D ( 'NONE', #45, #74, #2 ) ;
#300 = PERSON_AND_ORGANIZATION ( #18, #271 ) ;
#301 = DIRECTION ( 'NONE',  ( -3.491481338843133355E-15, 1.224646799147353454E-16, -1.000000000000000000 ) ) ;
#302 = EDGE_CURVE ( 'NONE', #32, #32, #289, .T. ) ;
#303 = CALENDAR_DATE ( 2021, 2, 12 ) ;
ENDSEC;
END-ISO-10303-21;
