ISO-10303-21;
HEADER;
FILE_DESCRIPTION (( 'STEP AP203' ),
    '1' );
FILE_NAME ('327104.step',
    '2021-12-02T07:16:30',
    ( '' ),
    ( '' ),
    'SwSTEP 2.0',
    'SolidWorks 2019',
    '' );
FILE_SCHEMA (( 'CONFIG_CONTROL_DESIGN' ));
ENDSEC;

DATA;
#1 = DATE_AND_TIME ( #219, #54 ) ;
#2 = DIRECTION ( 'NONE',  ( -3.491481338843133355E-15, 1.224646799147353454E-16, -1.000000000000000000 ) ) ;
#3 = AXIS2_PLACEMENT_3D ( 'NONE', #140, #138, #265 ) ;
#4 = CALENDAR_DATE ( 2021, 2, 12 ) ;
#5 = FACE_OUTER_BOUND ( 'NONE', #297, .T. ) ;
#6 = CARTESIAN_POINT ( 'NONE',  ( 8.728703347107827472E-16, -3.061616997868381785E-17, 0.2499999999999998335 ) ) ;
#7 = DIRECTION ( 'NONE',  ( 3.491481338843133355E-15, -1.224646799147353454E-16, 1.000000000000000000 ) ) ;
#8 = CIRCLE ( 'NONE', #3, 1.200000000000002842 ) ;
#9 = FACE_OUTER_BOUND ( 'NONE', #220, .T. ) ;
#10 = ORIENTED_EDGE ( 'NONE', *, *, #246, .T. ) ;
#11 = DIRECTION ( 'NONE',  ( -3.491481338843133355E-15, 1.224646799147353454E-16, -1.000000000000000000 ) ) ;
#12 = ADVANCED_FACE ( 'NONE', ( #83 ), #30, .F. ) ;
#13 = FACE_BOUND ( 'NONE', #15, .T. ) ;
#14 = VERTEX_POINT ( 'NONE', #149 ) ;
#15 = EDGE_LOOP ( 'NONE', ( #225 ) ) ;
#16 = APPROVAL_STATUS ( 'not_yet_approved' ) ;
#17 = ORIENTED_EDGE ( 'NONE', *, *, #226, .F. ) ;
#18 = CARTESIAN_POINT ( 'NONE',  ( 3.491481338843133355E-14, 1.053581247319953492E-32, 10.00000000000000000 ) ) ;
#19 = PERSON ( 'UNSPECIFIED', 'UNSPECIFIED', 'UNSPECIFIED', ('UNSPECIFIED'), ('UNSPECIFIED'), ('UNSPECIFIED') ) ;
#20 = AXIS2_PLACEMENT_3D ( 'NONE', #129, #29, #241 ) ;
#21 = VERTEX_POINT ( 'NONE', #272 ) ;
#22 = APPROVAL_DATE_TIME ( #1, #99 ) ;
#23 = ADVANCED_FACE ( 'NONE', ( #178, #51 ), #248, .T. ) ;
#24 = APPROVAL_DATE_TIME ( #177, #210 ) ;
#25 = CARTESIAN_POINT ( 'NONE',  ( 3.612429800294234159E-14, -1.267069808696350687E-15, 10.34641016151378423 ) ) ;
#26 = AXIS2_PLACEMENT_3D ( 'NONE', #6, #94, #185 ) ;
#27 = PRODUCT_RELATED_PRODUCT_CATEGORY ( 'detail', '', ( #34 ) ) ;
#28 = PERSON_AND_ORGANIZATION ( #19, #64 ) ;
#29 = DIRECTION ( 'NONE',  ( -3.491481338843133355E-15, 1.224646799147353454E-16, -1.000000000000000000 ) ) ;
#30 = PLANE ( 'NONE',  #175 ) ;
#31 = CARTESIAN_POINT ( 'NONE',  ( 9.373931006215273307E-14, -3.287932395478122408E-15, 26.84800546383911168 ) ) ;
#32 = TOROIDAL_SURFACE ( 'NONE', #157, 3.205000000000000071, 2.000000000000000000 ) ;
#33 = APPROVAL_PERSON_ORGANIZATION ( #28, #99, #82 ) ;
#34 = PRODUCT ( '327104', '327104', '', ( #251 ) ) ;
#35 = CYLINDRICAL_SURFACE ( 'NONE', #137, 1.499999999999999334 ) ;
#36 = CC_DESIGN_PERSON_AND_ORGANIZATION_ASSIGNMENT ( #194, #280, ( #172 ) ) ;
#37 = CIRCLE ( 'NONE', #74, 1.155000000000001581 ) ;
#38 = FACE_OUTER_BOUND ( 'NONE', #258, .T. ) ;
#39 = EDGE_LOOP ( 'NONE', ( #132 ) ) ;
#40 = DIRECTION ( 'NONE',  ( -3.491481338843133355E-15, 1.224646799147353454E-16, -1.000000000000000000 ) ) ;
#41 = DIRECTION ( 'NONE',  ( 3.491481338843133355E-15, -1.224646799147353454E-16, 1.000000000000000000 ) ) ;
#42 = CC_DESIGN_PERSON_AND_ORGANIZATION_ASSIGNMENT ( #95, #109, ( #293 ) ) ;
#43 = AXIS2_PLACEMENT_3D ( 'NONE', #135, #7, #245 ) ;
#44 = EDGE_LOOP ( 'NONE', ( #148 ) ) ;
#45 = EDGE_LOOP ( 'NONE', ( #146 ) ) ;
#46 = CARTESIAN_POINT ( 'NONE',  ( 3.491481338843133355E-14, -1.224646799147353454E-15, 10.00000000000000000 ) ) ;
#47 = EDGE_CURVE ( 'NONE', #67, #67, #171, .T. ) ;
#48 = DIRECTION ( 'NONE',  ( 0.0000000000000000000, 0.0000000000000000000, 1.000000000000000000 ) ) ;
#49 = ORIENTED_EDGE ( 'NONE', *, *, #260, .T. ) ;
#50 = DIRECTION ( 'NONE',  ( 3.491481338843133355E-15, -1.224646799147353454E-16, 1.000000000000000000 ) ) ;
#51 = FACE_BOUND ( 'NONE', #60, .T. ) ;
#52 = APPLICATION_CONTEXT ( 'configuration controlled 3d designs of mechanical parts and assemblies' ) ;
#53 = AXIS2_PLACEMENT_3D ( 'NONE', #85, #40, #289 ) ;
#54 = LOCAL_TIME ( 8, 16, 30.00000000000000000, #133 ) ;
#55 = SECURITY_CLASSIFICATION_LEVEL ( 'unclassified' ) ;
#56 = FACE_OUTER_BOUND ( 'NONE', #275, .T. ) ;
#57 = CLOSED_SHELL ( 'NONE', ( #213, #84, #131, #285 ) ) ;
#58 = CARTESIAN_POINT ( 'NONE',  ( -1.153113667244671449E-31, 4.044578288114686690E-33, -3.302648805296905652E-17 ) ) ;
#59 = DIRECTION ( 'NONE',  ( 0.0000000000000000000, 1.000000000000000000, 0.0000000000000000000 ) ) ;
#60 = EDGE_LOOP ( 'NONE', ( #127 ) ) ;
#61 = DIRECTION ( 'NONE',  ( 4.275831445896959482E-31, 1.000000000000000000, 1.224646799147353454E-16 ) ) ;
#62 = EDGE_CURVE ( 'NONE', #169, #169, #130, .T. ) ;
#63 = MANIFOLD_SOLID_BREP ( 'Corps-Déplacer/Copier1[2]', #57 ) ;
#64 = ORGANIZATION ( 'UNSPECIFIED', 'UNSPECIFIED', '' ) ;
#65 = CARTESIAN_POINT ( 'NONE',  ( 3.491481338843133355E-14, -1.224646799147353454E-15, 10.00000000000000000 ) ) ;
#66 = DIRECTION ( 'NONE',  ( -3.491481338843133355E-15, 1.224646799147353454E-16, -1.000000000000000000 ) ) ;
#67 = VERTEX_POINT ( 'NONE', #188 ) ;
#68 = EDGE_LOOP ( 'NONE', ( #160 ) ) ;
#69 = EDGE_LOOP ( 'NONE', ( #180 ) ) ;
#70 = ADVANCED_FACE ( 'NONE', ( #154, #282 ), #273, .T. ) ;
#71 = CC_DESIGN_PERSON_AND_ORGANIZATION_ASSIGNMENT ( #155, #239, ( #172 ) ) ;
#72 = ORIENTED_EDGE ( 'NONE', *, *, #260, .F. ) ;
#73 = VERTEX_POINT ( 'NONE', #96 ) ;
#74 = AXIS2_PLACEMENT_3D ( 'NONE', #58, #286, #158 ) ;
#75 = DATE_AND_TIME ( #4, #279 ) ;
#76 = DESIGN_CONTEXT ( 'detailed design', #201, 'design' ) ;
#77 = DIRECTION ( 'NONE',  ( -3.491481338843133355E-15, 1.224646799147353454E-16, -1.000000000000000000 ) ) ;
#78 = PERSON_AND_ORGANIZATION ( #19, #64 ) ;
#79 = PRODUCT_DEFINITION_SHAPE ( 'NONE', 'NONE',  #293 ) ;
#80 = APPROVAL_ROLE ( '' ) ;
#81 = DIRECTION ( 'NONE',  ( 4.275831445896959482E-31, 1.000000000000000000, 1.224646799147353454E-16 ) ) ;
#82 = APPROVAL_ROLE ( '' ) ;
#83 = FACE_OUTER_BOUND ( 'NONE', #156, .T. ) ;
#84 = ADVANCED_FACE ( 'NONE', ( #108, #261 ), #141, .T. ) ;
#85 = CARTESIAN_POINT ( 'NONE',  ( 8.849961221477469775E-14, -3.104148534859897544E-15, 25.34729635533384595 ) ) ;
#86 = CIRCLE ( 'NONE', #215, 1.405000000000000027 ) ;
#87 = CC_DESIGN_SECURITY_CLASSIFICATION ( #164, ( #172 ) ) ;
#88 = CC_DESIGN_PERSON_AND_ORGANIZATION_ASSIGNMENT ( #110, #259, ( #164 ) ) ;
#89 = PLANE ( 'NONE',  #125 ) ;
#90 = CARTESIAN_POINT ( 'NONE',  ( 0.0000000000000000000, 0.0000000000000000000, 0.0000000000000000000 ) ) ;
#91 = ADVANCED_FACE ( 'NONE', ( #5, #56 ), #32, .F. ) ;
#92 = DIRECTION ( 'NONE',  ( -3.491481338843133355E-15, 1.224646799147353454E-16, -1.000000000000000000 ) ) ;
#93 = ORIENTED_EDGE ( 'NONE', *, *, #206, .F. ) ;
#94 = DIRECTION ( 'NONE',  ( -3.491481338843133355E-15, 1.224646799147353454E-16, -1.000000000000000000 ) ) ;
#95 = PERSON_AND_ORGANIZATION ( #19, #64 ) ;
#96 = CARTESIAN_POINT ( 'NONE',  ( 3.612429800294234159E-14, 1.204999999999997184, 10.34641016151378423 ) ) ;
#97 = DIRECTION ( 'NONE',  ( -4.275831445896959482E-31, -1.000000000000000000, -1.224646799147353454E-16 ) ) ;
#98 = CIRCLE ( 'NONE', #26, 1.404999999999998694 ) ;
#99 = APPROVAL ( #302, 'UNSPECIFIED' ) ;
#100 = ADVANCED_BREP_SHAPE_REPRESENTATION ( '327104', ( #262, #63, #198 ), #163 ) ;
#101 = APPLICATION_PROTOCOL_DEFINITION ( 'international standard', 'config_control_design', 1994, #201 ) ;
#102 = EDGE_LOOP ( 'NONE', ( #253 ) ) ;
#103 = EDGE_CURVE ( 'NONE', #189, #189, #98, .T. ) ;
#104 =( LENGTH_UNIT ( ) NAMED_UNIT ( * ) SI_UNIT ( .MILLI., .METRE. ) );
#105 = COORDINATED_UNIVERSAL_TIME_OFFSET ( 1, 0, .AHEAD. ) ;
#106 = AXIS2_PLACEMENT_3D ( 'NONE', #90, #288, #247 ) ;
#107 = SHAPE_DEFINITION_REPRESENTATION ( #79, #100 ) ;
#108 = FACE_BOUND ( 'NONE', #211, .T. ) ;
#109 = PERSON_AND_ORGANIZATION_ROLE ( 'creator' ) ;
#110 = PERSON_AND_ORGANIZATION ( #19, #64 ) ;
#111 = CARTESIAN_POINT ( 'NONE',  ( 9.373931006215273307E-14, -3.287932395478122408E-15, 26.84800546383911168 ) ) ;
#112 = LOCAL_TIME ( 8, 16, 30.00000000000000000, #255 ) ;
#113 = DATE_TIME_ROLE ( 'classification_date' ) ;
#114 = CARTESIAN_POINT ( 'NONE',  ( 0.0000000000000000000, 0.0000000000000000000, 0.0000000000000000000 ) ) ;
#115 = DIRECTION ( 'NONE',  ( -3.491481338843133355E-15, 1.224646799147353454E-16, -1.000000000000000000 ) ) ;
#116 = FACE_OUTER_BOUND ( 'NONE', #68, .T. ) ;
#117 = CYLINDRICAL_SURFACE ( 'NONE', #231, 1.404999999999999361 ) ;
#118 = CIRCLE ( 'NONE', #152, 1.500000000000002887 ) ;
#119 = VERTEX_POINT ( 'NONE', #121 ) ;
#120 = ADVANCED_FACE ( 'NONE', ( #184, #13 ), #228, .T. ) ;
#121 = CARTESIAN_POINT ( 'NONE',  ( 2.129803616694311221E-13, 1.199999999999995515, 61.00000000000000000 ) ) ;
#122 =( NAMED_UNIT ( * ) SI_UNIT ( $, .STERADIAN. ) SOLID_ANGLE_UNIT ( ) );
#123 = ORIENTED_EDGE ( 'NONE', *, *, #161, .T. ) ;
#124 = CARTESIAN_POINT ( 'NONE',  ( 3.785471652766323151E-31, 1.155000000000001581, 1.084202172485504434E-16 ) ) ;
#125 = AXIS2_PLACEMENT_3D ( 'NONE', #250, #41, #179 ) ;
#126 = CARTESIAN_POINT ( 'NONE',  ( 3.491481338843133355E-14, 1.404999999999998694, 10.00000000000000000 ) ) ;
#127 = ORIENTED_EDGE ( 'NONE', *, *, #176, .T. ) ;
#128 = CC_DESIGN_DATE_AND_TIME_ASSIGNMENT ( #75, #113, ( #164 ) ) ;
#129 = CARTESIAN_POINT ( 'NONE',  ( 8.728703347107833388E-14, -3.061616997868383831E-15, 25.00000000000000000 ) ) ;
#130 = CIRCLE ( 'NONE', #256, 1.499999999999996003 ) ;
#131 = ADVANCED_FACE ( 'NONE', ( #159, #183 ), #117, .T. ) ;
#132 = ORIENTED_EDGE ( 'NONE', *, *, #62, .F. ) ;
#133 = COORDINATED_UNIVERSAL_TIME_OFFSET ( 1, 0, .AHEAD. ) ;
#134 = DIRECTION ( 'NONE',  ( 0.0000000000000000000, 1.000000000000000000, 0.0000000000000000000 ) ) ;
#135 = CARTESIAN_POINT ( 'NONE',  ( 3.491481338843133355E-14, 1.053581247319953492E-32, 10.00000000000000000 ) ) ;
#136 = EDGE_LOOP ( 'NONE', ( #252 ) ) ;
#137 = AXIS2_PLACEMENT_3D ( 'NONE', #114, #115, #266 ) ;
#138 = DIRECTION ( 'NONE',  ( -3.491481338843133355E-15, 1.224646799147353454E-16, -1.000000000000000000 ) ) ;
#139 = DIRECTION ( 'NONE',  ( 4.275831445896959482E-31, 1.000000000000000000, 1.224646799147353454E-16 ) ) ;
#140 = CARTESIAN_POINT ( 'NONE',  ( 2.129803616694311221E-13, -7.470345474798856659E-15, 61.00000000000000000 ) ) ;
#141 = CONICAL_SURFACE ( 'NONE', #290, 1.404999999999998694, 0.7853981633974428389 ) ;
#142 = ORIENTED_EDGE ( 'NONE', *, *, #47, .F. ) ;
#143 = EDGE_LOOP ( 'NONE', ( #214 ) ) ;
#144 = CARTESIAN_POINT ( 'NONE',  ( 0.0000000000000000000, 0.0000000000000000000, 0.0000000000000000000 ) ) ;
#145 = CC_DESIGN_PERSON_AND_ORGANIZATION_ASSIGNMENT ( #170, #232, ( #34 ) ) ;
#146 = ORIENTED_EDGE ( 'NONE', *, *, #246, .F. ) ;
#147 = DIRECTION ( 'NONE',  ( 0.0000000000000000000, 1.000000000000000000, 0.0000000000000000000 ) ) ;
#148 = ORIENTED_EDGE ( 'NONE', *, *, #47, .T. ) ;
#149 = CARTESIAN_POINT ( 'NONE',  ( 2.119329172677781757E-13, 1.499999999999995559, 60.69999999999999574 ) ) ;
#150 = CALENDAR_DATE ( 2021, 2, 12 ) ;
#151 = ADVANCED_FACE ( 'NONE', ( #9 ), #227, .F. ) ;
#152 = AXIS2_PLACEMENT_3D ( 'NONE', #230, #66, #207 ) ;
#153 = LOCAL_TIME ( 8, 16, 30.00000000000000000, #197 ) ;
#154 = FACE_BOUND ( 'NONE', #254, .T. ) ;
#155 = PERSON_AND_ORGANIZATION ( #19, #64 ) ;
#156 = EDGE_LOOP ( 'NONE', ( #17 ) ) ;
#157 = AXIS2_PLACEMENT_3D ( 'NONE', #187, #11, #139 ) ;
#158 = DIRECTION ( 'NONE',  ( 4.275831445896958607E-31, 1.000000000000000000, 1.224646799147353454E-16 ) ) ;
#159 = FACE_OUTER_BOUND ( 'NONE', #69, .T. ) ;
#160 = ORIENTED_EDGE ( 'NONE', *, *, #206, .T. ) ;
#161 = EDGE_CURVE ( 'NONE', #21, #21, #186, .T. ) ;
#162 = DIRECTION ( 'NONE',  ( -3.491481338843133355E-15, 1.224646799147353454E-16, -1.000000000000000000 ) ) ;
#163 =( GEOMETRIC_REPRESENTATION_CONTEXT ( 3 ) GLOBAL_UNCERTAINTY_ASSIGNED_CONTEXT ( ( #298 ) ) GLOBAL_UNIT_ASSIGNED_CONTEXT ( ( #104, #296, #122 ) ) REPRESENTATION_CONTEXT ( 'NONE', 'WORKASPACE' ) );
#164 = SECURITY_CLASSIFICATION ( '', '', #55 ) ;
#165 = DIRECTION ( 'NONE',  ( -3.491481338843133355E-15, 1.224646799147353454E-16, -1.000000000000000000 ) ) ;
#166 = FACE_OUTER_BOUND ( 'NONE', #44, .T. ) ;
#167 = AXIS2_PLACEMENT_3D ( 'NONE', #25, #77, #134 ) ;
#168 = ORIENTED_EDGE ( 'NONE', *, *, #291, .T. ) ;
#169 = VERTEX_POINT ( 'NONE', #292 ) ;
#170 = PERSON_AND_ORGANIZATION ( #19, #64 ) ;
#171 = CIRCLE ( 'NONE', #20, 1.204999999999999849 ) ;
#172 = PRODUCT_DEFINITION_FORMATION_WITH_SPECIFIED_SOURCE ( 'ANY', '', #34, .NOT_KNOWN. ) ;
#173 = ADVANCED_FACE ( 'NONE', ( #268, #116 ), #35, .T. ) ;
#174 = DATE_AND_TIME ( #150, #153 ) ;
#175 = AXIS2_PLACEMENT_3D ( 'NONE', #222, #303, #81 ) ;
#176 = EDGE_CURVE ( 'NONE', #73, #73, #295, .T. ) ;
#177 = DATE_AND_TIME ( #281, #182 ) ;
#178 = FACE_OUTER_BOUND ( 'NONE', #217, .T. ) ;
#179 = DIRECTION ( 'NONE',  ( -4.275831445896959482E-31, -1.000000000000000000, -1.224646799147353454E-16 ) ) ;
#180 = ORIENTED_EDGE ( 'NONE', *, *, #103, .F. ) ;
#181 = AXIS2_PLACEMENT_3D ( 'NONE', #267, #162, #59 ) ;
#182 = LOCAL_TIME ( 8, 16, 30.00000000000000000, #105 ) ;
#183 = FACE_OUTER_BOUND ( 'NONE', #208, .T. ) ;
#184 = FACE_OUTER_BOUND ( 'NONE', #237, .T. ) ;
#185 = DIRECTION ( 'NONE',  ( 4.112305931075952648E-31, 1.000000000000000000, 1.157511216176696310E-16 ) ) ;
#186 = CIRCLE ( 'NONE', #53, 1.235384493975580922 ) ;
#187 = CARTESIAN_POINT ( 'NONE',  ( 8.728703347107833388E-14, -3.035766082959412415E-15, 25.00000000000000000 ) ) ;
#188 = CARTESIAN_POINT ( 'NONE',  ( 8.728703347107833388E-14, 1.204999999999996962, 25.00000000000000000 ) ) ;
#189 = VERTEX_POINT ( 'NONE', #236 ) ;
#190 = CARTESIAN_POINT ( 'NONE',  ( 3.491481338843133355E-14, 1.404999999999998694, 10.00000000000000000 ) ) ;
#191 = PERSON_AND_ORGANIZATION ( #19, #64 ) ;
#192 = ORIENTED_EDGE ( 'NONE', *, *, #291, .F. ) ;
#193 = COORDINATED_UNIVERSAL_TIME_OFFSET ( 1, 0, .AHEAD. ) ;
#194 = PERSON_AND_ORGANIZATION ( #19, #64 ) ;
#195 = DIRECTION ( 'NONE',  ( 0.0000000000000000000, 1.000000000000000000, 0.0000000000000000000 ) ) ;
#196 = ADVANCED_FACE ( 'NONE', ( #205, #166 ), #202, .T. ) ;
#197 = COORDINATED_UNIVERSAL_TIME_OFFSET ( 1, 0, .AHEAD. ) ;
#198 = AXIS2_PLACEMENT_3D ( 'NONE', #144, #48, #276 ) ;
#199 = APPROVAL_PERSON_ORGANIZATION ( #78, #210, #80 ) ;
#200 = DIRECTION ( 'NONE',  ( 0.0000000000000000000, -1.000000000000000000, 0.0000000000000000000 ) ) ;
#201 = APPLICATION_CONTEXT ( 'configuration controlled 3d designs of mechanical parts and assemblies' ) ;
#202 = CYLINDRICAL_SURFACE ( 'NONE', #106, 1.204999999999998961 ) ;
#203 = AXIS2_PLACEMENT_3D ( 'NONE', #111, #242, #200 ) ;
#204 = DIRECTION ( 'NONE',  ( -3.491481338843133355E-15, 1.224646799147353454E-16, -1.000000000000000000 ) ) ;
#205 = FACE_OUTER_BOUND ( 'NONE', #143, .T. ) ;
#206 = EDGE_CURVE ( 'NONE', #14, #14, #118, .T. ) ;
#207 = DIRECTION ( 'NONE',  ( 0.0000000000000000000, 1.000000000000000000, 0.0000000000000000000 ) ) ;
#208 = EDGE_LOOP ( 'NONE', ( #10 ) ) ;
#209 = CIRCLE ( 'NONE', #221, 1.405000000000000027 ) ;
#210 = APPROVAL ( #283, 'UNSPECIFIED' ) ;
#211 = EDGE_LOOP ( 'NONE', ( #72 ) ) ;
#212 = APPROVAL_ROLE ( '' ) ;
#213 = ADVANCED_FACE ( 'NONE', ( #38 ), #89, .F. ) ;
#214 = ORIENTED_EDGE ( 'NONE', *, *, #176, .F. ) ;
#215 = AXIS2_PLACEMENT_3D ( 'NONE', #46, #271, #147 ) ;
#216 = VERTEX_POINT ( 'NONE', #124 ) ;
#217 = EDGE_LOOP ( 'NONE', ( #192 ) ) ;
#218 = VERTEX_POINT ( 'NONE', #126 ) ;
#219 = CALENDAR_DATE ( 2021, 2, 12 ) ;
#220 = EDGE_LOOP ( 'NONE', ( #168 ) ) ;
#221 = AXIS2_PLACEMENT_3D ( 'NONE', #65, #165, #249 ) ;
#222 = CARTESIAN_POINT ( 'NONE',  ( 2.129803616694311221E-13, 8.998558695971062171E-33, 61.00000000000000000 ) ) ;
#223 = DATE_TIME_ROLE ( 'creation_date' ) ;
#224 = DIRECTION ( 'NONE',  ( -4.112305931075952648E-31, -1.000000000000000000, -1.157511216176696310E-16 ) ) ;
#225 = ORIENTED_EDGE ( 'NONE', *, *, #226, .T. ) ;
#226 = EDGE_CURVE ( 'NONE', #119, #119, #8, .T. ) ;
#227 = PLANE ( 'NONE',  #43 ) ;
#228 = CONICAL_SURFACE ( 'NONE', #181, 1.200000000000002842, 0.7853981633974453924 ) ;
#229 = CARTESIAN_POINT ( 'NONE',  ( 0.0000000000000000000, 0.0000000000000000000, 0.0000000000000000000 ) ) ;
#230 = CARTESIAN_POINT ( 'NONE',  ( 2.119329172677781757E-13, -7.433606070824434221E-15, 60.69999999999999574 ) ) ;
#231 = AXIS2_PLACEMENT_3D ( 'NONE', #229, #92, #61 ) ;
#232 = PERSON_AND_ORGANIZATION_ROLE ( 'design_owner' ) ;
#233 = APPLICATION_PROTOCOL_DEFINITION ( 'international standard', 'config_control_design', 1994, #52 ) ;
#234 = PLANE ( 'NONE',  #278 ) ;
#235 = APPROVAL_PERSON_ORGANIZATION ( #191, #264, #212 ) ;
#236 = CARTESIAN_POINT ( 'NONE',  ( 8.728703347107833388E-16, 1.404999999999998694, 0.2500000000000000000 ) ) ;
#237 = EDGE_LOOP ( 'NONE', ( #93 ) ) ;
#238 = APPROVAL_DATE_TIME ( #257, #264 ) ;
#239 = PERSON_AND_ORGANIZATION_ROLE ( 'creator' ) ;
#240 = AXIS2_PLACEMENT_3D ( 'NONE', #270, #204, #287 ) ;
#241 = DIRECTION ( 'NONE',  ( 0.0000000000000000000, 1.000000000000000000, 0.0000000000000000000 ) ) ;
#242 = DIRECTION ( 'NONE',  ( 3.491481338843133355E-15, -1.224646799147353454E-16, 1.000000000000000000 ) ) ;
#243 = FACE_OUTER_BOUND ( 'NONE', #45, .T. ) ;
#244 = CC_DESIGN_DATE_AND_TIME_ASSIGNMENT ( #174, #223, ( #293 ) ) ;
#245 = DIRECTION ( 'NONE',  ( -4.275831445896959482E-31, -1.000000000000000000, -1.224646799147353454E-16 ) ) ;
#246 = EDGE_CURVE ( 'NONE', #218, #218, #209, .T. ) ;
#247 = DIRECTION ( 'NONE',  ( 4.275831445896959482E-31, 1.000000000000000000, 1.224646799147353454E-16 ) ) ;
#248 = CONICAL_SURFACE ( 'NONE', #167, 1.204999999999998295, 0.5235987755982924874 ) ;
#249 = DIRECTION ( 'NONE',  ( 0.0000000000000000000, 1.000000000000000000, 0.0000000000000000000 ) ) ;
#250 = CARTESIAN_POINT ( 'NONE',  ( -5.765568336223357246E-32, 2.022289144057343345E-33, -1.651324402648452826E-17 ) ) ;
#251 = MECHANICAL_CONTEXT ( 'NONE', #52, 'mechanical' ) ;
#252 = ORIENTED_EDGE ( 'NONE', *, *, #103, .T. ) ;
#253 = ORIENTED_EDGE ( 'NONE', *, *, #62, .T. ) ;
#254 = EDGE_LOOP ( 'NONE', ( #277 ) ) ;
#255 = COORDINATED_UNIVERSAL_TIME_OFFSET ( 1, 0, .AHEAD. ) ;
#256 = AXIS2_PLACEMENT_3D ( 'NONE', #31, #2, #195 ) ;
#257 = DATE_AND_TIME ( #294, #112 ) ;
#258 = EDGE_LOOP ( 'NONE', ( #49 ) ) ;
#259 = PERSON_AND_ORGANIZATION_ROLE ( 'classification_officer' ) ;
#260 = EDGE_CURVE ( 'NONE', #216, #216, #37, .T. ) ;
#261 = FACE_OUTER_BOUND ( 'NONE', #136, .T. ) ;
#262 = MANIFOLD_SOLID_BREP ( 'Corps-Déplacer/Copier1[1]', #299 ) ;
#263 = CARTESIAN_POINT ( 'NONE',  ( 8.728703347107827472E-16, -3.061616997868381785E-17, 0.2499999999999998335 ) ) ;
#264 = APPROVAL ( #16, 'UNSPECIFIED' ) ;
#265 = DIRECTION ( 'NONE',  ( 0.0000000000000000000, 1.000000000000000000, 0.0000000000000000000 ) ) ;
#266 = DIRECTION ( 'NONE',  ( 4.275831445896960358E-31, 1.000000000000000000, 1.224646799147353454E-16 ) ) ;
#267 = CARTESIAN_POINT ( 'NONE',  ( 2.129803616694311221E-13, -7.470345474798856659E-15, 61.00000000000000000 ) ) ;
#268 = FACE_OUTER_BOUND ( 'NONE', #39, .T. ) ;
#269 = CC_DESIGN_APPROVAL ( #264, ( #293 ) ) ;
#270 = CARTESIAN_POINT ( 'NONE',  ( 3.612429800294234159E-14, -1.267069808696350687E-15, 10.34641016151378423 ) ) ;
#271 = DIRECTION ( 'NONE',  ( -3.491481338843133355E-15, 1.224646799147353454E-16, -1.000000000000000000 ) ) ;
#272 = CARTESIAN_POINT ( 'NONE',  ( 8.849961221477469775E-14, 1.235384493975577813, 25.34729635533384595 ) ) ;
#273 = CONICAL_SURFACE ( 'NONE', #203, 1.499999999999996003, 0.1745329251994263697 ) ;
#274 = VERTEX_POINT ( 'NONE', #190 ) ;
#275 = EDGE_LOOP ( 'NONE', ( #123 ) ) ;
#276 = DIRECTION ( 'NONE',  ( 1.000000000000000000, 0.0000000000000000000, 0.0000000000000000000 ) ) ;
#277 = ORIENTED_EDGE ( 'NONE', *, *, #161, .F. ) ;
#278 = AXIS2_PLACEMENT_3D ( 'NONE', #18, #50, #97 ) ;
#279 = LOCAL_TIME ( 8, 16, 30.00000000000000000, #193 ) ;
#280 = PERSON_AND_ORGANIZATION_ROLE ( 'design_supplier' ) ;
#281 = CALENDAR_DATE ( 2021, 2, 12 ) ;
#282 = FACE_OUTER_BOUND ( 'NONE', #102, .T. ) ;
#283 = APPROVAL_STATUS ( 'not_yet_approved' ) ;
#284 = CC_DESIGN_APPROVAL ( #210, ( #164 ) ) ;
#285 = ADVANCED_FACE ( 'NONE', ( #243 ), #234, .T. ) ;
#286 = DIRECTION ( 'NONE',  ( -3.491481338843133355E-15, 1.224646799147353454E-16, -1.000000000000000000 ) ) ;
#287 = DIRECTION ( 'NONE',  ( 0.0000000000000000000, 1.000000000000000000, 0.0000000000000000000 ) ) ;
#288 = DIRECTION ( 'NONE',  ( -3.491481338843133355E-15, 1.224646799147353454E-16, -1.000000000000000000 ) ) ;
#289 = DIRECTION ( 'NONE',  ( 0.0000000000000000000, 1.000000000000000000, 0.0000000000000000000 ) ) ;
#290 = AXIS2_PLACEMENT_3D ( 'NONE', #263, #301, #224 ) ;
#291 = EDGE_CURVE ( 'NONE', #274, #274, #86, .T. ) ;
#292 = CARTESIAN_POINT ( 'NONE',  ( 9.373931006215273307E-14, 1.499999999999992673, 26.84800546383911168 ) ) ;
#293 = PRODUCT_DEFINITION ( 'UNKNOWN', '', #172, #76 ) ;
#294 = CALENDAR_DATE ( 2021, 2, 12 ) ;
#295 = CIRCLE ( 'NONE', #240, 1.204999999999998295 ) ;
#296 =( NAMED_UNIT ( * ) PLANE_ANGLE_UNIT ( ) SI_UNIT ( $, .RADIAN. ) );
#297 = EDGE_LOOP ( 'NONE', ( #142 ) ) ;
#298 = UNCERTAINTY_MEASURE_WITH_UNIT (LENGTH_MEASURE( 1.000000000000000082E-05 ), #104, 'distance_accuracy_value', 'NONE');
#299 = CLOSED_SHELL ( 'NONE', ( #151, #23, #196, #91, #70, #173, #120, #12 ) ) ;
#300 = CC_DESIGN_APPROVAL ( #99, ( #172 ) ) ;
#301 = DIRECTION ( 'NONE',  ( 3.491481338843133355E-15, -1.224646799147353454E-16, 1.000000000000000000 ) ) ;
#302 = APPROVAL_STATUS ( 'not_yet_approved' ) ;
#303 = DIRECTION ( 'NONE',  ( -3.491481338843133355E-15, 1.224646799147353454E-16, -1.000000000000000000 ) ) ;
ENDSEC;
END-ISO-10303-21;
