ISO-10303-21;
HEADER;
FILE_DESCRIPTION (( 'STEP AP203' ),
    '1' );
FILE_NAME ('327103.step',
    '2021-12-02T07:16:30',
    ( '' ),
    ( '' ),
    'SwSTEP 2.0',
    'SolidWorks 2019',
    '' );
FILE_SCHEMA (( 'CONFIG_CONTROL_DESIGN' ));
ENDSEC;

DATA;
#1 = APPROVAL_STATUS ( 'not_yet_approved' ) ;
#2 = FACE_OUTER_BOUND ( 'NONE', #225, .T. ) ;
#3 = FACE_OUTER_BOUND ( 'NONE', #250, .T. ) ;
#4 = CC_DESIGN_APPROVAL ( #154, ( #213 ) ) ;
#5 = EDGE_CURVE ( 'NONE', #27, #27, #228, .T. ) ;
#6 = CARTESIAN_POINT ( 'NONE',  ( 7.015765629139794525E-31, -2.460799324833534841E-32, 2.009395138701900400E-16 ) ) ;
#7 = VERTEX_POINT ( 'NONE', #223 ) ;
#8 = CARTESIAN_POINT ( 'NONE',  ( 1.892735826383161488E-30, 1.145000000000001572, 5.421010862427522170E-16 ) ) ;
#9 = CIRCLE ( 'NONE', #129, 1.195000000000000284 ) ;
#10 = PRODUCT_DEFINITION ( 'UNKNOWN', '', #35, #68 ) ;
#11 = CARTESIAN_POINT ( 'NONE',  ( 3.612429800294234159E-14, -1.267069808696350687E-15, 10.34641016151378423 ) ) ;
#12 = EDGE_LOOP ( 'NONE', ( #202 ) ) ;
#13 = APPLICATION_PROTOCOL_DEFINITION ( 'international standard', 'config_control_design', 1994, #146 ) ;
#14 = EDGE_LOOP ( 'NONE', ( #157 ) ) ;
#15 = ADVANCED_FACE ( 'NONE', ( #112, #180 ), #296, .T. ) ;
#16 = AXIS2_PLACEMENT_3D ( 'NONE', #6, #147, #266 ) ;
#17 = EDGE_LOOP ( 'NONE', ( #203 ) ) ;
#18 = APPROVAL_STATUS ( 'not_yet_approved' ) ;
#19 = FACE_OUTER_BOUND ( 'NONE', #17, .T. ) ;
#20 = PERSON_AND_ORGANIZATION ( #92, #204 ) ;
#21 = EDGE_CURVE ( 'NONE', #249, #249, #9, .T. ) ;
#22 = DATE_TIME_ROLE ( 'classification_date' ) ;
#23 = DIRECTION ( 'NONE',  ( -3.491481338843133355E-15, 1.224646799147353454E-16, -1.000000000000000000 ) ) ;
#24 = DIRECTION ( 'NONE',  ( 4.275831445896959482E-31, 1.000000000000000000, 1.224646799147353454E-16 ) ) ;
#25 = DIRECTION ( 'NONE',  ( 3.491481338843133355E-15, -1.224646799147353454E-16, 1.000000000000000000 ) ) ;
#26 = PLANE ( 'NONE',  #16 ) ;
#27 = VERTEX_POINT ( 'NONE', #101 ) ;
#28 = AXIS2_PLACEMENT_3D ( 'NONE', #215, #212, #303 ) ;
#29 = CARTESIAN_POINT ( 'NONE',  ( 2.119329172677781757E-13, 1.499999999999995559, 60.69999999999999574 ) ) ;
#30 = ADVANCED_FACE ( 'NONE', ( #128 ), #84, .T. ) ;
#31 = VERTEX_POINT ( 'NONE', #32 ) ;
#32 = CARTESIAN_POINT ( 'NONE',  ( 8.728703347107833388E-16, 1.394999999999998685, 0.2500000000000000000 ) ) ;
#33 = ADVANCED_FACE ( 'NONE', ( #52, #19 ), #238, .T. ) ;
#34 = DIRECTION ( 'NONE',  ( -3.491481338843133355E-15, 1.224646799147353454E-16, -1.000000000000000000 ) ) ;
#35 = PRODUCT_DEFINITION_FORMATION_WITH_SPECIFIED_SOURCE ( 'ANY', '', #69, .NOT_KNOWN. ) ;
#36 = AXIS2_PLACEMENT_3D ( 'NONE', #265, #145, #284 ) ;
#37 = EDGE_LOOP ( 'NONE', ( #109 ) ) ;
#38 = ORIENTED_EDGE ( 'NONE', *, *, #21, .T. ) ;
#39 = MECHANICAL_CONTEXT ( 'NONE', #247, 'mechanical' ) ;
#40 = DIRECTION ( 'NONE',  ( -3.491481338843133355E-15, 1.224646799147353454E-16, -1.000000000000000000 ) ) ;
#41 = AXIS2_PLACEMENT_3D ( 'NONE', #263, #144, #93 ) ;
#42 = APPROVAL_DATE_TIME ( #299, #81 ) ;
#43 = CARTESIAN_POINT ( 'NONE',  ( 8.728703347107833388E-14, -3.035766082959412415E-15, 25.00000000000000000 ) ) ;
#44 = CALENDAR_DATE ( 2021, 2, 12 ) ;
#45 = PLANE ( 'NONE',  #28 ) ;
#46 = EDGE_CURVE ( 'NONE', #198, #198, #205, .T. ) ;
#47 = PERSON_AND_ORGANIZATION ( #92, #204 ) ;
#48 = DIRECTION ( 'NONE',  ( -3.491481338843133355E-15, 1.224646799147353454E-16, -1.000000000000000000 ) ) ;
#49 = CC_DESIGN_SECURITY_CLASSIFICATION ( #213, ( #35 ) ) ;
#50 = DIRECTION ( 'NONE',  ( 0.0000000000000000000, 1.000000000000000000, 0.0000000000000000000 ) ) ;
#51 = CALENDAR_DATE ( 2021, 2, 12 ) ;
#52 = FACE_OUTER_BOUND ( 'NONE', #206, .T. ) ;
#53 = ADVANCED_FACE ( 'NONE', ( #73, #186 ), #99, .T. ) ;
#54 = FACE_OUTER_BOUND ( 'NONE', #276, .T. ) ;
#55 = VERTEX_POINT ( 'NONE', #8 ) ;
#56 = AXIS2_PLACEMENT_3D ( 'NONE', #193, #233, #286 ) ;
#57 = VERTEX_POINT ( 'NONE', #29 ) ;
#58 = PERSON_AND_ORGANIZATION ( #92, #204 ) ;
#59 = ORIENTED_EDGE ( 'NONE', *, *, #245, .F. ) ;
#60 = EDGE_LOOP ( 'NONE', ( #86 ) ) ;
#61 = LOCAL_TIME ( 8, 16, 30.00000000000000000, #166 ) ;
#62 = AXIS2_PLACEMENT_3D ( 'NONE', #169, #168, #121 ) ;
#63 = ORIENTED_EDGE ( 'NONE', *, *, #179, .F. ) ;
#64 = ORIENTED_EDGE ( 'NONE', *, *, #46, .T. ) ;
#65 = CIRCLE ( 'NONE', #41, 1.145000000000001572 ) ;
#66 = CALENDAR_DATE ( 2021, 2, 12 ) ;
#67 = CARTESIAN_POINT ( 'NONE',  ( 3.491481338843133355E-14, -1.224646799147353454E-15, 10.00000000000000000 ) ) ;
#68 = DESIGN_CONTEXT ( 'detailed design', #146, 'design' ) ;
#69 = PRODUCT ( '327103', '327103', '', ( #39 ) ) ;
#70 = DATE_AND_TIME ( #66, #199 ) ;
#71 = CARTESIAN_POINT ( 'NONE',  ( 8.849961221477468513E-14, -3.104148534859897150E-15, 25.34729635533384240 ) ) ;
#72 = SHAPE_DEFINITION_REPRESENTATION ( #115, #105 ) ;
#73 = FACE_OUTER_BOUND ( 'NONE', #229, .T. ) ;
#74 = MANIFOLD_SOLID_BREP ( 'Corps-Déplacer/Copier1[1]', #149 ) ;
#75 = AXIS2_PLACEMENT_3D ( 'NONE', #43, #23, #219 ) ;
#76 = CARTESIAN_POINT ( 'NONE',  ( 0.0000000000000000000, 0.0000000000000000000, 0.0000000000000000000 ) ) ;
#77 = CYLINDRICAL_SURFACE ( 'NONE', #174, 1.394999999999999352 ) ;
#78 = CARTESIAN_POINT ( 'NONE',  ( 9.393732180855788911E-14, -3.294877712605579196E-15, 26.90471828203528659 ) ) ;
#79 =( NAMED_UNIT ( * ) SI_UNIT ( $, .STERADIAN. ) SOLID_ANGLE_UNIT ( ) );
#80 = CIRCLE ( 'NONE', #62, 1.500000000000002887 ) ;
#81 = APPROVAL ( #181, 'UNSPECIFIED' ) ;
#82 = ORIENTED_EDGE ( 'NONE', *, *, #21, .F. ) ;
#83 = CARTESIAN_POINT ( 'NONE',  ( 0.0000000000000000000, 0.0000000000000000000, 0.0000000000000000000 ) ) ;
#84 = PLANE ( 'NONE',  #226 ) ;
#85 = CC_DESIGN_PERSON_AND_ORGANIZATION_ASSIGNMENT ( #216, #113, ( #213 ) ) ;
#86 = ORIENTED_EDGE ( 'NONE', *, *, #270, .T. ) ;
#87 = ORIENTED_EDGE ( 'NONE', *, *, #270, .F. ) ;
#88 = EDGE_LOOP ( 'NONE', ( #230 ) ) ;
#89 = CC_DESIGN_PERSON_AND_ORGANIZATION_ASSIGNMENT ( #273, #130, ( #69 ) ) ;
#90 = PERSON_AND_ORGANIZATION ( #92, #204 ) ;
#91 = CARTESIAN_POINT ( 'NONE',  ( 2.129803616694311221E-13, -7.470345474798856659E-15, 61.00000000000000000 ) ) ;
#92 = PERSON ( 'UNSPECIFIED', 'UNSPECIFIED', 'UNSPECIFIED', ('UNSPECIFIED'), ('UNSPECIFIED'), ('UNSPECIFIED') ) ;
#93 = DIRECTION ( 'NONE',  ( 4.275831445896958607E-31, 1.000000000000000000, 1.224646799147353454E-16 ) ) ;
#94 = COORDINATED_UNIVERSAL_TIME_OFFSET ( 1, 0, .AHEAD. ) ;
#95 = CARTESIAN_POINT ( 'NONE',  ( 3.612429800294234159E-14, -1.267069808696350687E-15, 10.34641016151378423 ) ) ;
#96 = ADVANCED_FACE ( 'NONE', ( #188, #241 ), #264, .T. ) ;
#97 = DIRECTION ( 'NONE',  ( 0.0000000000000000000, 1.000000000000000000, 0.0000000000000000000 ) ) ;
#98 = AXIS2_PLACEMENT_3D ( 'NONE', #76, #114, #210 ) ;
#99 = CYLINDRICAL_SURFACE ( 'NONE', #275, 1.194999999999999396 ) ;
#100 = PLANE ( 'NONE',  #136 ) ;
#101 = CARTESIAN_POINT ( 'NONE',  ( 3.491481338843133355E-14, 1.394999999999998685, 10.00000000000000000 ) ) ;
#102 = PRODUCT_RELATED_PRODUCT_CATEGORY ( 'detail', '', ( #69 ) ) ;
#103 = VERTEX_POINT ( 'NONE', #196 ) ;
#104 = EDGE_CURVE ( 'NONE', #57, #57, #80, .T. ) ;
#105 = ADVANCED_BREP_SHAPE_REPRESENTATION ( '327103', ( #74, #172, #220 ), #272 ) ;
#106 = APPROVAL_PERSON_ORGANIZATION ( #20, #259, #302 ) ;
#107 = EDGE_LOOP ( 'NONE', ( #132 ) ) ;
#108 = DIRECTION ( 'NONE',  ( -3.491481338843133355E-15, 1.224646799147353454E-16, -1.000000000000000000 ) ) ;
#109 = ORIENTED_EDGE ( 'NONE', *, *, #179, .T. ) ;
#110 = CC_DESIGN_APPROVAL ( #259, ( #35 ) ) ;
#111 = AXIS2_PLACEMENT_3D ( 'NONE', #78, #269, #173 ) ;
#112 = FACE_OUTER_BOUND ( 'NONE', #182, .T. ) ;
#113 = PERSON_AND_ORGANIZATION_ROLE ( 'classification_officer' ) ;
#114 = DIRECTION ( 'NONE',  ( -3.491481338843133355E-15, 1.224646799147353454E-16, -1.000000000000000000 ) ) ;
#115 = PRODUCT_DEFINITION_SHAPE ( 'NONE', 'NONE',  #10 ) ;
#116 = CALENDAR_DATE ( 2021, 2, 12 ) ;
#117 = DIRECTION ( 'NONE',  ( 0.0000000000000000000, 1.000000000000000000, 0.0000000000000000000 ) ) ;
#118 = APPROVAL_ROLE ( '' ) ;
#119 = FACE_OUTER_BOUND ( 'NONE', #14, .T. ) ;
#120 = PERSON_AND_ORGANIZATION_ROLE ( 'design_supplier' ) ;
#121 = DIRECTION ( 'NONE',  ( 0.0000000000000000000, 1.000000000000000000, 0.0000000000000000000 ) ) ;
#122 = CONICAL_SURFACE ( 'NONE', #111, 1.499999999999996003, 0.1745329251994262587 ) ;
#123 = DIRECTION ( 'NONE',  ( -3.491481338843133355E-15, 1.224646799147353454E-16, -1.000000000000000000 ) ) ;
#124 = EDGE_CURVE ( 'NONE', #31, #31, #126, .T. ) ;
#125 = CARTESIAN_POINT ( 'NONE',  ( 3.491481338843133355E-14, 1.394999999999998685, 10.00000000000000000 ) ) ;
#126 = CIRCLE ( 'NONE', #56, 1.394999999999998685 ) ;
#127 = CARTESIAN_POINT ( 'NONE',  ( 8.728703347107833388E-14, 1.194999999999997176, 25.00000000000000000 ) ) ;
#128 = FACE_OUTER_BOUND ( 'NONE', #201, .T. ) ;
#129 = AXIS2_PLACEMENT_3D ( 'NONE', #177, #108, #293 ) ;
#130 = PERSON_AND_ORGANIZATION_ROLE ( 'design_owner' ) ;
#131 = EDGE_LOOP ( 'NONE', ( #292 ) ) ;
#132 = ORIENTED_EDGE ( 'NONE', *, *, #135, .F. ) ;
#133 = LOCAL_TIME ( 8, 16, 30.00000000000000000, #94 ) ;
#134 = LOCAL_TIME ( 8, 16, 30.00000000000000000, #185 ) ;
#135 = EDGE_CURVE ( 'NONE', #7, #7, #207, .T. ) ;
#136 = AXIS2_PLACEMENT_3D ( 'NONE', #221, #123, #242 ) ;
#137 = PERSON_AND_ORGANIZATION ( #92, #204 ) ;
#138 = DIRECTION ( 'NONE',  ( 4.275831445896959482E-31, 1.000000000000000000, 1.224646799147353454E-16 ) ) ;
#139 = DIRECTION ( 'NONE',  ( -3.491481338843133355E-15, 1.224646799147353454E-16, -1.000000000000000000 ) ) ;
#140 = ADVANCED_FACE ( 'NONE', ( #164, #119 ), #197, .T. ) ;
#141 = SECURITY_CLASSIFICATION_LEVEL ( 'unclassified' ) ;
#142 = CARTESIAN_POINT ( 'NONE',  ( 0.0000000000000000000, 0.0000000000000000000, 0.0000000000000000000 ) ) ;
#143 = APPROVAL_DATE_TIME ( #282, #154 ) ;
#144 = DIRECTION ( 'NONE',  ( -3.491481338843133355E-15, 1.224646799147353454E-16, -1.000000000000000000 ) ) ;
#145 = DIRECTION ( 'NONE',  ( -3.491481338843133355E-15, 1.224646799147353454E-16, -1.000000000000000000 ) ) ;
#146 = APPLICATION_CONTEXT ( 'configuration controlled 3d designs of mechanical parts and assemblies' ) ;
#147 = DIRECTION ( 'NONE',  ( 3.491481338843133355E-15, -1.224646799147353454E-16, 1.000000000000000000 ) ) ;
#148 = CARTESIAN_POINT ( 'NONE',  ( 2.129803616694311221E-13, 1.199999999999995515, 61.00000000000000000 ) ) ;
#149 = CLOSED_SHELL ( 'NONE', ( #192, #15, #53, #150, #268, #33, #96, #262 ) ) ;
#150 = ADVANCED_FACE ( 'NONE', ( #261, #2 ), #252, .F. ) ;
#151 = VERTEX_POINT ( 'NONE', #267 ) ;
#152 = CLOSED_SHELL ( 'NONE', ( #251, #140, #211, #30 ) ) ;
#153 = ORIENTED_EDGE ( 'NONE', *, *, #5, .F. ) ;
#154 = APPROVAL ( #1, 'UNSPECIFIED' ) ;
#155 = EDGE_LOOP ( 'NONE', ( #38 ) ) ;
#156 = AXIS2_PLACEMENT_3D ( 'NONE', #257, #34, #208 ) ;
#157 = ORIENTED_EDGE ( 'NONE', *, *, #124, .T. ) ;
#158 = CC_DESIGN_DATE_AND_TIME_ASSIGNMENT ( #209, #22, ( #213 ) ) ;
#159 = DIRECTION ( 'NONE',  ( 1.000000000000000000, 0.0000000000000000000, 0.0000000000000000000 ) ) ;
#160 = ORIENTED_EDGE ( 'NONE', *, *, #245, .T. ) ;
#161 = COORDINATED_UNIVERSAL_TIME_OFFSET ( 1, 0, .AHEAD. ) ;
#162 = DIRECTION ( 'NONE',  ( 0.0000000000000000000, 1.000000000000000000, 0.0000000000000000000 ) ) ;
#163 = CIRCLE ( 'NONE', #258, 1.200000000000002842 ) ;
#164 = FACE_BOUND ( 'NONE', #254, .T. ) ;
#165 = DIRECTION ( 'NONE',  ( -3.491481338843133355E-15, 1.224646799147353454E-16, -1.000000000000000000 ) ) ;
#166 = COORDINATED_UNIVERSAL_TIME_OFFSET ( 1, 0, .AHEAD. ) ;
#167 = FACE_OUTER_BOUND ( 'NONE', #131, .T. ) ;
#168 = DIRECTION ( 'NONE',  ( -3.491481338843133355E-15, 1.224646799147353454E-16, -1.000000000000000000 ) ) ;
#169 = CARTESIAN_POINT ( 'NONE',  ( 2.119329172677781757E-13, -7.433606070824434221E-15, 60.69999999999999574 ) ) ;
#170 = LOCAL_TIME ( 8, 16, 30.00000000000000000, #161 ) ;
#171 = DIRECTION ( 'NONE',  ( -3.491481338843133355E-15, 1.224646799147353454E-16, -1.000000000000000000 ) ) ;
#172 = MANIFOLD_SOLID_BREP ( 'Corps-Déplacer/Copier1[2]', #152 ) ;
#173 = DIRECTION ( 'NONE',  ( 0.0000000000000000000, -1.000000000000000000, 0.0000000000000000000 ) ) ;
#174 = AXIS2_PLACEMENT_3D ( 'NONE', #301, #183, #138 ) ;
#175 = EDGE_LOOP ( 'NONE', ( #160 ) ) ;
#176 = CC_DESIGN_PERSON_AND_ORGANIZATION_ASSIGNMENT ( #187, #239, ( #35 ) ) ;
#177 = CARTESIAN_POINT ( 'NONE',  ( 8.728703347107833388E-14, -3.061616997868383831E-15, 25.00000000000000000 ) ) ;
#178 = EDGE_LOOP ( 'NONE', ( #82 ) ) ;
#179 = EDGE_CURVE ( 'NONE', #289, #289, #163, .T. ) ;
#180 = FACE_BOUND ( 'NONE', #12, .T. ) ;
#181 = APPROVAL_STATUS ( 'not_yet_approved' ) ;
#182 = EDGE_LOOP ( 'NONE', ( #274 ) ) ;
#183 = DIRECTION ( 'NONE',  ( -3.491481338843133355E-15, 1.224646799147353454E-16, -1.000000000000000000 ) ) ;
#184 = CC_DESIGN_APPROVAL ( #81, ( #10 ) ) ;
#185 = COORDINATED_UNIVERSAL_TIME_OFFSET ( 1, 0, .AHEAD. ) ;
#186 = FACE_OUTER_BOUND ( 'NONE', #155, .T. ) ;
#187 = PERSON_AND_ORGANIZATION ( #92, #204 ) ;
#188 = FACE_OUTER_BOUND ( 'NONE', #88, .T. ) ;
#189 = CALENDAR_DATE ( 2021, 2, 12 ) ;
#190 = DIRECTION ( 'NONE',  ( -4.141784826639221201E-31, -1.000000000000000000, -1.165808787618823186E-16 ) ) ;
#191 = AXIS2_PLACEMENT_3D ( 'NONE', #11, #40, #162 ) ;
#192 = ADVANCED_FACE ( 'NONE', ( #260 ), #45, .F. ) ;
#193 = CARTESIAN_POINT ( 'NONE',  ( 8.728703347107827472E-16, -3.061616997868381785E-17, 0.2499999999999998335 ) ) ;
#194 = FACE_BOUND ( 'NONE', #107, .T. ) ;
#195 = DIRECTION ( 'NONE',  ( 0.0000000000000000000, 1.000000000000000000, 0.0000000000000000000 ) ) ;
#196 = CARTESIAN_POINT ( 'NONE',  ( 9.393732180855788911E-14, 1.499999999999992673, 26.90471828203528659 ) ) ;
#197 = CONICAL_SURFACE ( 'NONE', #291, 1.394999999999998685, 0.7853981633974437271 ) ;
#198 = VERTEX_POINT ( 'NONE', #125 ) ;
#199 = LOCAL_TIME ( 8, 16, 30.00000000000000000, #256 ) ;
#200 = AXIS2_PLACEMENT_3D ( 'NONE', #95, #139, #50 ) ;
#201 = EDGE_LOOP ( 'NONE', ( #153 ) ) ;
#202 = ORIENTED_EDGE ( 'NONE', *, *, #234, .T. ) ;
#203 = ORIENTED_EDGE ( 'NONE', *, *, #104, .T. ) ;
#204 = ORGANIZATION ( 'UNSPECIFIED', 'UNSPECIFIED', '' ) ;
#205 = CIRCLE ( 'NONE', #300, 1.395000000000000018 ) ;
#206 = EDGE_LOOP ( 'NONE', ( #87 ) ) ;
#207 = CIRCLE ( 'NONE', #271, 1.225384493975581357 ) ;
#208 = DIRECTION ( 'NONE',  ( 0.0000000000000000000, 1.000000000000000000, 0.0000000000000000000 ) ) ;
#209 = DATE_AND_TIME ( #51, #61 ) ;
#210 = DIRECTION ( 'NONE',  ( 4.275831445896960358E-31, 1.000000000000000000, 1.224646799147353454E-16 ) ) ;
#211 = ADVANCED_FACE ( 'NONE', ( #167, #3 ), #77, .T. ) ;
#212 = DIRECTION ( 'NONE',  ( 3.491481338843133355E-15, -1.224646799147353454E-16, 1.000000000000000000 ) ) ;
#213 = SECURITY_CLASSIFICATION ( '', '', #141 ) ;
#214 = UNCERTAINTY_MEASURE_WITH_UNIT (LENGTH_MEASURE( 1.000000000000000082E-05 ), #244, 'distance_accuracy_value', 'NONE');
#215 = CARTESIAN_POINT ( 'NONE',  ( 3.491481338843133355E-14, 1.046082448406644149E-32, 10.00000000000000000 ) ) ;
#216 = PERSON_AND_ORGANIZATION ( #92, #204 ) ;
#217 = DIRECTION ( 'NONE',  ( 0.0000000000000000000, 1.000000000000000000, 0.0000000000000000000 ) ) ;
#218 = CC_DESIGN_PERSON_AND_ORGANIZATION_ASSIGNMENT ( #47, #120, ( #35 ) ) ;
#219 = DIRECTION ( 'NONE',  ( 4.275831445896959482E-31, 1.000000000000000000, 1.224646799147353454E-16 ) ) ;
#220 = AXIS2_PLACEMENT_3D ( 'NONE', #83, #255, #159 ) ;
#221 = CARTESIAN_POINT ( 'NONE',  ( 2.129803616694311221E-13, 8.998558695971062171E-33, 61.00000000000000000 ) ) ;
#222 = APPLICATION_PROTOCOL_DEFINITION ( 'international standard', 'config_control_design', 1994, #247 ) ;
#223 = CARTESIAN_POINT ( 'NONE',  ( 8.849961221477468513E-14, 1.225384493975578248, 25.34729635533384240 ) ) ;
#224 = CC_DESIGN_DATE_AND_TIME_ASSIGNMENT ( #70, #235, ( #10 ) ) ;
#225 = EDGE_LOOP ( 'NONE', ( #227 ) ) ;
#226 = AXIS2_PLACEMENT_3D ( 'NONE', #277, #253, #281 ) ;
#227 = ORIENTED_EDGE ( 'NONE', *, *, #135, .T. ) ;
#228 = CIRCLE ( 'NONE', #156, 1.395000000000000018 ) ;
#229 = EDGE_LOOP ( 'NONE', ( #294 ) ) ;
#230 = ORIENTED_EDGE ( 'NONE', *, *, #104, .F. ) ;
#231 = CIRCLE ( 'NONE', #200, 1.194999999999998286 ) ;
#232 = APPROVAL_DATE_TIME ( #237, #259 ) ;
#233 = DIRECTION ( 'NONE',  ( -3.491481338843133355E-15, 1.224646799147353454E-16, -1.000000000000000000 ) ) ;
#234 = EDGE_CURVE ( 'NONE', #151, #151, #231, .T. ) ;
#235 = DATE_TIME_ROLE ( 'creation_date' ) ;
#236 = CARTESIAN_POINT ( 'NONE',  ( 8.728703347107827472E-16, -3.061616997868381785E-17, 0.2499999999999998335 ) ) ;
#237 = DATE_AND_TIME ( #189, #133 ) ;
#238 = CYLINDRICAL_SURFACE ( 'NONE', #98, 1.499999999999999334 ) ;
#239 = PERSON_AND_ORGANIZATION_ROLE ( 'creator' ) ;
#240 = FACE_OUTER_BOUND ( 'NONE', #175, .T. ) ;
#241 = FACE_BOUND ( 'NONE', #37, .T. ) ;
#242 = DIRECTION ( 'NONE',  ( 4.275831445896959482E-31, 1.000000000000000000, 1.224646799147353454E-16 ) ) ;
#243 = APPROVAL_PERSON_ORGANIZATION ( #58, #81, #278 ) ;
#244 =( LENGTH_UNIT ( ) NAMED_UNIT ( * ) SI_UNIT ( .MILLI., .METRE. ) );
#245 = EDGE_CURVE ( 'NONE', #55, #55, #65, .T. ) ;
#246 = CARTESIAN_POINT ( 'NONE',  ( 9.393732180855788911E-14, -3.294877712605579196E-15, 26.90471828203528659 ) ) ;
#247 = APPLICATION_CONTEXT ( 'configuration controlled 3d designs of mechanical parts and assemblies' ) ;
#248 = CIRCLE ( 'NONE', #285, 1.499999999999996003 ) ;
#249 = VERTEX_POINT ( 'NONE', #127 ) ;
#250 = EDGE_LOOP ( 'NONE', ( #297 ) ) ;
#251 = ADVANCED_FACE ( 'NONE', ( #240 ), #26, .F. ) ;
#252 = TOROIDAL_SURFACE ( 'NONE', #75, 3.195000000000000284, 2.000000000000000000 ) ;
#253 = DIRECTION ( 'NONE',  ( 3.491481338843133355E-15, -1.224646799147353454E-16, 1.000000000000000000 ) ) ;
#254 = EDGE_LOOP ( 'NONE', ( #59 ) ) ;
#255 = DIRECTION ( 'NONE',  ( 0.0000000000000000000, 0.0000000000000000000, 1.000000000000000000 ) ) ;
#256 = COORDINATED_UNIVERSAL_TIME_OFFSET ( 1, 0, .AHEAD. ) ;
#257 = CARTESIAN_POINT ( 'NONE',  ( 3.491481338843133355E-14, -1.224646799147353454E-15, 10.00000000000000000 ) ) ;
#258 = AXIS2_PLACEMENT_3D ( 'NONE', #91, #165, #97 ) ;
#259 = APPROVAL ( #18, 'UNSPECIFIED' ) ;
#260 = FACE_OUTER_BOUND ( 'NONE', #279, .T. ) ;
#261 = FACE_OUTER_BOUND ( 'NONE', #178, .T. ) ;
#262 = ADVANCED_FACE ( 'NONE', ( #54 ), #100, .F. ) ;
#263 = CARTESIAN_POINT ( 'NONE',  ( 1.403153125827958905E-30, -4.921598649667069682E-32, 4.018790277403800799E-16 ) ) ;
#264 = CONICAL_SURFACE ( 'NONE', #36, 1.200000000000002842, 0.7853981633974453924 ) ;
#265 = CARTESIAN_POINT ( 'NONE',  ( 2.129803616694311221E-13, -7.470345474798856659E-15, 61.00000000000000000 ) ) ;
#266 = DIRECTION ( 'NONE',  ( -4.275831445896959482E-31, -1.000000000000000000, -1.224646799147353454E-16 ) ) ;
#267 = CARTESIAN_POINT ( 'NONE',  ( 3.612429800294234159E-14, 1.194999999999996954, 10.34641016151378423 ) ) ;
#268 = ADVANCED_FACE ( 'NONE', ( #194, #287 ), #122, .T. ) ;
#269 = DIRECTION ( 'NONE',  ( 3.491481338843133355E-15, -1.224646799147353454E-16, 1.000000000000000000 ) ) ;
#270 = EDGE_CURVE ( 'NONE', #103, #103, #248, .T. ) ;
#271 = AXIS2_PLACEMENT_3D ( 'NONE', #71, #283, #217 ) ;
#272 =( GEOMETRIC_REPRESENTATION_CONTEXT ( 3 ) GLOBAL_UNCERTAINTY_ASSIGNED_CONTEXT ( ( #214 ) ) GLOBAL_UNIT_ASSIGNED_CONTEXT ( ( #244, #290, #79 ) ) REPRESENTATION_CONTEXT ( 'NONE', 'WORKASPACE' ) );
#273 = PERSON_AND_ORGANIZATION ( #92, #204 ) ;
#274 = ORIENTED_EDGE ( 'NONE', *, *, #46, .F. ) ;
#275 = AXIS2_PLACEMENT_3D ( 'NONE', #142, #298, #24 ) ;
#276 = EDGE_LOOP ( 'NONE', ( #63 ) ) ;
#277 = CARTESIAN_POINT ( 'NONE',  ( 3.491481338843133355E-14, 1.046082448406644149E-32, 10.00000000000000000 ) ) ;
#278 = APPROVAL_ROLE ( '' ) ;
#279 = EDGE_LOOP ( 'NONE', ( #64 ) ) ;
#280 = PERSON_AND_ORGANIZATION_ROLE ( 'creator' ) ;
#281 = DIRECTION ( 'NONE',  ( -4.275831445896959482E-31, -1.000000000000000000, -1.224646799147353454E-16 ) ) ;
#282 = DATE_AND_TIME ( #116, #134 ) ;
#283 = DIRECTION ( 'NONE',  ( -3.491481338843133355E-15, 1.224646799147353454E-16, -1.000000000000000000 ) ) ;
#284 = DIRECTION ( 'NONE',  ( 0.0000000000000000000, 1.000000000000000000, 0.0000000000000000000 ) ) ;
#285 = AXIS2_PLACEMENT_3D ( 'NONE', #246, #171, #195 ) ;
#286 = DIRECTION ( 'NONE',  ( 4.141784826639221201E-31, 1.000000000000000000, 1.165808787618823186E-16 ) ) ;
#287 = FACE_OUTER_BOUND ( 'NONE', #60, .T. ) ;
#288 = CC_DESIGN_PERSON_AND_ORGANIZATION_ASSIGNMENT ( #137, #280, ( #10 ) ) ;
#289 = VERTEX_POINT ( 'NONE', #148 ) ;
#290 =( NAMED_UNIT ( * ) PLANE_ANGLE_UNIT ( ) SI_UNIT ( $, .RADIAN. ) );
#291 = AXIS2_PLACEMENT_3D ( 'NONE', #236, #25, #190 ) ;
#292 = ORIENTED_EDGE ( 'NONE', *, *, #124, .F. ) ;
#293 = DIRECTION ( 'NONE',  ( 0.0000000000000000000, 1.000000000000000000, 0.0000000000000000000 ) ) ;
#294 = ORIENTED_EDGE ( 'NONE', *, *, #234, .F. ) ;
#295 = APPROVAL_PERSON_ORGANIZATION ( #90, #154, #118 ) ;
#296 = CONICAL_SURFACE ( 'NONE', #191, 1.194999999999998286, 0.5235987755982924874 ) ;
#297 = ORIENTED_EDGE ( 'NONE', *, *, #5, .T. ) ;
#298 = DIRECTION ( 'NONE',  ( -3.491481338843133355E-15, 1.224646799147353454E-16, -1.000000000000000000 ) ) ;
#299 = DATE_AND_TIME ( #44, #170 ) ;
#300 = AXIS2_PLACEMENT_3D ( 'NONE', #67, #48, #117 ) ;
#301 = CARTESIAN_POINT ( 'NONE',  ( 0.0000000000000000000, 0.0000000000000000000, 0.0000000000000000000 ) ) ;
#302 = APPROVAL_ROLE ( '' ) ;
#303 = DIRECTION ( 'NONE',  ( -4.275831445896959482E-31, -1.000000000000000000, -1.224646799147353454E-16 ) ) ;
ENDSEC;
END-ISO-10303-21;
