ISO-10303-21;
HEADER;
FILE_DESCRIPTION (( 'STEP AP203' ),
    '1' );
FILE_NAME ('327102.step',
    '2021-12-02T07:16:29',
    ( '' ),
    ( '' ),
    'SwSTEP 2.0',
    'SolidWorks 2019',
    '' );
FILE_SCHEMA (( 'CONFIG_CONTROL_DESIGN' ));
ENDSEC;

DATA;
#1 = DIRECTION ( 'NONE',  ( 1.000000000000000000, 0.0000000000000000000, 0.0000000000000000000 ) ) ;
#2 = DIRECTION ( 'NONE',  ( 0.0000000000000000000, 1.000000000000000000, 0.0000000000000000000 ) ) ;
#3 = CARTESIAN_POINT ( 'NONE',  ( 9.403632768176048606E-14, -3.298350371169309168E-15, 26.93307469113338115 ) ) ;
#4 = FACE_BOUND ( 'NONE', #200, .T. ) ;
#5 = VERTEX_POINT ( 'NONE', #170 ) ;
#6 = CC_DESIGN_DATE_AND_TIME_ASSIGNMENT ( #162, #229, ( #54 ) ) ;
#7 = DIRECTION ( 'NONE',  ( 0.0000000000000000000, 1.000000000000000000, 0.0000000000000000000 ) ) ;
#8 = EDGE_CURVE ( 'NONE', #129, #129, #178, .T. ) ;
#9 = DIRECTION ( 'NONE',  ( -3.491481338843133355E-15, 1.224646799147353454E-16, -1.000000000000000000 ) ) ;
#10 = EDGE_LOOP ( 'NONE', ( #67 ) ) ;
#11 = ORIENTED_EDGE ( 'NONE', *, *, #256, .T. ) ;
#12 = AXIS2_PLACEMENT_3D ( 'NONE', #189, #146, #53 ) ;
#13 = DATE_AND_TIME ( #260, #206 ) ;
#14 = DIRECTION ( 'NONE',  ( 0.0000000000000000000, 1.000000000000000000, 0.0000000000000000000 ) ) ;
#15 = EDGE_CURVE ( 'NONE', #217, #217, #199, .T. ) ;
#16 = PERSON_AND_ORGANIZATION ( #104, #249 ) ;
#17 = PLANE ( 'NONE',  #252 ) ;
#18 = CC_DESIGN_DATE_AND_TIME_ASSIGNMENT ( #121, #39, ( #123 ) ) ;
#19 = FACE_OUTER_BOUND ( 'NONE', #65, .T. ) ;
#20 = APPROVAL_DATE_TIME ( #13, #66 ) ;
#21 = FACE_OUTER_BOUND ( 'NONE', #296, .T. ) ;
#22 = PERSON_AND_ORGANIZATION_ROLE ( 'design_supplier' ) ;
#23 = DIRECTION ( 'NONE',  ( -3.491481338843133355E-15, 1.224646799147353454E-16, -1.000000000000000000 ) ) ;
#24 = CARTESIAN_POINT ( 'NONE',  ( 8.728703347107827472E-16, -3.061616997868381785E-17, 0.2499999999999998335 ) ) ;
#25 = VERTEX_POINT ( 'NONE', #125 ) ;
#26 = AXIS2_PLACEMENT_3D ( 'NONE', #171, #31, #264 ) ;
#27 =( NAMED_UNIT ( * ) PLANE_ANGLE_UNIT ( ) SI_UNIT ( $, .RADIAN. ) );
#28 = CARTESIAN_POINT ( 'NONE',  ( 8.849961221477469775E-14, 1.220384493975576357, 25.34729635533384595 ) ) ;
#29 = LOCAL_TIME ( 8, 16, 29.00000000000000000, #155 ) ;
#30 = AXIS2_PLACEMENT_3D ( 'NONE', #255, #89, #38 ) ;
#31 = DIRECTION ( 'NONE',  ( 3.491481338843133355E-15, -1.224646799147353454E-16, 1.000000000000000000 ) ) ;
#32 = ORIENTED_EDGE ( 'NONE', *, *, #118, .F. ) ;
#33 = AXIS2_PLACEMENT_3D ( 'NONE', #3, #23, #2 ) ;
#34 = EDGE_CURVE ( 'NONE', #288, #288, #97, .T. ) ;
#35 = ORIENTED_EDGE ( 'NONE', *, *, #82, .F. ) ;
#36 = APPLICATION_PROTOCOL_DEFINITION ( 'international standard', 'config_control_design', 1994, #241 ) ;
#37 = APPROVAL_DATE_TIME ( #115, #222 ) ;
#38 = DIRECTION ( 'NONE',  ( 4.275831445896959482E-31, 1.000000000000000000, 1.224646799147353454E-16 ) ) ;
#39 = DATE_TIME_ROLE ( 'classification_date' ) ;
#40 = DIRECTION ( 'NONE',  ( 4.275831445896959482E-31, 1.000000000000000000, 1.224646799147353454E-16 ) ) ;
#41 = COORDINATED_UNIVERSAL_TIME_OFFSET ( 1, 0, .AHEAD. ) ;
#42 = FACE_OUTER_BOUND ( 'NONE', #110, .T. ) ;
#43 = AXIS2_PLACEMENT_3D ( 'NONE', #290, #165, #1 ) ;
#44 = PERSON_AND_ORGANIZATION_ROLE ( 'design_owner' ) ;
#45 = DIRECTION ( 'NONE',  ( 0.0000000000000000000, 1.000000000000000000, 0.0000000000000000000 ) ) ;
#46 = PERSON_AND_ORGANIZATION_ROLE ( 'creator' ) ;
#47 = DIRECTION ( 'NONE',  ( 4.275831445896959482E-31, 1.000000000000000000, 1.224646799147353454E-16 ) ) ;
#48 = PLANE ( 'NONE',  #135 ) ;
#49 = PLANE ( 'NONE',  #26 ) ;
#50 = CC_DESIGN_APPROVAL ( #130, ( #123 ) ) ;
#51 = AXIS2_PLACEMENT_3D ( 'NONE', #230, #144, #140 ) ;
#52 =( LENGTH_UNIT ( ) NAMED_UNIT ( * ) SI_UNIT ( .MILLI., .METRE. ) );
#53 = DIRECTION ( 'NONE',  ( 4.156683333209866090E-31, 1.000000000000000000, 1.170002344408819011E-16 ) ) ;
#54 = PRODUCT_DEFINITION ( 'UNKNOWN', '', #117, #298 ) ;
#55 = EDGE_CURVE ( 'NONE', #103, #103, #259, .T. ) ;
#56 =( GEOMETRIC_REPRESENTATION_CONTEXT ( 3 ) GLOBAL_UNCERTAINTY_ASSIGNED_CONTEXT ( ( #71 ) ) GLOBAL_UNIT_ASSIGNED_CONTEXT ( ( #52, #27, #269 ) ) REPRESENTATION_CONTEXT ( 'NONE', 'WORKASPACE' ) );
#57 = AXIS2_PLACEMENT_3D ( 'NONE', #281, #163, #14 ) ;
#58 = PRODUCT_RELATED_PRODUCT_CATEGORY ( 'detail', '', ( #266 ) ) ;
#59 = MANIFOLD_SOLID_BREP ( 'Corps-Déplacer/Copier1[1]', #292 ) ;
#60 = CARTESIAN_POINT ( 'NONE',  ( 3.612429800294234159E-14, -1.267069808696350687E-15, 10.34641016151378423 ) ) ;
#61 = ORIENTED_EDGE ( 'NONE', *, *, #15, .T. ) ;
#62 = LOCAL_TIME ( 8, 16, 29.00000000000000000, #74 ) ;
#63 = ADVANCED_FACE ( 'NONE', ( #116, #142 ), #205, .T. ) ;
#64 = AXIS2_PLACEMENT_3D ( 'NONE', #150, #9, #85 ) ;
#65 = EDGE_LOOP ( 'NONE', ( #251 ) ) ;
#66 = APPROVAL ( #180, 'UNSPECIFIED' ) ;
#67 = ORIENTED_EDGE ( 'NONE', *, *, #55, .F. ) ;
#68 = APPROVAL_PERSON_ORGANIZATION ( #113, #222, #92 ) ;
#69 = PERSON_AND_ORGANIZATION ( #104, #249 ) ;
#70 = DIRECTION ( 'NONE',  ( 0.0000000000000000000, -1.000000000000000000, 0.0000000000000000000 ) ) ;
#71 = UNCERTAINTY_MEASURE_WITH_UNIT (LENGTH_MEASURE( 1.000000000000000082E-05 ), #52, 'distance_accuracy_value', 'NONE');
#72 = SHAPE_DEFINITION_REPRESENTATION ( #265, #225 ) ;
#73 = CYLINDRICAL_SURFACE ( 'NONE', #30, 1.189999999999998836 ) ;
#74 = COORDINATED_UNIVERSAL_TIME_OFFSET ( 1, 0, .AHEAD. ) ;
#75 = FACE_OUTER_BOUND ( 'NONE', #218, .T. ) ;
#76 = CARTESIAN_POINT ( 'NONE',  ( 9.403632768176048606E-14, -3.298350371169309168E-15, 26.93307469113338115 ) ) ;
#77 = CYLINDRICAL_SURFACE ( 'NONE', #231, 1.389999999999999236 ) ;
#78 = CARTESIAN_POINT ( 'NONE',  ( 3.491481338843133355E-14, 1.042333048949989477E-32, 10.00000000000000000 ) ) ;
#79 = DIRECTION ( 'NONE',  ( -3.491481338843133355E-15, 1.224646799147353454E-16, -1.000000000000000000 ) ) ;
#80 = ADVANCED_FACE ( 'NONE', ( #158 ), #91, .F. ) ;
#81 = APPROVAL_PERSON_ORGANIZATION ( #183, #66, #227 ) ;
#82 = EDGE_CURVE ( 'NONE', #25, #25, #219, .T. ) ;
#83 = CIRCLE ( 'NONE', #268, 1.140000000000001679 ) ;
#84 = DIRECTION ( 'NONE',  ( -3.491481338843133355E-15, 1.224646799147353454E-16, -1.000000000000000000 ) ) ;
#85 = DIRECTION ( 'NONE',  ( 0.0000000000000000000, 1.000000000000000000, 0.0000000000000000000 ) ) ;
#86 = CC_DESIGN_PERSON_AND_ORGANIZATION_ASSIGNMENT ( #302, #44, ( #266 ) ) ;
#87 = PERSON_AND_ORGANIZATION ( #104, #249 ) ;
#88 = EDGE_LOOP ( 'NONE', ( #61 ) ) ;
#89 = DIRECTION ( 'NONE',  ( -3.491481338843133355E-15, 1.224646799147353454E-16, -1.000000000000000000 ) ) ;
#90 = COORDINATED_UNIVERSAL_TIME_OFFSET ( 1, 0, .AHEAD. ) ;
#91 = PLANE ( 'NONE',  #190 ) ;
#92 = APPROVAL_ROLE ( '' ) ;
#93 = CARTESIAN_POINT ( 'NONE',  ( 3.491481338843133355E-14, -1.224646799147353454E-15, 10.00000000000000000 ) ) ;
#94 = APPLICATION_PROTOCOL_DEFINITION ( 'international standard', 'config_control_design', 1994, #273 ) ;
#95 = DIRECTION ( 'NONE',  ( 4.275831445896959482E-31, 1.000000000000000000, 1.224646799147353454E-16 ) ) ;
#96 = APPROVAL_PERSON_ORGANIZATION ( #87, #130, #207 ) ;
#97 = CIRCLE ( 'NONE', #267, 1.189999999999999725 ) ;
#98 = CONICAL_SURFACE ( 'NONE', #243, 1.189999999999998170, 0.5235987755982929315 ) ;
#99 = DIRECTION ( 'NONE',  ( -4.275831445896959482E-31, -1.000000000000000000, -1.224646799147353454E-16 ) ) ;
#100 = DIRECTION ( 'NONE',  ( -4.156683333209866090E-31, -1.000000000000000000, -1.170002344408819011E-16 ) ) ;
#101 = VERTEX_POINT ( 'NONE', #168 ) ;
#102 = DIRECTION ( 'NONE',  ( -3.491481338843133355E-15, 1.224646799147353454E-16, -1.000000000000000000 ) ) ;
#103 = VERTEX_POINT ( 'NONE', #237 ) ;
#104 = PERSON ( 'UNSPECIFIED', 'UNSPECIFIED', 'UNSPECIFIED', ('UNSPECIFIED'), ('UNSPECIFIED'), ('UNSPECIFIED') ) ;
#105 = LOCAL_TIME ( 8, 16, 29.00000000000000000, #250 ) ;
#106 = ORIENTED_EDGE ( 'NONE', *, *, #34, .F. ) ;
#107 = EDGE_CURVE ( 'NONE', #5, #5, #210, .T. ) ;
#108 = EDGE_LOOP ( 'NONE', ( #151 ) ) ;
#109 = ORIENTED_EDGE ( 'NONE', *, *, #256, .F. ) ;
#110 = EDGE_LOOP ( 'NONE', ( #106 ) ) ;
#111 = CIRCLE ( 'NONE', #12, 1.389999999999998570 ) ;
#112 = CC_DESIGN_PERSON_AND_ORGANIZATION_ASSIGNMENT ( #143, #232, ( #123 ) ) ;
#113 = PERSON_AND_ORGANIZATION ( #104, #249 ) ;
#114 = FACE_BOUND ( 'NONE', #294, .T. ) ;
#115 = DATE_AND_TIME ( #299, #62 ) ;
#116 = FACE_OUTER_BOUND ( 'NONE', #247, .T. ) ;
#117 = PRODUCT_DEFINITION_FORMATION_WITH_SPECIFIED_SOURCE ( 'ANY', '', #266, .NOT_KNOWN. ) ;
#118 = EDGE_CURVE ( 'NONE', #101, #101, #152, .T. ) ;
#119 = CALENDAR_DATE ( 2021, 2, 12 ) ;
#120 = FACE_OUTER_BOUND ( 'NONE', #172, .T. ) ;
#121 = DATE_AND_TIME ( #276, #282 ) ;
#122 = FACE_OUTER_BOUND ( 'NONE', #274, .T. ) ;
#123 = SECURITY_CLASSIFICATION ( '', '', #141 ) ;
#124 = DIRECTION ( 'NONE',  ( 3.491481338843133355E-15, -1.224646799147353454E-16, 1.000000000000000000 ) ) ;
#125 = CARTESIAN_POINT ( 'NONE',  ( 3.491481338843133355E-14, 1.389999999999998570, 10.00000000000000000 ) ) ;
#126 = CC_DESIGN_PERSON_AND_ORGANIZATION_ASSIGNMENT ( #257, #234, ( #117 ) ) ;
#127 = CARTESIAN_POINT ( 'NONE',  ( 1.135641495829896858E-30, 1.140000000000001679, 3.252606517456513302E-16 ) ) ;
#128 = AXIS2_PLACEMENT_3D ( 'NONE', #303, #235, #297 ) ;
#129 = VERTEX_POINT ( 'NONE', #289 ) ;
#130 = APPROVAL ( #275, 'UNSPECIFIED' ) ;
#131 = EDGE_LOOP ( 'NONE', ( #11 ) ) ;
#132 = ADVANCED_FACE ( 'NONE', ( #254, #285 ), #77, .T. ) ;
#133 = ORIENTED_EDGE ( 'NONE', *, *, #82, .T. ) ;
#134 = ORIENTED_EDGE ( 'NONE', *, *, #55, .T. ) ;
#135 = AXIS2_PLACEMENT_3D ( 'NONE', #78, #239, #191 ) ;
#136 = CALENDAR_DATE ( 2021, 2, 12 ) ;
#137 = CARTESIAN_POINT ( 'NONE',  ( 8.728703347107833388E-14, -3.061616997868383831E-15, 25.00000000000000000 ) ) ;
#138 = DIRECTION ( 'NONE',  ( -3.491481338843133355E-15, 1.224646799147353454E-16, -1.000000000000000000 ) ) ;
#139 = ADVANCED_FACE ( 'NONE', ( #120, #19 ), #73, .T. ) ;
#140 = DIRECTION ( 'NONE',  ( 0.0000000000000000000, 1.000000000000000000, 0.0000000000000000000 ) ) ;
#141 = SECURITY_CLASSIFICATION_LEVEL ( 'unclassified' ) ;
#142 = FACE_OUTER_BOUND ( 'NONE', #131, .T. ) ;
#143 = PERSON_AND_ORGANIZATION ( #104, #249 ) ;
#144 = DIRECTION ( 'NONE',  ( -3.491481338843133355E-15, 1.224646799147353454E-16, -1.000000000000000000 ) ) ;
#145 = CARTESIAN_POINT ( 'NONE',  ( 3.612429800294234159E-14, -1.267069808696350687E-15, 10.34641016151378423 ) ) ;
#146 = DIRECTION ( 'NONE',  ( -3.491481338843133355E-15, 1.224646799147353454E-16, -1.000000000000000000 ) ) ;
#147 = CLOSED_SHELL ( 'NONE', ( #80, #198, #132, #240 ) ) ;
#148 = ADVANCED_FACE ( 'NONE', ( #42, #181 ), #246, .F. ) ;
#149 = CIRCLE ( 'NONE', #157, 1.500000000000002887 ) ;
#150 = CARTESIAN_POINT ( 'NONE',  ( 8.849961221477469775E-14, -3.104148534859897544E-15, 25.34729635533384595 ) ) ;
#151 = ORIENTED_EDGE ( 'NONE', *, *, #182, .T. ) ;
#152 = CIRCLE ( 'NONE', #33, 1.499999999999996003 ) ;
#153 = ORIENTED_EDGE ( 'NONE', *, *, #8, .F. ) ;
#154 = EDGE_LOOP ( 'NONE', ( #248 ) ) ;
#155 = COORDINATED_UNIVERSAL_TIME_OFFSET ( 1, 0, .AHEAD. ) ;
#156 = ORIENTED_EDGE ( 'NONE', *, *, #8, .T. ) ;
#157 = AXIS2_PLACEMENT_3D ( 'NONE', #263, #102, #7 ) ;
#158 = FACE_OUTER_BOUND ( 'NONE', #108, .T. ) ;
#159 = ADVANCED_FACE ( 'NONE', ( #75, #184 ), #194, .T. ) ;
#160 = DIRECTION ( 'NONE',  ( 4.275831445896960358E-31, 1.000000000000000000, 1.224646799147353454E-16 ) ) ;
#161 = MANIFOLD_SOLID_BREP ( 'Corps-Déplacer/Copier1[2]', #147 ) ;
#162 = DATE_AND_TIME ( #119, #29 ) ;
#163 = DIRECTION ( 'NONE',  ( -3.491481338843133355E-15, 1.224646799147353454E-16, -1.000000000000000000 ) ) ;
#164 = ADVANCED_FACE ( 'NONE', ( #114, #21 ), #291, .T. ) ;
#165 = DIRECTION ( 'NONE',  ( 0.0000000000000000000, 0.0000000000000000000, 1.000000000000000000 ) ) ;
#166 = CARTESIAN_POINT ( 'NONE',  ( 2.129803616694311221E-13, 8.998558695971062171E-33, 61.00000000000000000 ) ) ;
#167 = CARTESIAN_POINT ( 'NONE',  ( 0.0000000000000000000, 0.0000000000000000000, 0.0000000000000000000 ) ) ;
#168 = CARTESIAN_POINT ( 'NONE',  ( 9.403632768176048606E-14, 1.499999999999992673, 26.93307469113338115 ) ) ;
#169 = VERTEX_POINT ( 'NONE', #127 ) ;
#170 = CARTESIAN_POINT ( 'NONE',  ( 2.129803616694311221E-13, 1.199999999999995515, 61.00000000000000000 ) ) ;
#171 = CARTESIAN_POINT ( 'NONE',  ( 3.491481338843133355E-14, 1.042333048949989477E-32, 10.00000000000000000 ) ) ;
#172 = EDGE_LOOP ( 'NONE', ( #153 ) ) ;
#173 = EDGE_LOOP ( 'NONE', ( #35 ) ) ;
#174 = EDGE_LOOP ( 'NONE', ( #133 ) ) ;
#175 = ORIENTED_EDGE ( 'NONE', *, *, #118, .T. ) ;
#176 = CARTESIAN_POINT ( 'NONE',  ( 6.481967109976427462E-31, -2.273568008254418200E-32, 1.856509166428528314E-16 ) ) ;
#177 = CC_DESIGN_APPROVAL ( #222, ( #117 ) ) ;
#178 = CIRCLE ( 'NONE', #242, 1.189999999999998170 ) ;
#179 = DIRECTION ( 'NONE',  ( -3.491481338843133355E-15, 1.224646799147353454E-16, -1.000000000000000000 ) ) ;
#180 = APPROVAL_STATUS ( 'not_yet_approved' ) ;
#181 = FACE_OUTER_BOUND ( 'NONE', #88, .T. ) ;
#182 = EDGE_CURVE ( 'NONE', #169, #169, #83, .T. ) ;
#183 = PERSON_AND_ORGANIZATION ( #104, #249 ) ;
#184 = FACE_BOUND ( 'NONE', #197, .T. ) ;
#185 = CONICAL_SURFACE ( 'NONE', #283, 1.389999999999998570, 0.7853981633974428389 ) ;
#186 = CARTESIAN_POINT ( 'NONE',  ( 0.0000000000000000000, 0.0000000000000000000, 0.0000000000000000000 ) ) ;
#187 = FACE_OUTER_BOUND ( 'NONE', #173, .T. ) ;
#188 = VERTEX_POINT ( 'NONE', #287 ) ;
#189 = CARTESIAN_POINT ( 'NONE',  ( 8.728703347107827472E-16, -3.061616997868381785E-17, 0.2499999999999998335 ) ) ;
#190 = AXIS2_PLACEMENT_3D ( 'NONE', #301, #258, #99 ) ;
#191 = DIRECTION ( 'NONE',  ( -4.275831445896959482E-31, -1.000000000000000000, -1.224646799147353454E-16 ) ) ;
#192 = ADVANCED_FACE ( 'NONE', ( #122 ), #17, .F. ) ;
#193 = CC_DESIGN_PERSON_AND_ORGANIZATION_ASSIGNMENT ( #16, #46, ( #54 ) ) ;
#194 = CONICAL_SURFACE ( 'NONE', #57, 1.200000000000002842, 0.7853981633974453924 ) ;
#195 = ORIENTED_EDGE ( 'NONE', *, *, #107, .T. ) ;
#196 = ORIENTED_EDGE ( 'NONE', *, *, #15, .F. ) ;
#197 = EDGE_LOOP ( 'NONE', ( #195 ) ) ;
#198 = ADVANCED_FACE ( 'NONE', ( #4, #262 ), #185, .T. ) ;
#199 = CIRCLE ( 'NONE', #64, 1.220384493975579243 ) ;
#200 = EDGE_LOOP ( 'NONE', ( #203 ) ) ;
#201 = AXIS2_PLACEMENT_3D ( 'NONE', #226, #279, #95 ) ;
#202 = MECHANICAL_CONTEXT ( 'NONE', #241, 'mechanical' ) ;
#203 = ORIENTED_EDGE ( 'NONE', *, *, #182, .F. ) ;
#204 = DIRECTION ( 'NONE',  ( 3.491481338843133355E-15, -1.224646799147353454E-16, 1.000000000000000000 ) ) ;
#205 = CYLINDRICAL_SURFACE ( 'NONE', #271, 1.499999999999999334 ) ;
#206 = LOCAL_TIME ( 8, 16, 29.00000000000000000, #90 ) ;
#207 = APPROVAL_ROLE ( '' ) ;
#208 = DIRECTION ( 'NONE',  ( -3.491481338843133355E-15, 1.224646799147353454E-16, -1.000000000000000000 ) ) ;
#209 = DIRECTION ( 'NONE',  ( 0.0000000000000000000, 1.000000000000000000, 0.0000000000000000000 ) ) ;
#210 = CIRCLE ( 'NONE', #128, 1.200000000000002842 ) ;
#211 = AXIS2_PLACEMENT_3D ( 'NONE', #76, #204, #70 ) ;
#212 = FACE_OUTER_BOUND ( 'NONE', #10, .T. ) ;
#213 = CARTESIAN_POINT ( 'NONE',  ( 8.728703347107833388E-14, 1.189999999999996616, 25.00000000000000000 ) ) ;
#214 = ADVANCED_FACE ( 'NONE', ( #212, #286 ), #98, .T. ) ;
#215 = CC_DESIGN_PERSON_AND_ORGANIZATION_ASSIGNMENT ( #69, #22, ( #117 ) ) ;
#216 = CARTESIAN_POINT ( 'NONE',  ( 2.119329172677781757E-13, 1.499999999999995559, 60.69999999999999574 ) ) ;
#217 = VERTEX_POINT ( 'NONE', #28 ) ;
#218 = EDGE_LOOP ( 'NONE', ( #109 ) ) ;
#219 = CIRCLE ( 'NONE', #300, 1.389999999999999902 ) ;
#220 = ORIENTED_EDGE ( 'NONE', *, *, #293, .T. ) ;
#221 = EDGE_LOOP ( 'NONE', ( #134 ) ) ;
#222 = APPROVAL ( #278, 'UNSPECIFIED' ) ;
#223 = CC_DESIGN_SECURITY_CLASSIFICATION ( #123, ( #117 ) ) ;
#224 = EDGE_LOOP ( 'NONE', ( #220 ) ) ;
#225 = ADVANCED_BREP_SHAPE_REPRESENTATION ( '327102', ( #59, #161, #43 ), #56 ) ;
#226 = CARTESIAN_POINT ( 'NONE',  ( 8.728703347107833388E-14, -3.035766082959412415E-15, 25.00000000000000000 ) ) ;
#227 = APPROVAL_ROLE ( '' ) ;
#228 = DIRECTION ( 'NONE',  ( -3.491481338843133355E-15, 1.224646799147353454E-16, -1.000000000000000000 ) ) ;
#229 = DATE_TIME_ROLE ( 'creation_date' ) ;
#230 = CARTESIAN_POINT ( 'NONE',  ( 3.491481338843133355E-14, -1.224646799147353454E-15, 10.00000000000000000 ) ) ;
#231 = AXIS2_PLACEMENT_3D ( 'NONE', #167, #228, #277 ) ;
#232 = PERSON_AND_ORGANIZATION_ROLE ( 'classification_officer' ) ;
#233 = DIRECTION ( 'NONE',  ( -3.491481338843133355E-15, 1.224646799147353454E-16, -1.000000000000000000 ) ) ;
#234 = PERSON_AND_ORGANIZATION_ROLE ( 'creator' ) ;
#235 = DIRECTION ( 'NONE',  ( -3.491481338843133355E-15, 1.224646799147353454E-16, -1.000000000000000000 ) ) ;
#236 = DIRECTION ( 'NONE',  ( 0.0000000000000000000, 1.000000000000000000, 0.0000000000000000000 ) ) ;
#237 = CARTESIAN_POINT ( 'NONE',  ( 3.491481338843133355E-14, 1.389999999999998570, 10.00000000000000000 ) ) ;
#238 = VERTEX_POINT ( 'NONE', #216 ) ;
#239 = DIRECTION ( 'NONE',  ( 3.491481338843133355E-15, -1.224646799147353454E-16, 1.000000000000000000 ) ) ;
#240 = ADVANCED_FACE ( 'NONE', ( #187 ), #48, .T. ) ;
#241 = APPLICATION_CONTEXT ( 'configuration controlled 3d designs of mechanical parts and assemblies' ) ;
#242 = AXIS2_PLACEMENT_3D ( 'NONE', #60, #84, #270 ) ;
#243 = AXIS2_PLACEMENT_3D ( 'NONE', #145, #79, #236 ) ;
#244 = FACE_OUTER_BOUND ( 'NONE', #221, .T. ) ;
#245 = CC_DESIGN_APPROVAL ( #66, ( #54 ) ) ;
#246 = TOROIDAL_SURFACE ( 'NONE', #201, 3.189999999999999503, 2.000000000000000888 ) ;
#247 = EDGE_LOOP ( 'NONE', ( #32 ) ) ;
#248 = ORIENTED_EDGE ( 'NONE', *, *, #293, .F. ) ;
#249 = ORGANIZATION ( 'UNSPECIFIED', 'UNSPECIFIED', '' ) ;
#250 = COORDINATED_UNIVERSAL_TIME_OFFSET ( 1, 0, .AHEAD. ) ;
#251 = ORIENTED_EDGE ( 'NONE', *, *, #34, .T. ) ;
#252 = AXIS2_PLACEMENT_3D ( 'NONE', #166, #261, #47 ) ;
#253 = DATE_AND_TIME ( #136, #105 ) ;
#254 = FACE_OUTER_BOUND ( 'NONE', #154, .T. ) ;
#255 = CARTESIAN_POINT ( 'NONE',  ( 0.0000000000000000000, 0.0000000000000000000, 0.0000000000000000000 ) ) ;
#256 = EDGE_CURVE ( 'NONE', #238, #238, #149, .T. ) ;
#257 = PERSON_AND_ORGANIZATION ( #104, #249 ) ;
#258 = DIRECTION ( 'NONE',  ( 3.491481338843133355E-15, -1.224646799147353454E-16, 1.000000000000000000 ) ) ;
#259 = CIRCLE ( 'NONE', #51, 1.389999999999999902 ) ;
#260 = CALENDAR_DATE ( 2021, 2, 12 ) ;
#261 = DIRECTION ( 'NONE',  ( -3.491481338843133355E-15, 1.224646799147353454E-16, -1.000000000000000000 ) ) ;
#262 = FACE_OUTER_BOUND ( 'NONE', #224, .T. ) ;
#263 = CARTESIAN_POINT ( 'NONE',  ( 2.119329172677781757E-13, -7.433606070824434221E-15, 60.69999999999999574 ) ) ;
#264 = DIRECTION ( 'NONE',  ( -4.275831445896959482E-31, -1.000000000000000000, -1.224646799147353454E-16 ) ) ;
#265 = PRODUCT_DEFINITION_SHAPE ( 'NONE', 'NONE',  #54 ) ;
#266 = PRODUCT ( '327102', '327102', '', ( #202 ) ) ;
#267 = AXIS2_PLACEMENT_3D ( 'NONE', #137, #138, #209 ) ;
#268 = AXIS2_PLACEMENT_3D ( 'NONE', #176, #208, #40 ) ;
#269 =( NAMED_UNIT ( * ) SI_UNIT ( $, .STERADIAN. ) SOLID_ANGLE_UNIT ( ) );
#270 = DIRECTION ( 'NONE',  ( 0.0000000000000000000, 1.000000000000000000, 0.0000000000000000000 ) ) ;
#271 = AXIS2_PLACEMENT_3D ( 'NONE', #186, #233, #160 ) ;
#272 = EDGE_LOOP ( 'NONE', ( #156 ) ) ;
#273 = APPLICATION_CONTEXT ( 'configuration controlled 3d designs of mechanical parts and assemblies' ) ;
#274 = EDGE_LOOP ( 'NONE', ( #295 ) ) ;
#275 = APPROVAL_STATUS ( 'not_yet_approved' ) ;
#276 = CALENDAR_DATE ( 2021, 2, 12 ) ;
#277 = DIRECTION ( 'NONE',  ( 4.275831445896959482E-31, 1.000000000000000000, 1.224646799147353454E-16 ) ) ;
#278 = APPROVAL_STATUS ( 'not_yet_approved' ) ;
#279 = DIRECTION ( 'NONE',  ( -3.491481338843133355E-15, 1.224646799147353454E-16, -1.000000000000000000 ) ) ;
#280 = APPROVAL_DATE_TIME ( #253, #130 ) ;
#281 = CARTESIAN_POINT ( 'NONE',  ( 2.129803616694311221E-13, -7.470345474798856659E-15, 61.00000000000000000 ) ) ;
#282 = LOCAL_TIME ( 8, 16, 29.00000000000000000, #41 ) ;
#283 = AXIS2_PLACEMENT_3D ( 'NONE', #24, #124, #100 ) ;
#284 = ADVANCED_FACE ( 'NONE', ( #244 ), #49, .F. ) ;
#285 = FACE_OUTER_BOUND ( 'NONE', #174, .T. ) ;
#286 = FACE_BOUND ( 'NONE', #272, .T. ) ;
#287 = CARTESIAN_POINT ( 'NONE',  ( 8.728703347107833388E-16, 1.389999999999998570, 0.2500000000000000000 ) ) ;
#288 = VERTEX_POINT ( 'NONE', #213 ) ;
#289 = CARTESIAN_POINT ( 'NONE',  ( 3.612429800294234159E-14, 1.189999999999996838, 10.34641016151378423 ) ) ;
#290 = CARTESIAN_POINT ( 'NONE',  ( 0.0000000000000000000, 0.0000000000000000000, 0.0000000000000000000 ) ) ;
#291 = CONICAL_SURFACE ( 'NONE', #211, 1.499999999999996003, 0.1745329251994271746 ) ;
#292 = CLOSED_SHELL ( 'NONE', ( #284, #214, #139, #148, #164, #63, #159, #192 ) ) ;
#293 = EDGE_CURVE ( 'NONE', #188, #188, #111, .T. ) ;
#294 = EDGE_LOOP ( 'NONE', ( #196 ) ) ;
#295 = ORIENTED_EDGE ( 'NONE', *, *, #107, .F. ) ;
#296 = EDGE_LOOP ( 'NONE', ( #175 ) ) ;
#297 = DIRECTION ( 'NONE',  ( 0.0000000000000000000, 1.000000000000000000, 0.0000000000000000000 ) ) ;
#298 = DESIGN_CONTEXT ( 'detailed design', #273, 'design' ) ;
#299 = CALENDAR_DATE ( 2021, 2, 12 ) ;
#300 = AXIS2_PLACEMENT_3D ( 'NONE', #93, #179, #45 ) ;
#301 = CARTESIAN_POINT ( 'NONE',  ( 3.240983554988213731E-31, -1.136784004127209100E-32, 9.282545832142641569E-17 ) ) ;
#302 = PERSON_AND_ORGANIZATION ( #104, #249 ) ;
#303 = CARTESIAN_POINT ( 'NONE',  ( 2.129803616694311221E-13, -7.470345474798856659E-15, 61.00000000000000000 ) ) ;
ENDSEC;
END-ISO-10303-21;
