ISO-10303-21;
HEADER;
FILE_DESCRIPTION (( 'STEP AP203' ),
    '1' );
FILE_NAME ('327101.step',
    '2021-12-02T07:16:29',
    ( '' ),
    ( '' ),
    'SwSTEP 2.0',
    'SolidWorks 2019',
    '' );
FILE_SCHEMA (( 'CONFIG_CONTROL_DESIGN' ));
ENDSEC;

DATA;
#1 = CC_DESIGN_APPROVAL ( #236, ( #185 ) ) ;
#2 = MANIFOLD_SOLID_BREP ( 'Corps-Déplacer/Copier1[1]', #78 ) ;
#3 = CC_DESIGN_DATE_AND_TIME_ASSIGNMENT ( #280, #93, ( #25 ) ) ;
#4 = APPROVAL_DATE_TIME ( #119, #252 ) ;
#5 = AXIS2_PLACEMENT_3D ( 'NONE', #12, #269, #108 ) ;
#6 = ORIENTED_EDGE ( 'NONE', *, *, #95, .T. ) ;
#7 = CARTESIAN_POINT ( 'NONE',  ( 8.849961221477468513E-14, -3.104148534859897150E-15, 25.34729635533384240 ) ) ;
#8 = ORIENTED_EDGE ( 'NONE', *, *, #230, .T. ) ;
#9 = DIRECTION ( 'NONE',  ( -3.491481338843133355E-15, 1.224646799147353454E-16, -1.000000000000000000 ) ) ;
#10 = CYLINDRICAL_SURFACE ( 'NONE', #91, 1.499999999999999334 ) ;
#11 = AXIS2_PLACEMENT_3D ( 'NONE', #130, #221, #60 ) ;
#12 = CARTESIAN_POINT ( 'NONE',  ( 9.413533355496307039E-14, -3.301823029733037563E-15, 26.96143110023146860 ) ) ;
#13 = CARTESIAN_POINT ( 'NONE',  ( 3.491481338843133355E-14, -1.224646799147353454E-15, 10.00000000000000000 ) ) ;
#14 = ORIENTED_EDGE ( 'NONE', *, *, #161, .F. ) ;
#15 = CLOSED_SHELL ( 'NONE', ( #214, #189, #120, #65 ) ) ;
#16 = PLANE ( 'NONE',  #283 ) ;
#17 = APPROVAL_STATUS ( 'not_yet_approved' ) ;
#18 = VERTEX_POINT ( 'NONE', #80 ) ;
#19 = CARTESIAN_POINT ( 'NONE',  ( 3.491481338843133355E-14, 1.384999999999998677, 10.00000000000000000 ) ) ;
#20 = FACE_OUTER_BOUND ( 'NONE', #75, .T. ) ;
#21 = APPLICATION_PROTOCOL_DEFINITION ( 'international standard', 'config_control_design', 1994, #287 ) ;
#22 = AXIS2_PLACEMENT_3D ( 'NONE', #133, #275, #103 ) ;
#23 = VERTEX_POINT ( 'NONE', #226 ) ;
#24 = LOCAL_TIME ( 8, 16, 29.00000000000000000, #136 ) ;
#25 = SECURITY_CLASSIFICATION ( '', '', #89 ) ;
#26 = EDGE_LOOP ( 'NONE', ( #101 ) ) ;
#27 = EDGE_LOOP ( 'NONE', ( #8 ) ) ;
#28 = ORIENTED_EDGE ( 'NONE', *, *, #32, .F. ) ;
#29 = DIRECTION ( 'NONE',  ( 0.0000000000000000000, 1.000000000000000000, 0.0000000000000000000 ) ) ;
#30 = DIRECTION ( 'NONE',  ( 3.491481338843133355E-15, -1.224646799147353454E-16, 1.000000000000000000 ) ) ;
#31 = ORIENTED_EDGE ( 'NONE', *, *, #206, .F. ) ;
#32 = EDGE_CURVE ( 'NONE', #198, #198, #224, .T. ) ;
#33 = AXIS2_PLACEMENT_3D ( 'NONE', #40, #157, #175 ) ;
#34 = DIRECTION ( 'NONE',  ( -4.275831445896959482E-31, -1.000000000000000000, -1.224646799147353454E-16 ) ) ;
#35 = FACE_OUTER_BOUND ( 'NONE', #291, .T. ) ;
#36 = APPROVAL_PERSON_ORGANIZATION ( #121, #252, #257 ) ;
#37 = DIRECTION ( 'NONE',  ( -3.491481338843133355E-15, 1.224646799147353454E-16, -1.000000000000000000 ) ) ;
#38 = FACE_BOUND ( 'NONE', #289, .T. ) ;
#39 = FACE_OUTER_BOUND ( 'NONE', #49, .T. ) ;
#40 = CARTESIAN_POINT ( 'NONE',  ( 0.0000000000000000000, 0.0000000000000000000, 0.0000000000000000000 ) ) ;
#41 = VERTEX_POINT ( 'NONE', #278 ) ;
#42 = FACE_OUTER_BOUND ( 'NONE', #194, .T. ) ;
#43 = ADVANCED_FACE ( 'NONE', ( #104, #127 ), #10, .T. ) ;
#44 = CC_DESIGN_PERSON_AND_ORGANIZATION_ASSIGNMENT ( #173, #84, ( #142 ) ) ;
#45 = AXIS2_PLACEMENT_3D ( 'NONE', #171, #220, #242 ) ;
#46 = COORDINATED_UNIVERSAL_TIME_OFFSET ( 1, 0, .AHEAD. ) ;
#47 = PERSON_AND_ORGANIZATION ( #247, #48 ) ;
#48 = ORGANIZATION ( 'UNSPECIFIED', 'UNSPECIFIED', '' ) ;
#49 = EDGE_LOOP ( 'NONE', ( #263 ) ) ;
#50 = ORIENTED_EDGE ( 'NONE', *, *, #53, .T. ) ;
#51 = EDGE_LOOP ( 'NONE', ( #188 ) ) ;
#52 = ADVANCED_FACE ( 'NONE', ( #98, #217 ), #232, .F. ) ;
#53 = EDGE_CURVE ( 'NONE', #227, #227, #122, .T. ) ;
#54 = CARTESIAN_POINT ( 'NONE',  ( 2.119329172677781757E-13, -7.433606070824434221E-15, 60.69999999999999574 ) ) ;
#55 = DIRECTION ( 'NONE',  ( 0.0000000000000000000, 1.000000000000000000, 0.0000000000000000000 ) ) ;
#56 = FACE_BOUND ( 'NONE', #51, .T. ) ;
#57 = PLANE ( 'NONE',  #67 ) ;
#58 = DIRECTION ( 'NONE',  ( -3.491481338843133355E-15, 1.224646799147353454E-16, -1.000000000000000000 ) ) ;
#59 = DATE_AND_TIME ( #274, #128 ) ;
#60 = DIRECTION ( 'NONE',  ( 0.0000000000000000000, 1.000000000000000000, 0.0000000000000000000 ) ) ;
#61 = CARTESIAN_POINT ( 'NONE',  ( 1.135641495829896858E-30, 1.135000000000001563, 3.252606517456513302E-16 ) ) ;
#62 = CARTESIAN_POINT ( 'NONE',  ( 8.728703347107827472E-16, -3.061616997868381785E-17, 0.2499999999999998335 ) ) ;
#63 = PERSON_AND_ORGANIZATION ( #247, #48 ) ;
#64 = AXIS2_PLACEMENT_3D ( 'NONE', #298, #172, #174 ) ;
#65 = ADVANCED_FACE ( 'NONE', ( #166 ), #57, .T. ) ;
#66 = PERSON_AND_ORGANIZATION ( #247, #48 ) ;
#67 = AXIS2_PLACEMENT_3D ( 'NONE', #295, #30, #34 ) ;
#68 = AXIS2_PLACEMENT_3D ( 'NONE', #273, #37, #294 ) ;
#69 = DESIGN_CONTEXT ( 'detailed design', #287, 'design' ) ;
#70 = CIRCLE ( 'NONE', #151, 1.385000000000000009 ) ;
#71 = ORIENTED_EDGE ( 'NONE', *, *, #94, .F. ) ;
#72 = ORIENTED_EDGE ( 'NONE', *, *, #281, .F. ) ;
#73 = ORIENTED_EDGE ( 'NONE', *, *, #88, .T. ) ;
#74 = DIRECTION ( 'NONE',  ( 4.275831445896960358E-31, 1.000000000000000000, 1.224646799147353454E-16 ) ) ;
#75 = EDGE_LOOP ( 'NONE', ( #285 ) ) ;
#76 = DIRECTION ( 'NONE',  ( 4.275831445896959482E-31, 1.000000000000000000, 1.224646799147353454E-16 ) ) ;
#77 = CYLINDRICAL_SURFACE ( 'NONE', #33, 1.184999999999998943 ) ;
#78 = CLOSED_SHELL ( 'NONE', ( #147, #251, #141, #52, #87, #43, #259, #111 ) ) ;
#79 = CARTESIAN_POINT ( 'NONE',  ( 8.728703347107827472E-16, -3.061616997868381785E-17, 0.2499999999999998335 ) ) ;
#80 = CARTESIAN_POINT ( 'NONE',  ( 2.119329172677781757E-13, 1.499999999999995559, 60.69999999999999574 ) ) ;
#81 = EDGE_LOOP ( 'NONE', ( #31 ) ) ;
#82 = APPROVAL_DATE_TIME ( #113, #293 ) ;
#83 = DIRECTION ( 'NONE',  ( 3.491481338843133355E-15, -1.224646799147353454E-16, 1.000000000000000000 ) ) ;
#84 = PERSON_AND_ORGANIZATION_ROLE ( 'creator' ) ;
#85 = DIRECTION ( 'NONE',  ( 3.491481338843133355E-15, -1.224646799147353454E-16, 1.000000000000000000 ) ) ;
#86 = CONICAL_SURFACE ( 'NONE', #68, 1.184999999999998277, 0.5235987755982924874 ) ;
#87 = ADVANCED_FACE ( 'NONE', ( #38, #167 ), #106, .T. ) ;
#88 = EDGE_CURVE ( 'NONE', #18, #18, #238, .T. ) ;
#89 = SECURITY_CLASSIFICATION_LEVEL ( 'unclassified' ) ;
#90 = LOCAL_TIME ( 8, 16, 29.00000000000000000, #256 ) ;
#91 = AXIS2_PLACEMENT_3D ( 'NONE', #288, #196, #74 ) ;
#92 = ADVANCED_BREP_SHAPE_REPRESENTATION ( '327101', ( #2, #99, #144 ), #118 ) ;
#93 = DATE_TIME_ROLE ( 'classification_date' ) ;
#94 = EDGE_CURVE ( 'NONE', #110, #110, #258, .T. ) ;
#95 = EDGE_CURVE ( 'NONE', #177, #177, #241, .T. ) ;
#96 = AXIS2_PLACEMENT_3D ( 'NONE', #79, #149, #129 ) ;
#97 = EDGE_LOOP ( 'NONE', ( #123 ) ) ;
#98 = FACE_OUTER_BOUND ( 'NONE', #164, .T. ) ;
#99 = MANIFOLD_SOLID_BREP ( 'Corps-Déplacer/Copier1[2]', #15 ) ;
#100 = PLANE ( 'NONE',  #45 ) ;
#101 = ORIENTED_EDGE ( 'NONE', *, *, #230, .F. ) ;
#102 = DIRECTION ( 'NONE',  ( 0.0000000000000000000, 1.000000000000000000, 0.0000000000000000000 ) ) ;
#103 = DIRECTION ( 'NONE',  ( 0.0000000000000000000, 1.000000000000000000, 0.0000000000000000000 ) ) ;
#104 = FACE_OUTER_BOUND ( 'NONE', #26, .T. ) ;
#105 = DIRECTION ( 'NONE',  ( 0.0000000000000000000, 1.000000000000000000, 0.0000000000000000000 ) ) ;
#106 = CONICAL_SURFACE ( 'NONE', #107, 1.499999999999996003, 0.1745329251994262310 ) ;
#107 = AXIS2_PLACEMENT_3D ( 'NONE', #131, #270, #146 ) ;
#108 = DIRECTION ( 'NONE',  ( 0.0000000000000000000, 1.000000000000000000, 0.0000000000000000000 ) ) ;
#109 = APPROVAL_DATE_TIME ( #59, #236 ) ;
#110 = VERTEX_POINT ( 'NONE', #300 ) ;
#111 = ADVANCED_FACE ( 'NONE', ( #264 ), #100, .F. ) ;
#112 = CC_DESIGN_PERSON_AND_ORGANIZATION_ASSIGNMENT ( #66, #297, ( #137 ) ) ;
#113 = DATE_AND_TIME ( #154, #90 ) ;
#114 = DIRECTION ( 'NONE',  ( 4.275831445896959482E-31, 1.000000000000000000, 1.224646799147353454E-16 ) ) ;
#115 = AXIS2_PLACEMENT_3D ( 'NONE', #150, #229, #114 ) ;
#116 = PERSON_AND_ORGANIZATION_ROLE ( 'creator' ) ;
#117 = APPLICATION_PROTOCOL_DEFINITION ( 'international standard', 'config_control_design', 1994, #139 ) ;
#118 =( GEOMETRIC_REPRESENTATION_CONTEXT ( 3 ) GLOBAL_UNCERTAINTY_ASSIGNED_CONTEXT ( ( #182 ) ) GLOBAL_UNIT_ASSIGNED_CONTEXT ( ( #301, #199, #234 ) ) REPRESENTATION_CONTEXT ( 'NONE', 'WORKASPACE' ) );
#119 = DATE_AND_TIME ( #210, #192 ) ;
#120 = ADVANCED_FACE ( 'NONE', ( #191, #35 ), #124, .T. ) ;
#121 = PERSON_AND_ORGANIZATION ( #247, #48 ) ;
#122 = CIRCLE ( 'NONE', #267, 1.184999999999998277 ) ;
#123 = ORIENTED_EDGE ( 'NONE', *, *, #32, .T. ) ;
#124 = CYLINDRICAL_SURFACE ( 'NONE', #302, 1.384999999999999343 ) ;
#125 = DIRECTION ( 'NONE',  ( 0.0000000000000000000, 1.000000000000000000, 0.0000000000000000000 ) ) ;
#126 = AXIS2_PLACEMENT_3D ( 'NONE', #54, #169, #29 ) ;
#127 = FACE_OUTER_BOUND ( 'NONE', #152, .T. ) ;
#128 = LOCAL_TIME ( 8, 16, 29.00000000000000000, #272 ) ;
#129 = DIRECTION ( 'NONE',  ( 4.171689410225063717E-31, 1.000000000000000000, 1.174226179587190074E-16 ) ) ;
#130 = CARTESIAN_POINT ( 'NONE',  ( 2.129803616694311221E-13, -7.470345474798856659E-15, 61.00000000000000000 ) ) ;
#131 = CARTESIAN_POINT ( 'NONE',  ( 9.413533355496307039E-14, -3.301823029733037563E-15, 26.96143110023146860 ) ) ;
#132 = DATE_AND_TIME ( #223, #24 ) ;
#133 = CARTESIAN_POINT ( 'NONE',  ( 8.728703347107833388E-14, -3.061616997868383831E-15, 25.00000000000000000 ) ) ;
#134 = CARTESIAN_POINT ( 'NONE',  ( 8.849961221477468513E-14, 1.215384493975577351, 25.34729635533384240 ) ) ;
#135 = DIRECTION ( 'NONE',  ( -4.171689410225063717E-31, -1.000000000000000000, -1.174226179587190074E-16 ) ) ;
#136 = COORDINATED_UNIVERSAL_TIME_OFFSET ( 1, 0, .AHEAD. ) ;
#137 = PRODUCT ( '327101', '327101', '', ( #209 ) ) ;
#138 = AXIS2_PLACEMENT_3D ( 'NONE', #204, #83, #219 ) ;
#139 = APPLICATION_CONTEXT ( 'configuration controlled 3d designs of mechanical parts and assemblies' ) ;
#140 = COORDINATED_UNIVERSAL_TIME_OFFSET ( 1, 0, .AHEAD. ) ;
#141 = ADVANCED_FACE ( 'NONE', ( #153, #202 ), #77, .T. ) ;
#142 = PRODUCT_DEFINITION ( 'UNKNOWN', '', #185, #69 ) ;
#143 = APPROVAL_STATUS ( 'not_yet_approved' ) ;
#144 = AXIS2_PLACEMENT_3D ( 'NONE', #159, #279, #228 ) ;
#145 = EDGE_LOOP ( 'NONE', ( #211 ) ) ;
#146 = DIRECTION ( 'NONE',  ( 0.0000000000000000000, -1.000000000000000000, 0.0000000000000000000 ) ) ;
#147 = ADVANCED_FACE ( 'NONE', ( #39 ), #16, .F. ) ;
#148 = CC_DESIGN_PERSON_AND_ORGANIZATION_ASSIGNMENT ( #208, #303, ( #185 ) ) ;
#149 = DIRECTION ( 'NONE',  ( -3.491481338843133355E-15, 1.224646799147353454E-16, -1.000000000000000000 ) ) ;
#150 = CARTESIAN_POINT ( 'NONE',  ( 6.503346267205913052E-31, -2.281066807167727816E-32, 1.862632400424265190E-16 ) ) ;
#151 = AXIS2_PLACEMENT_3D ( 'NONE', #13, #248, #105 ) ;
#152 = EDGE_LOOP ( 'NONE', ( #73 ) ) ;
#153 = FACE_OUTER_BOUND ( 'NONE', #262, .T. ) ;
#154 = CALENDAR_DATE ( 2021, 2, 12 ) ;
#155 = FACE_BOUND ( 'NONE', #81, .T. ) ;
#156 = VERTEX_POINT ( 'NONE', #61 ) ;
#157 = DIRECTION ( 'NONE',  ( -3.491481338843133355E-15, 1.224646799147353454E-16, -1.000000000000000000 ) ) ;
#158 = APPROVAL_ROLE ( '' ) ;
#159 = CARTESIAN_POINT ( 'NONE',  ( 0.0000000000000000000, 0.0000000000000000000, 0.0000000000000000000 ) ) ;
#160 = PERSON_AND_ORGANIZATION ( #247, #48 ) ;
#161 = EDGE_CURVE ( 'NONE', #23, #23, #205, .T. ) ;
#162 = AXIS2_PLACEMENT_3D ( 'NONE', #215, #9, #55 ) ;
#163 = LOCAL_TIME ( 8, 16, 29.00000000000000000, #140 ) ;
#164 = EDGE_LOOP ( 'NONE', ( #14 ) ) ;
#165 = ORIENTED_EDGE ( 'NONE', *, *, #53, .F. ) ;
#166 = FACE_OUTER_BOUND ( 'NONE', #186, .T. ) ;
#167 = FACE_OUTER_BOUND ( 'NONE', #27, .T. ) ;
#168 = ORIENTED_EDGE ( 'NONE', *, *, #88, .F. ) ;
#169 = DIRECTION ( 'NONE',  ( -3.491481338843133355E-15, 1.224646799147353454E-16, -1.000000000000000000 ) ) ;
#170 = DIRECTION ( 'NONE',  ( -4.275831445896959482E-31, -1.000000000000000000, -1.224646799147353454E-16 ) ) ;
#171 = CARTESIAN_POINT ( 'NONE',  ( 2.129803616694311221E-13, 8.998558695971062171E-33, 61.00000000000000000 ) ) ;
#172 = DIRECTION ( 'NONE',  ( -3.491481338843133355E-15, 1.224646799147353454E-16, -1.000000000000000000 ) ) ;
#173 = PERSON_AND_ORGANIZATION ( #247, #48 ) ;
#174 = DIRECTION ( 'NONE',  ( 0.0000000000000000000, 1.000000000000000000, 0.0000000000000000000 ) ) ;
#175 = DIRECTION ( 'NONE',  ( 4.275831445896959482E-31, 1.000000000000000000, 1.224646799147353454E-16 ) ) ;
#176 = PRODUCT_DEFINITION_SHAPE ( 'NONE', 'NONE',  #142 ) ;
#177 = VERTEX_POINT ( 'NONE', #249 ) ;
#178 = CC_DESIGN_PERSON_AND_ORGANIZATION_ASSIGNMENT ( #47, #184, ( #25 ) ) ;
#179 = VERTEX_POINT ( 'NONE', #19 ) ;
#180 = CC_DESIGN_SECURITY_CLASSIFICATION ( #25, ( #185 ) ) ;
#181 = CALENDAR_DATE ( 2021, 2, 12 ) ;
#182 = UNCERTAINTY_MEASURE_WITH_UNIT (LENGTH_MEASURE( 1.000000000000000082E-05 ), #301, 'distance_accuracy_value', 'NONE');
#183 = CONICAL_SURFACE ( 'NONE', #233, 1.384999999999998677, 0.7853981633974432830 ) ;
#184 = PERSON_AND_ORGANIZATION_ROLE ( 'classification_officer' ) ;
#185 = PRODUCT_DEFINITION_FORMATION_WITH_SPECIFIED_SOURCE ( 'ANY', '', #137, .NOT_KNOWN. ) ;
#186 = EDGE_LOOP ( 'NONE', ( #290 ) ) ;
#187 = DIRECTION ( 'NONE',  ( -3.491481338843133355E-15, 1.224646799147353454E-16, -1.000000000000000000 ) ) ;
#188 = ORIENTED_EDGE ( 'NONE', *, *, #281, .T. ) ;
#189 = ADVANCED_FACE ( 'NONE', ( #155, #42 ), #183, .T. ) ;
#190 = PRODUCT_RELATED_PRODUCT_CATEGORY ( 'detail', '', ( #137 ) ) ;
#191 = FACE_OUTER_BOUND ( 'NONE', #245, .T. ) ;
#192 = LOCAL_TIME ( 8, 16, 29.00000000000000000, #46 ) ;
#193 = EDGE_LOOP ( 'NONE', ( #50 ) ) ;
#194 = EDGE_LOOP ( 'NONE', ( #6 ) ) ;
#195 = FACE_OUTER_BOUND ( 'NONE', #239, .T. ) ;
#196 = DIRECTION ( 'NONE',  ( -3.491481338843133355E-15, 1.224646799147353454E-16, -1.000000000000000000 ) ) ;
#197 = AXIS2_PLACEMENT_3D ( 'NONE', #7, #265, #102 ) ;
#198 = VERTEX_POINT ( 'NONE', #134 ) ;
#199 =( NAMED_UNIT ( * ) PLANE_ANGLE_UNIT ( ) SI_UNIT ( $, .RADIAN. ) );
#200 = FACE_OUTER_BOUND ( 'NONE', #286, .T. ) ;
#201 = APPROVAL_STATUS ( 'not_yet_approved' ) ;
#202 = FACE_OUTER_BOUND ( 'NONE', #145, .T. ) ;
#203 = CARTESIAN_POINT ( 'NONE',  ( 9.413533355496307039E-14, 1.499999999999992673, 26.96143110023146860 ) ) ;
#204 = CARTESIAN_POINT ( 'NONE',  ( 3.251673133602956526E-31, -1.140533403583863908E-32, 9.313162002121325948E-17 ) ) ;
#205 = CIRCLE ( 'NONE', #22, 1.184999999999999831 ) ;
#206 = EDGE_CURVE ( 'NONE', #156, #156, #268, .T. ) ;
#207 = CC_DESIGN_PERSON_AND_ORGANIZATION_ASSIGNMENT ( #231, #116, ( #185 ) ) ;
#208 = PERSON_AND_ORGANIZATION ( #247, #48 ) ;
#209 = MECHANICAL_CONTEXT ( 'NONE', #139, 'mechanical' ) ;
#210 = CALENDAR_DATE ( 2021, 2, 12 ) ;
#211 = ORIENTED_EDGE ( 'NONE', *, *, #161, .T. ) ;
#212 = CARTESIAN_POINT ( 'NONE',  ( 0.0000000000000000000, 0.0000000000000000000, 0.0000000000000000000 ) ) ;
#213 = EDGE_LOOP ( 'NONE', ( #72 ) ) ;
#214 = ADVANCED_FACE ( 'NONE', ( #20 ), #244, .F. ) ;
#215 = CARTESIAN_POINT ( 'NONE',  ( 3.491481338843133355E-14, -1.224646799147353454E-15, 10.00000000000000000 ) ) ;
#216 = ORIENTED_EDGE ( 'NONE', *, *, #282, .T. ) ;
#217 = FACE_OUTER_BOUND ( 'NONE', #97, .T. ) ;
#218 = APPROVAL_PERSON_ORGANIZATION ( #160, #293, #158 ) ;
#219 = DIRECTION ( 'NONE',  ( -4.275831445896959482E-31, -1.000000000000000000, -1.224646799147353454E-16 ) ) ;
#220 = DIRECTION ( 'NONE',  ( -3.491481338843133355E-15, 1.224646799147353454E-16, -1.000000000000000000 ) ) ;
#221 = DIRECTION ( 'NONE',  ( -3.491481338843133355E-15, 1.224646799147353454E-16, -1.000000000000000000 ) ) ;
#222 = ORIENTED_EDGE ( 'NONE', *, *, #95, .F. ) ;
#223 = CALENDAR_DATE ( 2021, 2, 12 ) ;
#224 = CIRCLE ( 'NONE', #197, 1.215384493975580460 ) ;
#225 = DIRECTION ( 'NONE',  ( 3.491481338843133355E-15, -1.224646799147353454E-16, 1.000000000000000000 ) ) ;
#226 = CARTESIAN_POINT ( 'NONE',  ( 8.728703347107833388E-14, 1.184999999999996723, 25.00000000000000000 ) ) ;
#227 = VERTEX_POINT ( 'NONE', #296 ) ;
#228 = DIRECTION ( 'NONE',  ( 1.000000000000000000, 0.0000000000000000000, 0.0000000000000000000 ) ) ;
#229 = DIRECTION ( 'NONE',  ( -3.491481338843133355E-15, 1.224646799147353454E-16, -1.000000000000000000 ) ) ;
#230 = EDGE_CURVE ( 'NONE', #299, #299, #255, .T. ) ;
#231 = PERSON_AND_ORGANIZATION ( #247, #48 ) ;
#232 = TOROIDAL_SURFACE ( 'NONE', #254, 3.185000000000000053, 2.000000000000000000 ) ;
#233 = AXIS2_PLACEMENT_3D ( 'NONE', #62, #225, #135 ) ;
#234 =( NAMED_UNIT ( * ) SI_UNIT ( $, .STERADIAN. ) SOLID_ANGLE_UNIT ( ) );
#235 = CIRCLE ( 'NONE', #11, 1.200000000000002842 ) ;
#236 = APPROVAL ( #17, 'UNSPECIFIED' ) ;
#237 = CC_DESIGN_APPROVAL ( #252, ( #25 ) ) ;
#238 = CIRCLE ( 'NONE', #126, 1.500000000000002887 ) ;
#239 = EDGE_LOOP ( 'NONE', ( #71 ) ) ;
#240 = DIRECTION ( 'NONE',  ( -3.491481338843133355E-15, 1.224646799147353454E-16, -1.000000000000000000 ) ) ;
#241 = CIRCLE ( 'NONE', #96, 1.384999999999998677 ) ;
#242 = DIRECTION ( 'NONE',  ( 4.275831445896959482E-31, 1.000000000000000000, 1.224646799147353454E-16 ) ) ;
#243 = CONICAL_SURFACE ( 'NONE', #64, 1.200000000000002842, 0.7853981633974453924 ) ;
#244 = PLANE ( 'NONE',  #138 ) ;
#245 = EDGE_LOOP ( 'NONE', ( #222 ) ) ;
#246 = FACE_BOUND ( 'NONE', #193, .T. ) ;
#247 = PERSON ( 'UNSPECIFIED', 'UNSPECIFIED', 'UNSPECIFIED', ('UNSPECIFIED'), ('UNSPECIFIED'), ('UNSPECIFIED') ) ;
#248 = DIRECTION ( 'NONE',  ( -3.491481338843133355E-15, 1.224646799147353454E-16, -1.000000000000000000 ) ) ;
#249 = CARTESIAN_POINT ( 'NONE',  ( 8.728703347107833388E-16, 1.384999999999998677, 0.2500000000000000000 ) ) ;
#250 = CARTESIAN_POINT ( 'NONE',  ( 3.491481338843133355E-14, 1.038583649493334806E-32, 10.00000000000000000 ) ) ;
#251 = ADVANCED_FACE ( 'NONE', ( #195, #246 ), #86, .T. ) ;
#252 = APPROVAL ( #143, 'UNSPECIFIED' ) ;
#253 = APPROVAL_ROLE ( '' ) ;
#254 = AXIS2_PLACEMENT_3D ( 'NONE', #292, #187, #76 ) ;
#255 = CIRCLE ( 'NONE', #5, 1.499999999999996003 ) ;
#256 = COORDINATED_UNIVERSAL_TIME_OFFSET ( 1, 0, .AHEAD. ) ;
#257 = APPROVAL_ROLE ( '' ) ;
#258 = CIRCLE ( 'NONE', #162, 1.385000000000000009 ) ;
#259 = ADVANCED_FACE ( 'NONE', ( #200, #56 ), #243, .T. ) ;
#260 = CC_DESIGN_DATE_AND_TIME_ASSIGNMENT ( #132, #276, ( #142 ) ) ;
#261 = CC_DESIGN_APPROVAL ( #293, ( #142 ) ) ;
#262 = EDGE_LOOP ( 'NONE', ( #165 ) ) ;
#263 = ORIENTED_EDGE ( 'NONE', *, *, #94, .T. ) ;
#264 = FACE_OUTER_BOUND ( 'NONE', #213, .T. ) ;
#265 = DIRECTION ( 'NONE',  ( -3.491481338843133355E-15, 1.224646799147353454E-16, -1.000000000000000000 ) ) ;
#266 = CARTESIAN_POINT ( 'NONE',  ( 3.612429800294234159E-14, -1.267069808696350687E-15, 10.34641016151378423 ) ) ;
#267 = AXIS2_PLACEMENT_3D ( 'NONE', #266, #240, #125 ) ;
#268 = CIRCLE ( 'NONE', #115, 1.135000000000001563 ) ;
#269 = DIRECTION ( 'NONE',  ( -3.491481338843133355E-15, 1.224646799147353454E-16, -1.000000000000000000 ) ) ;
#270 = DIRECTION ( 'NONE',  ( 3.491481338843133355E-15, -1.224646799147353454E-16, 1.000000000000000000 ) ) ;
#271 = DIRECTION ( 'NONE',  ( 4.275831445896959482E-31, 1.000000000000000000, 1.224646799147353454E-16 ) ) ;
#272 = COORDINATED_UNIVERSAL_TIME_OFFSET ( 1, 0, .AHEAD. ) ;
#273 = CARTESIAN_POINT ( 'NONE',  ( 3.612429800294234159E-14, -1.267069808696350687E-15, 10.34641016151378423 ) ) ;
#274 = CALENDAR_DATE ( 2021, 2, 12 ) ;
#275 = DIRECTION ( 'NONE',  ( -3.491481338843133355E-15, 1.224646799147353454E-16, -1.000000000000000000 ) ) ;
#276 = DATE_TIME_ROLE ( 'creation_date' ) ;
#277 = APPROVAL_PERSON_ORGANIZATION ( #63, #236, #253 ) ;
#278 = CARTESIAN_POINT ( 'NONE',  ( 2.129803616694311221E-13, 1.199999999999995515, 61.00000000000000000 ) ) ;
#279 = DIRECTION ( 'NONE',  ( 0.0000000000000000000, 0.0000000000000000000, 1.000000000000000000 ) ) ;
#280 = DATE_AND_TIME ( #181, #163 ) ;
#281 = EDGE_CURVE ( 'NONE', #41, #41, #235, .T. ) ;
#282 = EDGE_CURVE ( 'NONE', #179, #179, #70, .T. ) ;
#283 = AXIS2_PLACEMENT_3D ( 'NONE', #250, #85, #170 ) ;
#284 = SHAPE_DEFINITION_REPRESENTATION ( #176, #92 ) ;
#285 = ORIENTED_EDGE ( 'NONE', *, *, #206, .T. ) ;
#286 = EDGE_LOOP ( 'NONE', ( #168 ) ) ;
#287 = APPLICATION_CONTEXT ( 'configuration controlled 3d designs of mechanical parts and assemblies' ) ;
#288 = CARTESIAN_POINT ( 'NONE',  ( 0.0000000000000000000, 0.0000000000000000000, 0.0000000000000000000 ) ) ;
#289 = EDGE_LOOP ( 'NONE', ( #28 ) ) ;
#290 = ORIENTED_EDGE ( 'NONE', *, *, #282, .F. ) ;
#291 = EDGE_LOOP ( 'NONE', ( #216 ) ) ;
#292 = CARTESIAN_POINT ( 'NONE',  ( 8.728703347107833388E-14, -3.035766082959412415E-15, 25.00000000000000000 ) ) ;
#293 = APPROVAL ( #201, 'UNSPECIFIED' ) ;
#294 = DIRECTION ( 'NONE',  ( 0.0000000000000000000, 1.000000000000000000, 0.0000000000000000000 ) ) ;
#295 = CARTESIAN_POINT ( 'NONE',  ( 3.491481338843133355E-14, 1.038583649493334806E-32, 10.00000000000000000 ) ) ;
#296 = CARTESIAN_POINT ( 'NONE',  ( 3.612429800294234159E-14, 1.184999999999996945, 10.34641016151378423 ) ) ;
#297 = PERSON_AND_ORGANIZATION_ROLE ( 'design_owner' ) ;
#298 = CARTESIAN_POINT ( 'NONE',  ( 2.129803616694311221E-13, -7.470345474798856659E-15, 61.00000000000000000 ) ) ;
#299 = VERTEX_POINT ( 'NONE', #203 ) ;
#300 = CARTESIAN_POINT ( 'NONE',  ( 3.491481338843133355E-14, 1.384999999999998677, 10.00000000000000000 ) ) ;
#301 =( LENGTH_UNIT ( ) NAMED_UNIT ( * ) SI_UNIT ( .MILLI., .METRE. ) );
#302 = AXIS2_PLACEMENT_3D ( 'NONE', #212, #58, #271 ) ;
#303 = PERSON_AND_ORGANIZATION_ROLE ( 'design_supplier' ) ;
ENDSEC;
END-ISO-10303-21;
