ISO-10303-21;
HEADER;
FILE_DESCRIPTION (( 'STEP AP203' ),
    '1' );
FILE_NAME ('327100.step',
    '2021-12-02T07:16:28',
    ( '' ),
    ( '' ),
    'SwSTEP 2.0',
    'SolidWorks 2019',
    '' );
FILE_SCHEMA (( 'CONFIG_CONTROL_DESIGN' ));
ENDSEC;

DATA;
#1 = EDGE_CURVE ( 'NONE', #157, #157, #23, .T. ) ;
#2 = LOCAL_TIME ( 8, 16, 28.00000000000000000, #119 ) ;
#3 = AXIS2_PLACEMENT_3D ( 'NONE', #99, #201, #174 ) ;
#4 = DIRECTION ( 'NONE',  ( -3.491481338843133355E-15, 1.224646799147353454E-16, -1.000000000000000000 ) ) ;
#5 = EDGE_LOOP ( 'NONE', ( #7 ) ) ;
#6 = COORDINATED_UNIVERSAL_TIME_OFFSET ( 1, 0, .AHEAD. ) ;
#7 = ORIENTED_EDGE ( 'NONE', *, *, #1, .T. ) ;
#8 = ORIENTED_EDGE ( 'NONE', *, *, #203, .F. ) ;
#9 = CC_DESIGN_SECURITY_CLASSIFICATION ( #205, ( #40 ) ) ;
#10 = ORIENTED_EDGE ( 'NONE', *, *, #58, .T. ) ;
#11 = FACE_BOUND ( 'NONE', #162, .T. ) ;
#12 = ORIENTED_EDGE ( 'NONE', *, *, #110, .T. ) ;
#13 = PERSON_AND_ORGANIZATION ( #155, #60 ) ;
#14 = PERSON_AND_ORGANIZATION ( #155, #60 ) ;
#15 = EDGE_LOOP ( 'NONE', ( #70 ) ) ;
#16 = AXIS2_PLACEMENT_3D ( 'NONE', #150, #45, #231 ) ;
#17 = AXIS2_PLACEMENT_3D ( 'NONE', #88, #216, #270 ) ;
#18 =( NAMED_UNIT ( * ) PLANE_ANGLE_UNIT ( ) SI_UNIT ( $, .RADIAN. ) );
#19 = COORDINATED_UNIVERSAL_TIME_OFFSET ( 1, 0, .AHEAD. ) ;
#20 = DIRECTION ( 'NONE',  ( 0.0000000000000000000, 1.000000000000000000, 0.0000000000000000000 ) ) ;
#21 = DIRECTION ( 'NONE',  ( -3.491481338843133355E-15, 1.224646799147353454E-16, -1.000000000000000000 ) ) ;
#22 = APPROVAL_PERSON_ORGANIZATION ( #152, #121, #283 ) ;
#23 = CIRCLE ( 'NONE', #16, 1.200000000000002842 ) ;
#24 = ADVANCED_FACE ( 'NONE', ( #126, #63 ), #230, .T. ) ;
#25 = CARTESIAN_POINT ( 'NONE',  ( 8.728703347107833388E-14, -3.035766082959412415E-15, 25.00000000000000000 ) ) ;
#26 = DIRECTION ( 'NONE',  ( 4.275831445896959482E-31, 1.000000000000000000, 1.224646799147353454E-16 ) ) ;
#27 = PERSON_AND_ORGANIZATION ( #155, #60 ) ;
#28 = FACE_OUTER_BOUND ( 'NONE', #237, .T. ) ;
#29 = DATE_TIME_ROLE ( 'creation_date' ) ;
#30 = CARTESIAN_POINT ( 'NONE',  ( 3.491481338843133355E-14, 1.034834250036680135E-32, 10.00000000000000000 ) ) ;
#31 = EDGE_LOOP ( 'NONE', ( #183 ) ) ;
#32 = DIRECTION ( 'NONE',  ( -3.491481338843133355E-15, 1.224646799147353454E-16, -1.000000000000000000 ) ) ;
#33 = AXIS2_PLACEMENT_3D ( 'NONE', #278, #217, #48 ) ;
#34 = EDGE_LOOP ( 'NONE', ( #241 ) ) ;
#35 = EDGE_LOOP ( 'NONE', ( #12 ) ) ;
#36 = DATE_TIME_ROLE ( 'classification_date' ) ;
#37 = ADVANCED_FACE ( 'NONE', ( #28 ), #81, .F. ) ;
#38 = VERTEX_POINT ( 'NONE', #253 ) ;
#39 = CC_DESIGN_PERSON_AND_ORGANIZATION_ASSIGNMENT ( #27, #103, ( #132 ) ) ;
#40 = PRODUCT_DEFINITION_FORMATION_WITH_SPECIFIED_SOURCE ( 'ANY', '', #239, .NOT_KNOWN. ) ;
#41 = PERSON_AND_ORGANIZATION_ROLE ( 'design_owner' ) ;
#42 = DIRECTION ( 'NONE',  ( 0.0000000000000000000, 1.000000000000000000, 0.0000000000000000000 ) ) ;
#43 = CIRCLE ( 'NONE', #33, 1.379999999999999893 ) ;
#44 = EDGE_CURVE ( 'NONE', #98, #98, #185, .T. ) ;
#45 = DIRECTION ( 'NONE',  ( -3.491481338843133355E-15, 1.224646799147353454E-16, -1.000000000000000000 ) ) ;
#46 = DIRECTION ( 'NONE',  ( -3.491481338843133355E-15, 1.224646799147353454E-16, -1.000000000000000000 ) ) ;
#47 = CARTESIAN_POINT ( 'NONE',  ( 1.369626885834538184E-31, -4.804004429590289891E-33, 3.922767309672490005E-17 ) ) ;
#48 = DIRECTION ( 'NONE',  ( 0.0000000000000000000, 1.000000000000000000, 0.0000000000000000000 ) ) ;
#49 = ORIENTED_EDGE ( 'NONE', *, *, #58, .F. ) ;
#50 = CC_DESIGN_APPROVAL ( #292, ( #132 ) ) ;
#51 = DIRECTION ( 'NONE',  ( 0.0000000000000000000, 0.0000000000000000000, 1.000000000000000000 ) ) ;
#52 = CARTESIAN_POINT ( 'NONE',  ( 2.129803616694311221E-13, -7.470345474798856659E-15, 61.00000000000000000 ) ) ;
#53 = CIRCLE ( 'NONE', #214, 1.379999999999999893 ) ;
#54 = PERSON_AND_ORGANIZATION_ROLE ( 'design_supplier' ) ;
#55 = DIRECTION ( 'NONE',  ( -3.491481338843133355E-15, 1.224646799147353454E-16, -1.000000000000000000 ) ) ;
#56 = VERTEX_POINT ( 'NONE', #246 ) ;
#57 = DIRECTION ( 'NONE',  ( -3.491481338843133355E-15, 1.224646799147353454E-16, -1.000000000000000000 ) ) ;
#58 = EDGE_CURVE ( 'NONE', #100, #100, #53, .T. ) ;
#59 = CARTESIAN_POINT ( 'NONE',  ( 2.119329172677781757E-13, -7.433606070824434221E-15, 60.69999999999999574 ) ) ;
#60 = ORGANIZATION ( 'UNSPECIFIED', 'UNSPECIFIED', '' ) ;
#61 = EDGE_LOOP ( 'NONE', ( #235 ) ) ;
#62 = CALENDAR_DATE ( 2021, 2, 12 ) ;
#63 = FACE_OUTER_BOUND ( 'NONE', #35, .T. ) ;
#64 = EDGE_LOOP ( 'NONE', ( #151 ) ) ;
#65 = MANIFOLD_SOLID_BREP ( 'Corps-Déplacer/Copier1[2]', #301 ) ;
#66 = CIRCLE ( 'NONE', #69, 1.130000000000001226 ) ;
#67 = DIRECTION ( 'NONE',  ( 3.491481338843133355E-15, -1.224646799147353454E-16, 1.000000000000000000 ) ) ;
#68 = ORIENTED_EDGE ( 'NONE', *, *, #1, .F. ) ;
#69 = AXIS2_PLACEMENT_3D ( 'NONE', #82, #32, #282 ) ;
#70 = ORIENTED_EDGE ( 'NONE', *, *, #244, .T. ) ;
#71 = CC_DESIGN_PERSON_AND_ORGANIZATION_ASSIGNMENT ( #90, #54, ( #40 ) ) ;
#72 = DIRECTION ( 'NONE',  ( 4.275831445896959482E-31, 1.000000000000000000, 1.224646799147353454E-16 ) ) ;
#73 = ORIENTED_EDGE ( 'NONE', *, *, #87, .T. ) ;
#74 = DIRECTION ( 'NONE',  ( -3.491481338843133355E-15, 1.224646799147353454E-16, -1.000000000000000000 ) ) ;
#75 = APPLICATION_PROTOCOL_DEFINITION ( 'international standard', 'config_control_design', 1994, #233 ) ;
#76 = VERTEX_POINT ( 'NONE', #142 ) ;
#77 = FACE_OUTER_BOUND ( 'NONE', #64, .T. ) ;
#78 = APPROVAL ( #114, 'UNSPECIFIED' ) ;
#79 = DIRECTION ( 'NONE',  ( -3.491481338843133355E-15, 1.224646799147353454E-16, -1.000000000000000000 ) ) ;
#80 = CIRCLE ( 'NONE', #257, 1.210384493975580567 ) ;
#81 = PLANE ( 'NONE',  #294 ) ;
#82 = CARTESIAN_POINT ( 'NONE',  ( 2.739253771669076367E-31, -9.608008859180579782E-33, 7.845534619344980010E-17 ) ) ;
#83 = EDGE_CURVE ( 'NONE', #138, #138, #207, .T. ) ;
#84 = EDGE_LOOP ( 'NONE', ( #280 ) ) ;
#85 = AXIS2_PLACEMENT_3D ( 'NONE', #47, #131, #232 ) ;
#86 = CARTESIAN_POINT ( 'NONE',  ( 0.0000000000000000000, 0.0000000000000000000, 0.0000000000000000000 ) ) ;
#87 = EDGE_CURVE ( 'NONE', #144, #144, #66, .T. ) ;
#88 = CARTESIAN_POINT ( 'NONE',  ( 8.728703347107827472E-16, -3.061616997868381785E-17, 0.2499999999999998335 ) ) ;
#89 = CARTESIAN_POINT ( 'NONE',  ( 9.423433942816565473E-14, -3.305295688296766746E-15, 26.98978750932955961 ) ) ;
#90 = PERSON_AND_ORGANIZATION ( #155, #60 ) ;
#91 =( NAMED_UNIT ( * ) SI_UNIT ( $, .STERADIAN. ) SOLID_ANGLE_UNIT ( ) );
#92 = EDGE_LOOP ( 'NONE', ( #211 ) ) ;
#93 = ADVANCED_FACE ( 'NONE', ( #153 ), #265, .F. ) ;
#94 = CARTESIAN_POINT ( 'NONE',  ( 3.612429800294234159E-14, -1.267069808696350687E-15, 10.34641016151378423 ) ) ;
#95 = VERTEX_POINT ( 'NONE', #198 ) ;
#96 = DATE_AND_TIME ( #169, #264 ) ;
#97 = CARTESIAN_POINT ( 'NONE',  ( 3.612429800294234159E-14, -1.267069808696350687E-15, 10.34641016151378423 ) ) ;
#98 = VERTEX_POINT ( 'NONE', #199 ) ;
#99 = CARTESIAN_POINT ( 'NONE',  ( 3.491481338843133355E-14, 1.034834250036680135E-32, 10.00000000000000000 ) ) ;
#100 = VERTEX_POINT ( 'NONE', #302 ) ;
#101 = CIRCLE ( 'NONE', #147, 1.179999999999998161 ) ;
#102 = DIRECTION ( 'NONE',  ( 0.0000000000000000000, 1.000000000000000000, 0.0000000000000000000 ) ) ;
#103 = PERSON_AND_ORGANIZATION_ROLE ( 'creator' ) ;
#104 = AXIS2_PLACEMENT_3D ( 'NONE', #94, #21, #299 ) ;
#105 = DIRECTION ( 'NONE',  ( -3.491481338843133355E-15, 1.224646799147353454E-16, -1.000000000000000000 ) ) ;
#106 = EDGE_LOOP ( 'NONE', ( #8 ) ) ;
#107 = ADVANCED_FACE ( 'NONE', ( #191, #277 ), #136, .T. ) ;
#108 = DIRECTION ( 'NONE',  ( 4.275831445896960358E-31, 1.000000000000000000, 1.224646799147353454E-16 ) ) ;
#109 = ORIENTED_EDGE ( 'NONE', *, *, #127, .T. ) ;
#110 = EDGE_CURVE ( 'NONE', #254, #254, #249, .T. ) ;
#111 = EDGE_LOOP ( 'NONE', ( #68 ) ) ;
#112 = LOCAL_TIME ( 8, 16, 28.00000000000000000, #263 ) ;
#113 = FACE_OUTER_BOUND ( 'NONE', #267, .T. ) ;
#114 = APPROVAL_STATUS ( 'not_yet_approved' ) ;
#115 = DATE_AND_TIME ( #140, #154 ) ;
#116 = EDGE_CURVE ( 'NONE', #38, #38, #118, .T. ) ;
#117 = DIRECTION ( 'NONE',  ( 4.275831445896959482E-31, 1.000000000000000000, 1.224646799147353454E-16 ) ) ;
#118 = CIRCLE ( 'NONE', #173, 1.180000000000000160 ) ;
#119 = COORDINATED_UNIVERSAL_TIME_OFFSET ( 1, 0, .AHEAD. ) ;
#120 = DIRECTION ( 'NONE',  ( 0.0000000000000000000, 1.000000000000000000, 0.0000000000000000000 ) ) ;
#121 = APPROVAL ( #182, 'UNSPECIFIED' ) ;
#122 = PLANE ( 'NONE',  #3 ) ;
#123 = MECHANICAL_CONTEXT ( 'NONE', #233, 'mechanical' ) ;
#124 = DIRECTION ( 'NONE',  ( 0.0000000000000000000, 1.000000000000000000, 0.0000000000000000000 ) ) ;
#125 = DATE_AND_TIME ( #62, #159 ) ;
#126 = FACE_OUTER_BOUND ( 'NONE', #160, .T. ) ;
#127 = EDGE_CURVE ( 'NONE', #95, #95, #80, .T. ) ;
#128 = DATE_AND_TIME ( #210, #112 ) ;
#129 = ORIENTED_EDGE ( 'NONE', *, *, #116, .F. ) ;
#130 = AXIS2_PLACEMENT_3D ( 'NONE', #86, #206, #108 ) ;
#131 = DIRECTION ( 'NONE',  ( 3.491481338843133355E-15, -1.224646799147353454E-16, 1.000000000000000000 ) ) ;
#132 = PRODUCT_DEFINITION ( 'UNKNOWN', '', #40, #219 ) ;
#133 = CARTESIAN_POINT ( 'NONE',  ( 9.423433942816565473E-14, -3.305295688296766746E-15, 26.98978750932955961 ) ) ;
#134 = DIRECTION ( 'NONE',  ( 0.0000000000000000000, -1.000000000000000000, 0.0000000000000000000 ) ) ;
#135 = CARTESIAN_POINT ( 'NONE',  ( 2.129803616694311221E-13, 8.998558695971062171E-33, 61.00000000000000000 ) ) ;
#136 = CONICAL_SURFACE ( 'NONE', #104, 1.179999999999998161, 0.5235987755982929315 ) ;
#137 = CLOSED_SHELL ( 'NONE', ( #37, #107, #149, #166, #293, #24, #200, #286 ) ) ;
#138 = VERTEX_POINT ( 'NONE', #176 ) ;
#139 = EDGE_LOOP ( 'NONE', ( #73 ) ) ;
#140 = CALENDAR_DATE ( 2021, 2, 12 ) ;
#141 = DIRECTION ( 'NONE',  ( -3.491481338843133355E-15, 1.224646799147353454E-16, -1.000000000000000000 ) ) ;
#142 = CARTESIAN_POINT ( 'NONE',  ( 3.612429800294234159E-14, 1.179999999999996829, 10.34641016151378423 ) ) ;
#143 = DIRECTION ( 'NONE',  ( -3.491481338843133355E-15, 1.224646799147353454E-16, -1.000000000000000000 ) ) ;
#144 = VERTEX_POINT ( 'NONE', #222 ) ;
#145 = COORDINATED_UNIVERSAL_TIME_OFFSET ( 1, 0, .AHEAD. ) ;
#146 = DIRECTION ( 'NONE',  ( 4.275831445896959482E-31, 1.000000000000000000, 1.224646799147353454E-16 ) ) ;
#147 = AXIS2_PLACEMENT_3D ( 'NONE', #97, #197, #102 ) ;
#148 = AXIS2_PLACEMENT_3D ( 'NONE', #275, #51, #298 ) ;
#149 = ADVANCED_FACE ( 'NONE', ( #279, #77 ), #245, .T. ) ;
#150 = CARTESIAN_POINT ( 'NONE',  ( 2.129803616694311221E-13, -7.470345474798856659E-15, 61.00000000000000000 ) ) ;
#151 = ORIENTED_EDGE ( 'NONE', *, *, #116, .T. ) ;
#152 = PERSON_AND_ORGANIZATION ( #155, #60 ) ;
#153 = FACE_OUTER_BOUND ( 'NONE', #139, .T. ) ;
#154 = LOCAL_TIME ( 8, 16, 28.00000000000000000, #145 ) ;
#155 = PERSON ( 'UNSPECIFIED', 'UNSPECIFIED', 'UNSPECIFIED', ('UNSPECIFIED'), ('UNSPECIFIED'), ('UNSPECIFIED') ) ;
#156 = CARTESIAN_POINT ( 'NONE',  ( 3.491481338843133355E-14, -1.224646799147353454E-15, 10.00000000000000000 ) ) ;
#157 = VERTEX_POINT ( 'NONE', #188 ) ;
#158 = FACE_BOUND ( 'NONE', #31, .T. ) ;
#159 = LOCAL_TIME ( 8, 16, 28.00000000000000000, #6 ) ;
#160 = EDGE_LOOP ( 'NONE', ( #213 ) ) ;
#161 = CONICAL_SURFACE ( 'NONE', #17, 1.379999999999998561, 0.7853981633974435050 ) ;
#162 = EDGE_LOOP ( 'NONE', ( #284 ) ) ;
#163 = MANIFOLD_SOLID_BREP ( 'Corps-Déplacer/Copier1[1]', #137 ) ;
#164 = PLANE ( 'NONE',  #236 ) ;
#165 = SHAPE_DEFINITION_REPRESENTATION ( #187, #172 ) ;
#166 = ADVANCED_FACE ( 'NONE', ( #195, #226 ), #269, .F. ) ;
#167 = AXIS2_PLACEMENT_3D ( 'NONE', #25, #57, #146 ) ;
#168 = ORIENTED_EDGE ( 'NONE', *, *, #83, .T. ) ;
#169 = CALENDAR_DATE ( 2021, 2, 12 ) ;
#170 = FACE_BOUND ( 'NONE', #5, .T. ) ;
#171 = CARTESIAN_POINT ( 'NONE',  ( 8.849961221477469775E-14, -3.104148534859897544E-15, 25.34729635533384595 ) ) ;
#172 = ADVANCED_BREP_SHAPE_REPRESENTATION ( '327100', ( #163, #65, #148 ), #295 ) ;
#173 = AXIS2_PLACEMENT_3D ( 'NONE', #303, #141, #124 ) ;
#174 = DIRECTION ( 'NONE',  ( -4.275831445896959482E-31, -1.000000000000000000, -1.224646799147353454E-16 ) ) ;
#175 = CC_DESIGN_DATE_AND_TIME_ASSIGNMENT ( #96, #36, ( #205 ) ) ;
#176 = CARTESIAN_POINT ( 'NONE',  ( 9.423433942816565473E-14, 1.499999999999992673, 26.98978750932955961 ) ) ;
#177 = AXIS2_PLACEMENT_3D ( 'NONE', #250, #79, #117 ) ;
#178 = APPROVAL_ROLE ( '' ) ;
#179 = DIRECTION ( 'NONE',  ( -4.275831445896959482E-31, -1.000000000000000000, -1.224646799147353454E-16 ) ) ;
#180 = PRODUCT_RELATED_PRODUCT_CATEGORY ( 'detail', '', ( #239 ) ) ;
#181 = ORIENTED_EDGE ( 'NONE', *, *, #44, .F. ) ;
#182 = APPROVAL_STATUS ( 'not_yet_approved' ) ;
#183 = ORIENTED_EDGE ( 'NONE', *, *, #127, .F. ) ;
#184 = EDGE_LOOP ( 'NONE', ( #109 ) ) ;
#185 = CIRCLE ( 'NONE', #190, 1.379999999999998561 ) ;
#186 = DIRECTION ( 'NONE',  ( 0.0000000000000000000, 1.000000000000000000, 0.0000000000000000000 ) ) ;
#187 = PRODUCT_DEFINITION_SHAPE ( 'NONE', 'NONE',  #132 ) ;
#188 = CARTESIAN_POINT ( 'NONE',  ( 2.129803616694311221E-13, 1.199999999999995515, 61.00000000000000000 ) ) ;
#189 = ADVANCED_FACE ( 'NONE', ( #256, #224 ), #297, .T. ) ;
#190 = AXIS2_PLACEMENT_3D ( 'NONE', #262, #46, #209 ) ;
#191 = FACE_OUTER_BOUND ( 'NONE', #287, .T. ) ;
#192 = APPROVAL_DATE_TIME ( #115, #78 ) ;
#193 = CONICAL_SURFACE ( 'NONE', #281, 1.499999999999996003, 0.1745329251994265363 ) ;
#194 = PERSON_AND_ORGANIZATION_ROLE ( 'creator' ) ;
#195 = FACE_OUTER_BOUND ( 'NONE', #260, .T. ) ;
#196 = PERSON_AND_ORGANIZATION ( #155, #60 ) ;
#197 = DIRECTION ( 'NONE',  ( -3.491481338843133355E-15, 1.224646799147353454E-16, -1.000000000000000000 ) ) ;
#198 = CARTESIAN_POINT ( 'NONE',  ( 8.849961221477469775E-14, 1.210384493975577680, 25.34729635533384595 ) ) ;
#199 = CARTESIAN_POINT ( 'NONE',  ( 8.728703347107833388E-16, 1.379999999999998561, 0.2500000000000000000 ) ) ;
#200 = ADVANCED_FACE ( 'NONE', ( #227, #170 ), #243, .T. ) ;
#201 = DIRECTION ( 'NONE',  ( 3.491481338843133355E-15, -1.224646799147353454E-16, 1.000000000000000000 ) ) ;
#202 = CARTESIAN_POINT ( 'NONE',  ( 2.119329172677781757E-13, 1.499999999999995559, 60.69999999999999574 ) ) ;
#203 = EDGE_CURVE ( 'NONE', #76, #76, #101, .T. ) ;
#204 = EDGE_LOOP ( 'NONE', ( #181 ) ) ;
#205 = SECURITY_CLASSIFICATION ( '', '', #273 ) ;
#206 = DIRECTION ( 'NONE',  ( -3.491481338843133355E-15, 1.224646799147353454E-16, -1.000000000000000000 ) ) ;
#207 = CIRCLE ( 'NONE', #285, 1.499999999999996003 ) ;
#208 = APPROVAL_STATUS ( 'not_yet_approved' ) ;
#209 = DIRECTION ( 'NONE',  ( 4.186804226928778201E-31, 1.000000000000000000, 1.178480622266853943E-16 ) ) ;
#210 = CALENDAR_DATE ( 2021, 2, 12 ) ;
#211 = ORIENTED_EDGE ( 'NONE', *, *, #244, .F. ) ;
#212 = CC_DESIGN_PERSON_AND_ORGANIZATION_ASSIGNMENT ( #14, #194, ( #40 ) ) ;
#213 = ORIENTED_EDGE ( 'NONE', *, *, #83, .F. ) ;
#214 = AXIS2_PLACEMENT_3D ( 'NONE', #156, #4, #288 ) ;
#215 = ADVANCED_FACE ( 'NONE', ( #296 ), #122, .T. ) ;
#216 = DIRECTION ( 'NONE',  ( 3.491481338843133355E-15, -1.224646799147353454E-16, 1.000000000000000000 ) ) ;
#217 = DIRECTION ( 'NONE',  ( -3.491481338843133355E-15, 1.224646799147353454E-16, -1.000000000000000000 ) ) ;
#218 = FACE_OUTER_BOUND ( 'NONE', #111, .T. ) ;
#219 = DESIGN_CONTEXT ( 'detailed design', #271, 'design' ) ;
#220 = APPROVAL_ROLE ( '' ) ;
#221 = DIRECTION ( 'NONE',  ( -3.491481338843133355E-15, 1.224646799147353454E-16, -1.000000000000000000 ) ) ;
#222 = CARTESIAN_POINT ( 'NONE',  ( 7.570943305532645426E-31, 1.130000000000001226, 2.168404344971008868E-16 ) ) ;
#223 = AXIS2_PLACEMENT_3D ( 'NONE', #52, #143, #120 ) ;
#224 = FACE_OUTER_BOUND ( 'NONE', #15, .T. ) ;
#225 =( LENGTH_UNIT ( ) NAMED_UNIT ( * ) SI_UNIT ( .MILLI., .METRE. ) );
#226 = FACE_OUTER_BOUND ( 'NONE', #184, .T. ) ;
#227 = FACE_OUTER_BOUND ( 'NONE', #84, .T. ) ;
#228 = CC_DESIGN_APPROVAL ( #78, ( #205 ) ) ;
#229 = CARTESIAN_POINT ( 'NONE',  ( 0.0000000000000000000, 0.0000000000000000000, 0.0000000000000000000 ) ) ;
#230 = CYLINDRICAL_SURFACE ( 'NONE', #130, 1.499999999999999334 ) ;
#231 = DIRECTION ( 'NONE',  ( 0.0000000000000000000, 1.000000000000000000, 0.0000000000000000000 ) ) ;
#232 = DIRECTION ( 'NONE',  ( -4.275831445896959482E-31, -1.000000000000000000, -1.224646799147353454E-16 ) ) ;
#233 = APPLICATION_CONTEXT ( 'configuration controlled 3d designs of mechanical parts and assemblies' ) ;
#234 = CC_DESIGN_DATE_AND_TIME_ASSIGNMENT ( #128, #29, ( #132 ) ) ;
#235 = ORIENTED_EDGE ( 'NONE', *, *, #44, .T. ) ;
#236 = AXIS2_PLACEMENT_3D ( 'NONE', #135, #221, #72 ) ;
#237 = EDGE_LOOP ( 'NONE', ( #10 ) ) ;
#238 = APPROVAL_PERSON_ORGANIZATION ( #266, #292, #178 ) ;
#239 = PRODUCT ( '327100', '327100', '', ( #123 ) ) ;
#240 = FACE_OUTER_BOUND ( 'NONE', #61, .T. ) ;
#241 = ORIENTED_EDGE ( 'NONE', *, *, #203, .T. ) ;
#242 = DATE_AND_TIME ( #274, #2 ) ;
#243 = CONICAL_SURFACE ( 'NONE', #223, 1.200000000000002842, 0.7853981633974453924 ) ;
#244 = EDGE_CURVE ( 'NONE', #56, #56, #43, .T. ) ;
#245 = CYLINDRICAL_SURFACE ( 'NONE', #177, 1.179999999999999272 ) ;
#246 = CARTESIAN_POINT ( 'NONE',  ( 3.491481338843133355E-14, 1.379999999999998561, 10.00000000000000000 ) ) ;
#247 = APPROVAL_PERSON_ORGANIZATION ( #13, #78, #220 ) ;
#248 = APPROVAL_DATE_TIME ( #242, #121 ) ;
#249 = CIRCLE ( 'NONE', #290, 1.500000000000002887 ) ;
#250 = CARTESIAN_POINT ( 'NONE',  ( 0.0000000000000000000, 0.0000000000000000000, 0.0000000000000000000 ) ) ;
#251 = PERSON_AND_ORGANIZATION ( #155, #60 ) ;
#252 = DIRECTION ( 'NONE',  ( -3.491481338843133355E-15, 1.224646799147353454E-16, -1.000000000000000000 ) ) ;
#253 = CARTESIAN_POINT ( 'NONE',  ( 8.728703347107833388E-14, 1.179999999999997051, 25.00000000000000000 ) ) ;
#254 = VERTEX_POINT ( 'NONE', #202 ) ;
#255 = AXIS2_PLACEMENT_3D ( 'NONE', #229, #74, #26 ) ;
#256 = FACE_OUTER_BOUND ( 'NONE', #204, .T. ) ;
#257 = AXIS2_PLACEMENT_3D ( 'NONE', #171, #55, #20 ) ;
#258 = APPLICATION_PROTOCOL_DEFINITION ( 'international standard', 'config_control_design', 1994, #271 ) ;
#259 = CC_DESIGN_PERSON_AND_ORGANIZATION_ASSIGNMENT ( #196, #276, ( #205 ) ) ;
#260 = EDGE_LOOP ( 'NONE', ( #129 ) ) ;
#261 = APPROVAL_DATE_TIME ( #125, #292 ) ;
#262 = CARTESIAN_POINT ( 'NONE',  ( 8.728703347107827472E-16, -3.061616997868381785E-17, 0.2499999999999998335 ) ) ;
#263 = COORDINATED_UNIVERSAL_TIME_OFFSET ( 1, 0, .AHEAD. ) ;
#264 = LOCAL_TIME ( 8, 16, 28.00000000000000000, #19 ) ;
#265 = PLANE ( 'NONE',  #85 ) ;
#266 = PERSON_AND_ORGANIZATION ( #155, #60 ) ;
#267 = EDGE_LOOP ( 'NONE', ( #168 ) ) ;
#268 = ADVANCED_FACE ( 'NONE', ( #11, #240 ), #161, .T. ) ;
#269 = TOROIDAL_SURFACE ( 'NONE', #167, 3.180000000000000160, 2.000000000000000000 ) ;
#270 = DIRECTION ( 'NONE',  ( -4.186804226928778201E-31, -1.000000000000000000, -1.178480622266853943E-16 ) ) ;
#271 = APPLICATION_CONTEXT ( 'configuration controlled 3d designs of mechanical parts and assemblies' ) ;
#272 = CC_DESIGN_PERSON_AND_ORGANIZATION_ASSIGNMENT ( #251, #41, ( #239 ) ) ;
#273 = SECURITY_CLASSIFICATION_LEVEL ( 'unclassified' ) ;
#274 = CALENDAR_DATE ( 2021, 2, 12 ) ;
#275 = CARTESIAN_POINT ( 'NONE',  ( 0.0000000000000000000, 0.0000000000000000000, 0.0000000000000000000 ) ) ;
#276 = PERSON_AND_ORGANIZATION_ROLE ( 'classification_officer' ) ;
#277 = FACE_BOUND ( 'NONE', #34, .T. ) ;
#278 = CARTESIAN_POINT ( 'NONE',  ( 3.491481338843133355E-14, -1.224646799147353454E-15, 10.00000000000000000 ) ) ;
#279 = FACE_OUTER_BOUND ( 'NONE', #106, .T. ) ;
#280 = ORIENTED_EDGE ( 'NONE', *, *, #110, .F. ) ;
#281 = AXIS2_PLACEMENT_3D ( 'NONE', #89, #289, #134 ) ;
#282 = DIRECTION ( 'NONE',  ( 4.275831445896959482E-31, 1.000000000000000000, 1.224646799147353207E-16 ) ) ;
#283 = APPROVAL_ROLE ( '' ) ;
#284 = ORIENTED_EDGE ( 'NONE', *, *, #87, .F. ) ;
#285 = AXIS2_PLACEMENT_3D ( 'NONE', #133, #105, #186 ) ;
#286 = ADVANCED_FACE ( 'NONE', ( #218 ), #164, .F. ) ;
#287 = EDGE_LOOP ( 'NONE', ( #49 ) ) ;
#288 = DIRECTION ( 'NONE',  ( 0.0000000000000000000, 1.000000000000000000, 0.0000000000000000000 ) ) ;
#289 = DIRECTION ( 'NONE',  ( 3.491481338843133355E-15, -1.224646799147353454E-16, 1.000000000000000000 ) ) ;
#290 = AXIS2_PLACEMENT_3D ( 'NONE', #59, #252, #42 ) ;
#291 = UNCERTAINTY_MEASURE_WITH_UNIT (LENGTH_MEASURE( 1.000000000000000082E-05 ), #225, 'distance_accuracy_value', 'NONE');
#292 = APPROVAL ( #208, 'UNSPECIFIED' ) ;
#293 = ADVANCED_FACE ( 'NONE', ( #158, #113 ), #193, .T. ) ;
#294 = AXIS2_PLACEMENT_3D ( 'NONE', #30, #67, #179 ) ;
#295 =( GEOMETRIC_REPRESENTATION_CONTEXT ( 3 ) GLOBAL_UNCERTAINTY_ASSIGNED_CONTEXT ( ( #291 ) ) GLOBAL_UNIT_ASSIGNED_CONTEXT ( ( #225, #18, #91 ) ) REPRESENTATION_CONTEXT ( 'NONE', 'WORKASPACE' ) );
#296 = FACE_OUTER_BOUND ( 'NONE', #92, .T. ) ;
#297 = CYLINDRICAL_SURFACE ( 'NONE', #255, 1.379999999999999227 ) ;
#298 = DIRECTION ( 'NONE',  ( 1.000000000000000000, 0.0000000000000000000, 0.0000000000000000000 ) ) ;
#299 = DIRECTION ( 'NONE',  ( 0.0000000000000000000, 1.000000000000000000, 0.0000000000000000000 ) ) ;
#300 = CC_DESIGN_APPROVAL ( #121, ( #40 ) ) ;
#301 = CLOSED_SHELL ( 'NONE', ( #93, #268, #189, #215 ) ) ;
#302 = CARTESIAN_POINT ( 'NONE',  ( 3.491481338843133355E-14, 1.379999999999998561, 10.00000000000000000 ) ) ;
#303 = CARTESIAN_POINT ( 'NONE',  ( 8.728703347107833388E-14, -3.061616997868383831E-15, 25.00000000000000000 ) ) ;
ENDSEC;
END-ISO-10303-21;
