ISO-10303-21;
HEADER;
FILE_DESCRIPTION (( 'STEP AP203' ),
    '1' );
FILE_NAME ('327099.step',
    '2021-12-02T07:11:37',
    ( '' ),
    ( '' ),
    'SwSTEP 2.0',
    'SolidWorks 2019',
    '' );
FILE_SCHEMA (( 'CONFIG_CONTROL_DESIGN' ));
ENDSEC;

DATA;
#1 = ORIENTED_EDGE ( 'NONE', *, *, #137, .F. ) ;
#2 = CC_DESIGN_PERSON_AND_ORGANIZATION_ASSIGNMENT ( #193, #261, ( #123 ) ) ;
#3 = DATE_AND_TIME ( #218, #37 ) ;
#4 = EDGE_LOOP ( 'NONE', ( #142 ) ) ;
#5 = COORDINATED_UNIVERSAL_TIME_OFFSET ( 1, 0, .AHEAD. ) ;
#6 = CIRCLE ( 'NONE', #221, 1.369999999999999662 ) ;
#7 = CLOSED_SHELL ( 'NONE', ( #276, #228, #224, #147 ) ) ;
#8 = CARTESIAN_POINT ( 'NONE',  ( 2.129803616694311221E-13, -7.470345474798856659E-15, 61.00000000000000000 ) ) ;
#9 = DIRECTION ( 'NONE',  ( -3.491481338843133355E-15, 1.224646799147353454E-16, -1.000000000000000000 ) ) ;
#10 = DIRECTION ( 'NONE',  ( 3.491481338843133355E-15, -1.224646799147353454E-16, 1.000000000000000000 ) ) ;
#11 = CC_DESIGN_PERSON_AND_ORGANIZATION_ASSIGNMENT ( #259, #140, ( #203 ) ) ;
#12 = CARTESIAN_POINT ( 'NONE',  ( 6.567483738894367195E-31, -2.303563203907655571E-32, 1.881002102411475324E-16 ) ) ;
#13 = ORGANIZATION ( 'UNSPECIFIED', 'UNSPECIFIED', '' ) ;
#14 = CARTESIAN_POINT ( 'NONE',  ( 8.728703347107839305E-16, 1.369999999999999662, 0.2500000000000001665 ) ) ;
#15 = VERTEX_POINT ( 'NONE', #133 ) ;
#16 = DIRECTION ( 'NONE',  ( -3.491481338843133355E-15, 1.224646799147353454E-16, -1.000000000000000000 ) ) ;
#17 = DIRECTION ( 'NONE',  ( 0.0000000000000000000, 1.000000000000000000, 0.0000000000000000000 ) ) ;
#18 = AXIS2_PLACEMENT_3D ( 'NONE', #43, #74, #166 ) ;
#19 = PRODUCT_RELATED_PRODUCT_CATEGORY ( 'detail', '', ( #51 ) ) ;
#20 = COORDINATED_UNIVERSAL_TIME_OFFSET ( 1, 0, .AHEAD. ) ;
#21 = CALENDAR_DATE ( 2021, 2, 12 ) ;
#22 = CALENDAR_DATE ( 2021, 2, 12 ) ;
#23 = EDGE_LOOP ( 'NONE', ( #242 ) ) ;
#24 = AXIS2_PLACEMENT_3D ( 'NONE', #12, #101, #32 ) ;
#25 = DATE_TIME_ROLE ( 'classification_date' ) ;
#26 = ORIENTED_EDGE ( 'NONE', *, *, #283, .T. ) ;
#27 = APPROVAL_STATUS ( 'not_yet_approved' ) ;
#28 = EDGE_LOOP ( 'NONE', ( #214 ) ) ;
#29 = EDGE_LOOP ( 'NONE', ( #1 ) ) ;
#30 =( GEOMETRIC_REPRESENTATION_CONTEXT ( 3 ) GLOBAL_UNCERTAINTY_ASSIGNED_CONTEXT ( ( #265 ) ) GLOBAL_UNIT_ASSIGNED_CONTEXT ( ( #85, #60, #202 ) ) REPRESENTATION_CONTEXT ( 'NONE', 'WORKASPACE' ) );
#31 = DIRECTION ( 'NONE',  ( 0.0000000000000000000, 1.000000000000000000, 0.0000000000000000000 ) ) ;
#32 = DIRECTION ( 'NONE',  ( 4.275831445896959482E-31, 1.000000000000000000, 1.224646799147353454E-16 ) ) ;
#33 = EDGE_CURVE ( 'NONE', #108, #108, #296, .T. ) ;
#34 = APPROVAL_PERSON_ORGANIZATION ( #48, #173, #257 ) ;
#35 = FACE_BOUND ( 'NONE', #264, .T. ) ;
#36 = PLANE ( 'NONE',  #141 ) ;
#37 = LOCAL_TIME ( 8, 11, 37.00000000000000000, #188 ) ;
#38 = CARTESIAN_POINT ( 'NONE',  ( 3.624524646439344177E-14, 1.149999999999997025, 10.38105117766516017 ) ) ;
#39 = FACE_OUTER_BOUND ( 'NONE', #28, .T. ) ;
#40 = CC_DESIGN_DATE_AND_TIME_ASSIGNMENT ( #115, #25, ( #203 ) ) ;
#41 = AXIS2_PLACEMENT_3D ( 'NONE', #104, #155, #183 ) ;
#42 = EDGE_LOOP ( 'NONE', ( #114 ) ) ;
#43 = CARTESIAN_POINT ( 'NONE',  ( 0.0000000000000000000, 0.0000000000000000000, 0.0000000000000000000 ) ) ;
#44 = EDGE_LOOP ( 'NONE', ( #160 ) ) ;
#45 = PERSON_AND_ORGANIZATION_ROLE ( 'creator' ) ;
#46 = ORIENTED_EDGE ( 'NONE', *, *, #244, .F. ) ;
#47 = CIRCLE ( 'NONE', #230, 1.500000000000002887 ) ;
#48 = PERSON_AND_ORGANIZATION ( #279, #13 ) ;
#49 = DIRECTION ( 'NONE',  ( -4.217364841723874981E-31, -1.000000000000000000, -1.187082670604567138E-16 ) ) ;
#50 = AXIS2_PLACEMENT_3D ( 'NONE', #128, #292, #268 ) ;
#51 = PRODUCT ( '327099', '327099', '', ( #117 ) ) ;
#52 = DIRECTION ( 'NONE',  ( -3.491481338843133355E-15, 1.224646799147353454E-16, -1.000000000000000000 ) ) ;
#53 = AXIS2_PLACEMENT_3D ( 'NONE', #122, #237, #70 ) ;
#54 = DIRECTION ( 'NONE',  ( 0.0000000000000000000, 1.000000000000000000, 0.0000000000000000000 ) ) ;
#55 = DIRECTION ( 'NONE',  ( 3.491481338843133355E-15, -1.224646799147353454E-16, 1.000000000000000000 ) ) ;
#56 = FACE_BOUND ( 'NONE', #29, .T. ) ;
#57 = CARTESIAN_POINT ( 'NONE',  ( 9.482837466738113547E-14, -3.326131639679139872E-15, 27.15992596391809855 ) ) ;
#58 = EDGE_CURVE ( 'NONE', #62, #62, #205, .T. ) ;
#59 = MANIFOLD_SOLID_BREP ( 'Corps-Déplacer/Copier1[1]', #148 ) ;
#60 =( NAMED_UNIT ( * ) PLANE_ANGLE_UNIT ( ) SI_UNIT ( $, .RADIAN. ) );
#61 = DIRECTION ( 'NONE',  ( 0.0000000000000000000, 1.000000000000000000, 0.0000000000000000000 ) ) ;
#62 = VERTEX_POINT ( 'NONE', #132 ) ;
#63 = CC_DESIGN_PERSON_AND_ORGANIZATION_ASSIGNMENT ( #302, #185, ( #123 ) ) ;
#64 = FACE_OUTER_BOUND ( 'NONE', #167, .T. ) ;
#65 = APPROVAL_ROLE ( '' ) ;
#66 = AXIS2_PLACEMENT_3D ( 'NONE', #227, #223, #31 ) ;
#67 = AXIS2_PLACEMENT_3D ( 'NONE', #222, #81, #266 ) ;
#68 = PERSON_AND_ORGANIZATION ( #279, #13 ) ;
#69 = PERSON_AND_ORGANIZATION_ROLE ( 'design_owner' ) ;
#70 = DIRECTION ( 'NONE',  ( 0.0000000000000000000, 1.000000000000000000, 0.0000000000000000000 ) ) ;
#71 = ORIENTED_EDGE ( 'NONE', *, *, #103, .T. ) ;
#72 = CONICAL_SURFACE ( 'NONE', #73, 1.499999999999998668, 0.1745329251994258424 ) ;
#73 = AXIS2_PLACEMENT_3D ( 'NONE', #153, #252, #136 ) ;
#74 = DIRECTION ( 'NONE',  ( 0.0000000000000000000, 0.0000000000000000000, 1.000000000000000000 ) ) ;
#75 = APPROVAL ( #241, 'UNSPECIFIED' ) ;
#76 = CARTESIAN_POINT ( 'NONE',  ( 8.849961221477468513E-14, -3.104148534859897150E-15, 25.34729635533384240 ) ) ;
#77 = CARTESIAN_POINT ( 'NONE',  ( 3.491481338843133355E-14, 1.027335451123371750E-32, 10.00000000000000000 ) ) ;
#78 = CC_DESIGN_SECURITY_CLASSIFICATION ( #203, ( #123 ) ) ;
#79 = ADVANCED_FACE ( 'NONE', ( #125, #100 ), #232, .F. ) ;
#80 = PLANE ( 'NONE',  #225 ) ;
#81 = DIRECTION ( 'NONE',  ( -3.491481338843133355E-15, 1.224646799147353454E-16, -1.000000000000000000 ) ) ;
#82 = FACE_OUTER_BOUND ( 'NONE', #95, .T. ) ;
#83 = CIRCLE ( 'NONE', #210, 1.499999999999998668 ) ;
#84 = VERTEX_POINT ( 'NONE', #207 ) ;
#85 =( LENGTH_UNIT ( ) NAMED_UNIT ( * ) SI_UNIT ( .MILLI., .METRE. ) );
#86 = CIRCLE ( 'NONE', #24, 1.120000000000001661 ) ;
#87 = VERTEX_POINT ( 'NONE', #14 ) ;
#88 = ADVANCED_FACE ( 'NONE', ( #294, #35 ), #285, .T. ) ;
#89 = CALENDAR_DATE ( 2021, 2, 12 ) ;
#90 = ORIENTED_EDGE ( 'NONE', *, *, #206, .T. ) ;
#91 = APPROVAL_DATE_TIME ( #3, #75 ) ;
#92 = EDGE_LOOP ( 'NONE', ( #187 ) ) ;
#93 = EDGE_CURVE ( 'NONE', #15, #15, #124, .T. ) ;
#94 = APPROVAL_DATE_TIME ( #113, #173 ) ;
#95 = EDGE_LOOP ( 'NONE', ( #194 ) ) ;
#96 = AXIS2_PLACEMENT_3D ( 'NONE', #8, #288, #98 ) ;
#97 = CYLINDRICAL_SURFACE ( 'NONE', #176, 1.370000000000000329 ) ;
#98 = DIRECTION ( 'NONE',  ( 0.0000000000000000000, 1.000000000000000000, 0.0000000000000000000 ) ) ;
#99 = DIRECTION ( 'NONE',  ( 0.0000000000000000000, 1.000000000000000000, 0.0000000000000000000 ) ) ;
#100 = FACE_OUTER_BOUND ( 'NONE', #260, .T. ) ;
#101 = DIRECTION ( 'NONE',  ( -3.491481338843133355E-15, 1.224646799147353454E-16, -1.000000000000000000 ) ) ;
#102 = APPLICATION_CONTEXT ( 'configuration controlled 3d designs of mechanical parts and assemblies' ) ;
#103 = EDGE_CURVE ( 'NONE', #211, #211, #47, .T. ) ;
#104 = CARTESIAN_POINT ( 'NONE',  ( 0.0000000000000000000, 0.0000000000000000000, 0.0000000000000000000 ) ) ;
#105 = LOCAL_TIME ( 8, 11, 37.00000000000000000, #238 ) ;
#106 = DIRECTION ( 'NONE',  ( 3.491481338843133355E-15, -1.224646799147353454E-16, 1.000000000000000000 ) ) ;
#107 = APPROVAL ( #27, 'UNSPECIFIED' ) ;
#108 = VERTEX_POINT ( 'NONE', #38 ) ;
#109 = APPLICATION_CONTEXT ( 'configuration controlled 3d designs of mechanical parts and assemblies' ) ;
#110 = AXIS2_PLACEMENT_3D ( 'NONE', #170, #55, #49 ) ;
#111 = FACE_BOUND ( 'NONE', #243, .T. ) ;
#112 = COORDINATED_UNIVERSAL_TIME_OFFSET ( 1, 0, .AHEAD. ) ;
#113 = DATE_AND_TIME ( #21, #295 ) ;
#114 = ORIENTED_EDGE ( 'NONE', *, *, #290, .F. ) ;
#115 = DATE_AND_TIME ( #22, #105 ) ;
#116 = EDGE_LOOP ( 'NONE', ( #71 ) ) ;
#117 = MECHANICAL_CONTEXT ( 'NONE', #109, 'mechanical' ) ;
#118 = EDGE_LOOP ( 'NONE', ( #120 ) ) ;
#119 = ADVANCED_FACE ( 'NONE', ( #130, #226 ), #249, .T. ) ;
#120 = ORIENTED_EDGE ( 'NONE', *, *, #103, .F. ) ;
#121 = DESIGN_CONTEXT ( 'detailed design', #102, 'design' ) ;
#122 = CARTESIAN_POINT ( 'NONE',  ( 3.624524646439344177E-14, -1.271312109651250272E-15, 10.38105117766516017 ) ) ;
#123 = PRODUCT_DEFINITION_FORMATION_WITH_SPECIFIED_SOURCE ( 'ANY', '', #51, .NOT_KNOWN. ) ;
#124 = CIRCLE ( 'NONE', #192, 1.370000000000000995 ) ;
#125 = FACE_OUTER_BOUND ( 'NONE', #92, .T. ) ;
#126 = CARTESIAN_POINT ( 'NONE',  ( 3.624524646439344177E-14, -1.271312109651250272E-15, 10.38105117766516017 ) ) ;
#127 = PRODUCT_DEFINITION_SHAPE ( 'NONE', 'NONE',  #162 ) ;
#128 = CARTESIAN_POINT ( 'NONE',  ( 0.0000000000000000000, 0.0000000000000000000, 0.0000000000000000000 ) ) ;
#129 = AXIS2_PLACEMENT_3D ( 'NONE', #180, #253, #156 ) ;
#130 = FACE_OUTER_BOUND ( 'NONE', #144, .T. ) ;
#131 = DIRECTION ( 'NONE',  ( -3.491481338843133355E-15, 1.224646799147353454E-16, -1.000000000000000000 ) ) ;
#132 = CARTESIAN_POINT ( 'NONE',  ( 2.129803616694311221E-13, 1.199999999999995515, 61.00000000000000000 ) ) ;
#133 = CARTESIAN_POINT ( 'NONE',  ( 3.491481338843133355E-14, 1.369999999999999662, 10.00000000000000000 ) ) ;
#134 = DIRECTION ( 'NONE',  ( -3.491481338843133355E-15, 1.224646799147353454E-16, -1.000000000000000000 ) ) ;
#135 = AXIS2_PLACEMENT_3D ( 'NONE', #299, #16, #61 ) ;
#136 = DIRECTION ( 'NONE',  ( 0.0000000000000000000, -1.000000000000000000, 0.0000000000000000000 ) ) ;
#137 = EDGE_CURVE ( 'NONE', #177, #177, #86, .T. ) ;
#138 = APPLICATION_PROTOCOL_DEFINITION ( 'international standard', 'config_control_design', 1994, #109 ) ;
#139 = EDGE_LOOP ( 'NONE', ( #26 ) ) ;
#140 = PERSON_AND_ORGANIZATION_ROLE ( 'classification_officer' ) ;
#141 = AXIS2_PLACEMENT_3D ( 'NONE', #200, #131, #196 ) ;
#142 = ORIENTED_EDGE ( 'NONE', *, *, #33, .T. ) ;
#143 = APPLICATION_PROTOCOL_DEFINITION ( 'international standard', 'config_control_design', 1994, #102 ) ;
#144 = EDGE_LOOP ( 'NONE', ( #217 ) ) ;
#145 = FACE_OUTER_BOUND ( 'NONE', #44, .T. ) ;
#146 = CC_DESIGN_APPROVAL ( #75, ( #203 ) ) ;
#147 = ADVANCED_FACE ( 'NONE', ( #175 ), #80, .T. ) ;
#148 = CLOSED_SHELL ( 'NONE', ( #270, #247, #119, #79, #298, #254, #88, #239 ) ) ;
#149 = DIRECTION ( 'NONE',  ( -4.275831445896959482E-31, -1.000000000000000000, -1.224646799147353454E-16 ) ) ;
#150 = FACE_OUTER_BOUND ( 'NONE', #42, .T. ) ;
#151 = CARTESIAN_POINT ( 'NONE',  ( 2.119329172677781757E-13, -7.433606070824434221E-15, 60.69999999999999574 ) ) ;
#152 = FACE_OUTER_BOUND ( 'NONE', #139, .T. ) ;
#153 = CARTESIAN_POINT ( 'NONE',  ( 9.482837466738113547E-14, -3.326131639679139872E-15, 27.15992596391809855 ) ) ;
#154 = AXIS2_PLACEMENT_3D ( 'NONE', #278, #106, #277 ) ;
#155 = DIRECTION ( 'NONE',  ( -3.491481338843133355E-15, 1.224646799147353454E-16, -1.000000000000000000 ) ) ;
#156 = DIRECTION ( 'NONE',  ( -4.275831445896959482E-31, -1.000000000000000000, -1.224646799147353454E-16 ) ) ;
#157 = VERTEX_POINT ( 'NONE', #256 ) ;
#158 = CC_DESIGN_APPROVAL ( #173, ( #123 ) ) ;
#159 = APPROVAL_STATUS ( 'not_yet_approved' ) ;
#160 = ORIENTED_EDGE ( 'NONE', *, *, #281, .F. ) ;
#161 = ORIENTED_EDGE ( 'NONE', *, *, #58, .F. ) ;
#162 = PRODUCT_DEFINITION ( 'UNKNOWN', '', #123, #121 ) ;
#163 = CALENDAR_DATE ( 2021, 2, 12 ) ;
#164 = CARTESIAN_POINT ( 'NONE',  ( 2.129803616694311221E-13, -7.470345474798856659E-15, 61.00000000000000000 ) ) ;
#165 = APPROVAL_PERSON_ORGANIZATION ( #262, #107, #65 ) ;
#166 = DIRECTION ( 'NONE',  ( 1.000000000000000000, 0.0000000000000000000, 0.0000000000000000000 ) ) ;
#167 = EDGE_LOOP ( 'NONE', ( #219 ) ) ;
#168 = DIRECTION ( 'NONE',  ( 0.0000000000000000000, 1.000000000000000000, 0.0000000000000000000 ) ) ;
#169 = MANIFOLD_SOLID_BREP ( 'Corps-Déplacer/Copier1[2]', #7 ) ;
#170 = CARTESIAN_POINT ( 'NONE',  ( 8.728703347107833388E-16, -3.061616997868383634E-17, 0.2500000000000000000 ) ) ;
#171 = CONICAL_SURFACE ( 'NONE', #215, 1.149999999999998135, 0.5235987755982955960 ) ;
#172 = DIRECTION ( 'NONE',  ( -3.491481338843133355E-15, 1.224646799147353454E-16, -1.000000000000000000 ) ) ;
#173 = APPROVAL ( #159, 'UNSPECIFIED' ) ;
#174 = DIRECTION ( 'NONE',  ( -3.491481338843133355E-15, 1.224646799147353454E-16, -1.000000000000000000 ) ) ;
#175 = FACE_OUTER_BOUND ( 'NONE', #287, .T. ) ;
#176 = AXIS2_PLACEMENT_3D ( 'NONE', #273, #9, #271 ) ;
#177 = VERTEX_POINT ( 'NONE', #182 ) ;
#178 = PLANE ( 'NONE',  #154 ) ;
#179 = CC_DESIGN_PERSON_AND_ORGANIZATION_ASSIGNMENT ( #236, #69, ( #51 ) ) ;
#180 = CARTESIAN_POINT ( 'NONE',  ( 3.491481338843133355E-14, 1.027335451123371750E-32, 10.00000000000000000 ) ) ;
#181 = LOCAL_TIME ( 8, 11, 37.00000000000000000, #5 ) ;
#182 = CARTESIAN_POINT ( 'NONE',  ( 1.135641495829896858E-30, 1.120000000000001661, 3.252606517456513302E-16 ) ) ;
#183 = DIRECTION ( 'NONE',  ( 4.275831445896958607E-31, 1.000000000000000000, 1.224646799147353454E-16 ) ) ;
#184 = CC_DESIGN_PERSON_AND_ORGANIZATION_ASSIGNMENT ( #68, #45, ( #162 ) ) ;
#185 = PERSON_AND_ORGANIZATION_ROLE ( 'design_supplier' ) ;
#186 = ORIENTED_EDGE ( 'NONE', *, *, #58, .T. ) ;
#187 = ORIENTED_EDGE ( 'NONE', *, *, #206, .F. ) ;
#188 = COORDINATED_UNIVERSAL_TIME_OFFSET ( 1, 0, .AHEAD. ) ;
#189 = EDGE_LOOP ( 'NONE', ( #161 ) ) ;
#190 = SHAPE_DEFINITION_REPRESENTATION ( #127, #195 ) ;
#191 = ORIENTED_EDGE ( 'NONE', *, *, #244, .T. ) ;
#192 = AXIS2_PLACEMENT_3D ( 'NONE', #246, #198, #99 ) ;
#193 = PERSON_AND_ORGANIZATION ( #279, #13 ) ;
#194 = ORIENTED_EDGE ( 'NONE', *, *, #283, .F. ) ;
#195 = ADVANCED_BREP_SHAPE_REPRESENTATION ( '327099', ( #59, #169, #18 ), #30 ) ;
#196 = DIRECTION ( 'NONE',  ( 4.275831445896959482E-31, 1.000000000000000000, 1.224646799147353454E-16 ) ) ;
#197 = DIRECTION ( 'NONE',  ( 0.0000000000000000000, 1.000000000000000000, 0.0000000000000000000 ) ) ;
#198 = DIRECTION ( 'NONE',  ( -3.491481338843133355E-15, 1.224646799147353454E-16, -1.000000000000000000 ) ) ;
#199 = CIRCLE ( 'NONE', #66, 1.150000000000002132 ) ;
#200 = CARTESIAN_POINT ( 'NONE',  ( 2.129803616694311221E-13, 8.998558695971062171E-33, 61.00000000000000000 ) ) ;
#201 = FACE_OUTER_BOUND ( 'NONE', #23, .T. ) ;
#202 =( NAMED_UNIT ( * ) SI_UNIT ( $, .STERADIAN. ) SOLID_ANGLE_UNIT ( ) );
#203 = SECURITY_CLASSIFICATION ( '', '', #213 ) ;
#204 = VERTEX_POINT ( 'NONE', #231 ) ;
#205 = CIRCLE ( 'NONE', #269, 1.200000000000002842 ) ;
#206 = EDGE_CURVE ( 'NONE', #84, #84, #199, .T. ) ;
#207 = CARTESIAN_POINT ( 'NONE',  ( 8.728703347107833388E-14, 1.149999999999999023, 25.00000000000000000 ) ) ;
#208 = CARTESIAN_POINT ( 'NONE',  ( 8.728703347107833388E-16, -3.061616997868383634E-17, 0.2500000000000000000 ) ) ;
#209 = CIRCLE ( 'NONE', #135, 1.370000000000000995 ) ;
#210 = AXIS2_PLACEMENT_3D ( 'NONE', #57, #134, #17 ) ;
#211 = VERTEX_POINT ( 'NONE', #275 ) ;
#212 = DATE_AND_TIME ( #89, #291 ) ;
#213 = SECURITY_CLASSIFICATION_LEVEL ( 'unclassified' ) ;
#214 = ORIENTED_EDGE ( 'NONE', *, *, #137, .T. ) ;
#215 = AXIS2_PLACEMENT_3D ( 'NONE', #126, #172, #54 ) ;
#216 = PERSON_AND_ORGANIZATION ( #279, #13 ) ;
#217 = ORIENTED_EDGE ( 'NONE', *, *, #33, .F. ) ;
#218 = CALENDAR_DATE ( 2021, 2, 12 ) ;
#219 = ORIENTED_EDGE ( 'NONE', *, *, #290, .T. ) ;
#220 = EDGE_LOOP ( 'NONE', ( #240 ) ) ;
#221 = AXIS2_PLACEMENT_3D ( 'NONE', #208, #274, #255 ) ;
#222 = CARTESIAN_POINT ( 'NONE',  ( 8.728703347107833388E-14, -3.035766082959412415E-15, 25.00000000000000000 ) ) ;
#223 = DIRECTION ( 'NONE',  ( -3.491481338843133355E-15, 1.224646799147353454E-16, -1.000000000000000000 ) ) ;
#224 = ADVANCED_FACE ( 'NONE', ( #82, #201 ), #97, .T. ) ;
#225 = AXIS2_PLACEMENT_3D ( 'NONE', #77, #10, #149 ) ;
#226 = FACE_OUTER_BOUND ( 'NONE', #245, .T. ) ;
#227 = CARTESIAN_POINT ( 'NONE',  ( 8.728703347107833388E-14, -3.061616997868383831E-15, 25.00000000000000000 ) ) ;
#228 = ADVANCED_FACE ( 'NONE', ( #56, #152 ), #250, .T. ) ;
#229 = CARTESIAN_POINT ( 'NONE',  ( 3.491481338843133355E-14, 1.369999999999999662, 10.00000000000000000 ) ) ;
#230 = AXIS2_PLACEMENT_3D ( 'NONE', #151, #289, #293 ) ;
#231 = CARTESIAN_POINT ( 'NONE',  ( 8.849961221477468513E-14, 1.180384493975580540, 25.34729635533384240 ) ) ;
#232 = TOROIDAL_SURFACE ( 'NONE', #67, 3.150000000000002132, 2.000000000000000000 ) ;
#233 = FACE_OUTER_BOUND ( 'NONE', #220, .T. ) ;
#234 = CC_DESIGN_DATE_AND_TIME_ASSIGNMENT ( #212, #284, ( #162 ) ) ;
#235 = FACE_OUTER_BOUND ( 'NONE', #116, .T. ) ;
#236 = PERSON_AND_ORGANIZATION ( #279, #13 ) ;
#237 = DIRECTION ( 'NONE',  ( -3.491481338843133355E-15, 1.224646799147353454E-16, -1.000000000000000000 ) ) ;
#238 = COORDINATED_UNIVERSAL_TIME_OFFSET ( 1, 0, .AHEAD. ) ;
#239 = ADVANCED_FACE ( 'NONE', ( #251 ), #36, .F. ) ;
#240 = ORIENTED_EDGE ( 'NONE', *, *, #281, .T. ) ;
#241 = APPROVAL_STATUS ( 'not_yet_approved' ) ;
#242 = ORIENTED_EDGE ( 'NONE', *, *, #93, .T. ) ;
#243 = EDGE_LOOP ( 'NONE', ( #46 ) ) ;
#244 = EDGE_CURVE ( 'NONE', #204, #204, #272, .T. ) ;
#245 = EDGE_LOOP ( 'NONE', ( #90 ) ) ;
#246 = CARTESIAN_POINT ( 'NONE',  ( 3.491481338843133355E-14, -1.224646799147353454E-15, 10.00000000000000000 ) ) ;
#247 = ADVANCED_FACE ( 'NONE', ( #145, #248 ), #171, .T. ) ;
#248 = FACE_BOUND ( 'NONE', #4, .T. ) ;
#249 = CYLINDRICAL_SURFACE ( 'NONE', #50, 1.150000000000000133 ) ;
#250 = CONICAL_SURFACE ( 'NONE', #110, 1.369999999999999662, 0.7853981633974447263 ) ;
#251 = FACE_OUTER_BOUND ( 'NONE', #189, .T. ) ;
#252 = DIRECTION ( 'NONE',  ( 3.491481338843133355E-15, -1.224646799147353454E-16, 1.000000000000000000 ) ) ;
#253 = DIRECTION ( 'NONE',  ( 3.491481338843133355E-15, -1.224646799147353454E-16, 1.000000000000000000 ) ) ;
#254 = ADVANCED_FACE ( 'NONE', ( #150, #235 ), #280, .T. ) ;
#255 = DIRECTION ( 'NONE',  ( 4.217364841723874981E-31, 1.000000000000000000, 1.187082670604567138E-16 ) ) ;
#256 = CARTESIAN_POINT ( 'NONE',  ( 9.482837466738113547E-14, 1.499999999999995559, 27.15992596391809855 ) ) ;
#257 = APPROVAL_ROLE ( '' ) ;
#258 = ORIENTED_EDGE ( 'NONE', *, *, #93, .F. ) ;
#259 = PERSON_AND_ORGANIZATION ( #279, #13 ) ;
#260 = EDGE_LOOP ( 'NONE', ( #191 ) ) ;
#261 = PERSON_AND_ORGANIZATION_ROLE ( 'creator' ) ;
#262 = PERSON_AND_ORGANIZATION ( #279, #13 ) ;
#263 = APPROVAL_DATE_TIME ( #286, #107 ) ;
#264 = EDGE_LOOP ( 'NONE', ( #186 ) ) ;
#265 = UNCERTAINTY_MEASURE_WITH_UNIT (LENGTH_MEASURE( 1.000000000000000082E-05 ), #85, 'distance_accuracy_value', 'NONE');
#266 = DIRECTION ( 'NONE',  ( 4.275831445896959482E-31, 1.000000000000000000, 1.224646799147353454E-16 ) ) ;
#267 = CC_DESIGN_APPROVAL ( #107, ( #162 ) ) ;
#268 = DIRECTION ( 'NONE',  ( 4.275831445896959482E-31, 1.000000000000000000, 1.224646799147353454E-16 ) ) ;
#269 = AXIS2_PLACEMENT_3D ( 'NONE', #164, #174, #197 ) ;
#270 = ADVANCED_FACE ( 'NONE', ( #233 ), #297, .F. ) ;
#271 = DIRECTION ( 'NONE',  ( 4.275831445896959482E-31, 1.000000000000000000, 1.224646799147353454E-16 ) ) ;
#272 = CIRCLE ( 'NONE', #300, 1.180384493975583649 ) ;
#273 = CARTESIAN_POINT ( 'NONE',  ( 0.0000000000000000000, 0.0000000000000000000, 0.0000000000000000000 ) ) ;
#274 = DIRECTION ( 'NONE',  ( -3.491481338843133355E-15, 1.224646799147353454E-16, -1.000000000000000000 ) ) ;
#275 = CARTESIAN_POINT ( 'NONE',  ( 2.119329172677781757E-13, 1.499999999999995559, 60.69999999999999574 ) ) ;
#276 = ADVANCED_FACE ( 'NONE', ( #39 ), #178, .F. ) ;
#277 = DIRECTION ( 'NONE',  ( -4.275831445896959482E-31, -1.000000000000000000, -1.224646799147353454E-16 ) ) ;
#278 = CARTESIAN_POINT ( 'NONE',  ( 3.283741869447183597E-31, -1.151781601953827785E-32, 9.405010512057376618E-17 ) ) ;
#279 = PERSON ( 'UNSPECIFIED', 'UNSPECIFIED', 'UNSPECIFIED', ('UNSPECIFIED'), ('UNSPECIFIED'), ('UNSPECIFIED') ) ;
#280 = CYLINDRICAL_SURFACE ( 'NONE', #41, 1.500000000000000888 ) ;
#281 = EDGE_CURVE ( 'NONE', #301, #301, #209, .T. ) ;
#282 = APPROVAL_PERSON_ORGANIZATION ( #216, #75, #303 ) ;
#283 = EDGE_CURVE ( 'NONE', #87, #87, #6, .T. ) ;
#284 = DATE_TIME_ROLE ( 'creation_date' ) ;
#285 = CONICAL_SURFACE ( 'NONE', #96, 1.200000000000002842, 0.7853981633974453924 ) ;
#286 = DATE_AND_TIME ( #163, #181 ) ;
#287 = EDGE_LOOP ( 'NONE', ( #258 ) ) ;
#288 = DIRECTION ( 'NONE',  ( -3.491481338843133355E-15, 1.224646799147353454E-16, -1.000000000000000000 ) ) ;
#289 = DIRECTION ( 'NONE',  ( -3.491481338843133355E-15, 1.224646799147353454E-16, -1.000000000000000000 ) ) ;
#290 = EDGE_CURVE ( 'NONE', #157, #157, #83, .T. ) ;
#291 = LOCAL_TIME ( 8, 11, 37.00000000000000000, #112 ) ;
#292 = DIRECTION ( 'NONE',  ( -3.491481338843133355E-15, 1.224646799147353454E-16, -1.000000000000000000 ) ) ;
#293 = DIRECTION ( 'NONE',  ( 0.0000000000000000000, 1.000000000000000000, 0.0000000000000000000 ) ) ;
#294 = FACE_OUTER_BOUND ( 'NONE', #118, .T. ) ;
#295 = LOCAL_TIME ( 8, 11, 37.00000000000000000, #20 ) ;
#296 = CIRCLE ( 'NONE', #53, 1.149999999999998135 ) ;
#297 = PLANE ( 'NONE',  #129 ) ;
#298 = ADVANCED_FACE ( 'NONE', ( #111, #64 ), #72, .T. ) ;
#299 = CARTESIAN_POINT ( 'NONE',  ( 3.491481338843133355E-14, -1.224646799147353454E-15, 10.00000000000000000 ) ) ;
#300 = AXIS2_PLACEMENT_3D ( 'NONE', #76, #52, #168 ) ;
#301 = VERTEX_POINT ( 'NONE', #229 ) ;
#302 = PERSON_AND_ORGANIZATION ( #279, #13 ) ;
#303 = APPROVAL_ROLE ( '' ) ;
ENDSEC;
END-ISO-10303-21;
