ISO-10303-21;
HEADER;
FILE_DESCRIPTION (( 'STEP AP203' ),
    '1' );
FILE_NAME ('327098.step',
    '2021-12-02T07:11:36',
    ( '' ),
    ( '' ),
    'SwSTEP 2.0',
    'SolidWorks 2019',
    '' );
FILE_SCHEMA (( 'CONFIG_CONTROL_DESIGN' ));
ENDSEC;

DATA;
#1 = EDGE_LOOP ( 'NONE', ( #218 ) ) ;
#2 = PERSON_AND_ORGANIZATION ( #229, #244 ) ;
#3 = EDGE_LOOP ( 'NONE', ( #214 ) ) ;
#4 = DATE_AND_TIME ( #185, #286 ) ;
#5 = ORIENTED_EDGE ( 'NONE', *, *, #242, .F. ) ;
#6 = AXIS2_PLACEMENT_3D ( 'NONE', #243, #201, #34 ) ;
#7 = CARTESIAN_POINT ( 'NONE',  ( 9.482837466738113547E-14, -3.326131639679139478E-15, 27.15992596391809499 ) ) ;
#8 = CONICAL_SURFACE ( 'NONE', #55, 1.364999999999998659, 0.7853981633974430610 ) ;
#9 = FACE_OUTER_BOUND ( 'NONE', #140, .T. ) ;
#10 = CARTESIAN_POINT ( 'NONE',  ( 2.129803616694311221E-13, -7.470345474798856659E-15, 61.00000000000000000 ) ) ;
#11 = DIRECTION ( 'NONE',  ( 4.275831445896959482E-31, 1.000000000000000000, 1.224646799147353454E-16 ) ) ;
#12 = FACE_OUTER_BOUND ( 'NONE', #93, .T. ) ;
#13 = ADVANCED_FACE ( 'NONE', ( #235 ), #92, .F. ) ;
#14 = CYLINDRICAL_SURFACE ( 'NONE', #85, 1.364999999999999325 ) ;
#15 =( LENGTH_UNIT ( ) NAMED_UNIT ( * ) SI_UNIT ( .MILLI., .METRE. ) );
#16 = CIRCLE ( 'NONE', #17, 1.364999999999998659 ) ;
#17 = AXIS2_PLACEMENT_3D ( 'NONE', #199, #263, #78 ) ;
#18 = ADVANCED_FACE ( 'NONE', ( #285 ), #74, .F. ) ;
#19 = CARTESIAN_POINT ( 'NONE',  ( 2.129803616694311221E-13, 1.199999999999995515, 61.00000000000000000 ) ) ;
#20 = CARTESIAN_POINT ( 'NONE',  ( 8.728703347107833388E-16, 1.364999999999998659, 0.2500000000000000000 ) ) ;
#21 = LOCAL_TIME ( 8, 11, 36.00000000000000000, #108 ) ;
#22 = PERSON_AND_ORGANIZATION_ROLE ( 'classification_officer' ) ;
#23 = DIRECTION ( 'NONE',  ( -3.491481338843133355E-15, 1.224646799147353454E-16, -1.000000000000000000 ) ) ;
#24 = PERSON_AND_ORGANIZATION_ROLE ( 'design_supplier' ) ;
#25 = EDGE_LOOP ( 'NONE', ( #279 ) ) ;
#26 = CC_DESIGN_APPROVAL ( #36, ( #246 ) ) ;
#27 = PERSON_AND_ORGANIZATION_ROLE ( 'creator' ) ;
#28 = EDGE_LOOP ( 'NONE', ( #89 ) ) ;
#29 = PERSON_AND_ORGANIZATION ( #229, #244 ) ;
#30 = ORIENTED_EDGE ( 'NONE', *, *, #45, .F. ) ;
#31 = FACE_OUTER_BOUND ( 'NONE', #70, .T. ) ;
#32 = CONICAL_SURFACE ( 'NONE', #125, 1.200000000000002842, 0.7853981633974453924 ) ;
#33 = FACE_BOUND ( 'NONE', #144, .T. ) ;
#34 = DIRECTION ( 'NONE',  ( 0.0000000000000000000, 1.000000000000000000, 0.0000000000000000000 ) ) ;
#35 = DIRECTION ( 'NONE',  ( -3.491481338843133355E-15, 1.224646799147353454E-16, -1.000000000000000000 ) ) ;
#36 = APPROVAL ( #299, 'UNSPECIFIED' ) ;
#37 = DIRECTION ( 'NONE',  ( 3.491481338843133355E-15, -1.224646799147353454E-16, 1.000000000000000000 ) ) ;
#38 = VERTEX_POINT ( 'NONE', #19 ) ;
#39 = TOROIDAL_SURFACE ( 'NONE', #176, 3.149999999999999911, 2.000000000000000000 ) ;
#40 = CARTESIAN_POINT ( 'NONE',  ( 8.849961221477468513E-14, 1.180384493975578319, 25.34729635533384240 ) ) ;
#41 = DIRECTION ( 'NONE',  ( -3.491481338843133355E-15, 1.224646799147353454E-16, -1.000000000000000000 ) ) ;
#42 = APPROVAL_PERSON_ORGANIZATION ( #91, #213, #257 ) ;
#43 = COORDINATED_UNIVERSAL_TIME_OFFSET ( 1, 0, .AHEAD. ) ;
#44 = EDGE_LOOP ( 'NONE', ( #30 ) ) ;
#45 = EDGE_CURVE ( 'NONE', #38, #38, #288, .T. ) ;
#46 = DATE_AND_TIME ( #190, #264 ) ;
#47 = EDGE_LOOP ( 'NONE', ( #258 ) ) ;
#48 = EDGE_LOOP ( 'NONE', ( #211 ) ) ;
#49 = EDGE_LOOP ( 'NONE', ( #113 ) ) ;
#50 = ADVANCED_FACE ( 'NONE', ( #262, #31 ), #103, .T. ) ;
#51 = DIRECTION ( 'NONE',  ( 0.0000000000000000000, 1.000000000000000000, 0.0000000000000000000 ) ) ;
#52 = CC_DESIGN_APPROVAL ( #254, ( #200 ) ) ;
#53 = DIRECTION ( 'NONE',  ( -3.491481338843133355E-15, 1.224646799147353454E-16, -1.000000000000000000 ) ) ;
#54 = AXIS2_PLACEMENT_3D ( 'NONE', #231, #23, #302 ) ;
#55 = AXIS2_PLACEMENT_3D ( 'NONE', #267, #123, #56 ) ;
#56 = DIRECTION ( 'NONE',  ( -4.232813064587335337E-31, -1.000000000000000000, -1.191430958775280665E-16 ) ) ;
#57 = ADVANCED_FACE ( 'NONE', ( #252, #139 ), #188, .T. ) ;
#58 = PLANE ( 'NONE',  #209 ) ;
#59 = FACE_OUTER_BOUND ( 'NONE', #48, .T. ) ;
#60 = AXIS2_PLACEMENT_3D ( 'NONE', #162, #167, #260 ) ;
#61 = FACE_OUTER_BOUND ( 'NONE', #28, .T. ) ;
#62 = VERTEX_POINT ( 'NONE', #40 ) ;
#63 = EDGE_CURVE ( 'NONE', #130, #130, #16, .T. ) ;
#64 = APPROVAL_STATUS ( 'not_yet_approved' ) ;
#65 = LOCAL_TIME ( 8, 11, 36.00000000000000000, #87 ) ;
#66 = DIRECTION ( 'NONE',  ( 3.491481338843133355E-15, -1.224646799147353454E-16, 1.000000000000000000 ) ) ;
#67 = MANIFOLD_SOLID_BREP ( 'Corps-Déplacer/Copier1[1]', #107 ) ;
#68 = AXIS2_PLACEMENT_3D ( 'NONE', #95, #202, #220 ) ;
#69 = PERSON_AND_ORGANIZATION ( #229, #244 ) ;
#70 = EDGE_LOOP ( 'NONE', ( #281 ) ) ;
#71 = ADVANCED_FACE ( 'NONE', ( #290 ), #291, .T. ) ;
#72 = ORIENTED_EDGE ( 'NONE', *, *, #45, .T. ) ;
#73 = MANIFOLD_SOLID_BREP ( 'Corps-Déplacer/Copier1[2]', #239 ) ;
#74 = PLANE ( 'NONE',  #60 ) ;
#75 = EDGE_CURVE ( 'NONE', #180, #180, #131, .T. ) ;
#76 = CARTESIAN_POINT ( 'NONE',  ( 3.491481338843133355E-14, 1.023586051666716257E-32, 10.00000000000000000 ) ) ;
#77 = DIRECTION ( 'NONE',  ( -3.491481338843133355E-15, 1.224646799147353454E-16, -1.000000000000000000 ) ) ;
#78 = DIRECTION ( 'NONE',  ( 4.232813064587335337E-31, 1.000000000000000000, 1.191430958775280665E-16 ) ) ;
#79 = DIRECTION ( 'NONE',  ( 4.275831445896959482E-31, 1.000000000000000000, 1.224646799147353454E-16 ) ) ;
#80 = CARTESIAN_POINT ( 'NONE',  ( 1.401695621678764817E-31, -4.916486413289927296E-33, 4.014615819608540060E-17 ) ) ;
#81 = CYLINDRICAL_SURFACE ( 'NONE', #227, 1.499999999999999334 ) ;
#82 = CARTESIAN_POINT ( 'NONE',  ( 0.0000000000000000000, 0.0000000000000000000, 0.0000000000000000000 ) ) ;
#83 = AXIS2_PLACEMENT_3D ( 'NONE', #169, #170, #11 ) ;
#84 = DIRECTION ( 'NONE',  ( -3.491481338843133355E-15, 1.224646799147353454E-16, -1.000000000000000000 ) ) ;
#85 = AXIS2_PLACEMENT_3D ( 'NONE', #226, #41, #272 ) ;
#86 = ADVANCED_FACE ( 'NONE', ( #9, #289 ), #172, .T. ) ;
#87 = COORDINATED_UNIVERSAL_TIME_OFFSET ( 1, 0, .AHEAD. ) ;
#88 = EDGE_CURVE ( 'NONE', #104, #104, #146, .T. ) ;
#89 = ORIENTED_EDGE ( 'NONE', *, *, #88, .T. ) ;
#90 = AXIS2_PLACEMENT_3D ( 'NONE', #128, #77, #126 ) ;
#91 = PERSON_AND_ORGANIZATION ( #229, #244 ) ;
#92 = PLANE ( 'NONE',  #177 ) ;
#93 = EDGE_LOOP ( 'NONE', ( #187 ) ) ;
#94 = CARTESIAN_POINT ( 'NONE',  ( 2.129803616694311221E-13, -7.470345474798856659E-15, 61.00000000000000000 ) ) ;
#95 = CARTESIAN_POINT ( 'NONE',  ( 3.491481338843133355E-14, -1.224646799147353454E-15, 10.00000000000000000 ) ) ;
#96 = CARTESIAN_POINT ( 'NONE',  ( 0.0000000000000000000, 0.0000000000000000000, 0.0000000000000000000 ) ) ;
#97 = DIRECTION ( 'NONE',  ( -3.491481338843133355E-15, 1.224646799147353454E-16, -1.000000000000000000 ) ) ;
#98 = EDGE_CURVE ( 'NONE', #277, #277, #120, .T. ) ;
#99 = FACE_BOUND ( 'NONE', #25, .T. ) ;
#100 = CARTESIAN_POINT ( 'NONE',  ( 0.0000000000000000000, 0.0000000000000000000, 0.0000000000000000000 ) ) ;
#101 = DIRECTION ( 'NONE',  ( 4.275831445896959482E-31, 1.000000000000000000, 1.224646799147353454E-16 ) ) ;
#102 = LOCAL_TIME ( 8, 11, 36.00000000000000000, #160 ) ;
#103 = CONICAL_SURFACE ( 'NONE', #280, 1.499999999999996003, 0.1745329251994258424 ) ;
#104 = VERTEX_POINT ( 'NONE', #247 ) ;
#105 = CARTESIAN_POINT ( 'NONE',  ( 3.621500934903066672E-14, 1.149999999999997025, 10.37239092362731618 ) ) ;
#106 = DIRECTION ( 'NONE',  ( 0.0000000000000000000, 0.0000000000000000000, 1.000000000000000000 ) ) ;
#107 = CLOSED_SHELL ( 'NONE', ( #13, #57, #86, #261, #50, #142, #181, #18 ) ) ;
#108 = COORDINATED_UNIVERSAL_TIME_OFFSET ( 1, 0, .AHEAD. ) ;
#109 = PRODUCT ( '327098', '327098', '', ( #184 ) ) ;
#110 = EDGE_LOOP ( 'NONE', ( #191 ) ) ;
#111 = COORDINATED_UNIVERSAL_TIME_OFFSET ( 1, 0, .AHEAD. ) ;
#112 = EDGE_LOOP ( 'NONE', ( #233 ) ) ;
#113 = ORIENTED_EDGE ( 'NONE', *, *, #75, .F. ) ;
#114 = CALENDAR_DATE ( 2021, 2, 12 ) ;
#115 = ORIENTED_EDGE ( 'NONE', *, *, #122, .T. ) ;
#116 = ADVANCED_FACE ( 'NONE', ( #99, #12 ), #8, .T. ) ;
#117 = UNCERTAINTY_MEASURE_WITH_UNIT (LENGTH_MEASURE( 1.000000000000000082E-05 ), #15, 'distance_accuracy_value', 'NONE');
#118 = ORIENTED_EDGE ( 'NONE', *, *, #127, .T. ) ;
#119 = CC_DESIGN_SECURITY_CLASSIFICATION ( #250, ( #200 ) ) ;
#120 = CIRCLE ( 'NONE', #83, 1.115000000000001323 ) ;
#121 = FACE_OUTER_BOUND ( 'NONE', #49, .T. ) ;
#122 = EDGE_CURVE ( 'NONE', #133, #133, #189, .T. ) ;
#123 = DIRECTION ( 'NONE',  ( 3.491481338843133355E-15, -1.224646799147353454E-16, 1.000000000000000000 ) ) ;
#124 = CARTESIAN_POINT ( 'NONE',  ( 3.491481338843133355E-14, -1.224646799147353454E-15, 10.00000000000000000 ) ) ;
#125 = AXIS2_PLACEMENT_3D ( 'NONE', #10, #97, #294 ) ;
#126 = DIRECTION ( 'NONE',  ( 0.0000000000000000000, 1.000000000000000000, 0.0000000000000000000 ) ) ;
#127 = EDGE_CURVE ( 'NONE', #273, #273, #253, .T. ) ;
#128 = CARTESIAN_POINT ( 'NONE',  ( 9.482837466738113547E-14, -3.326131639679139478E-15, 27.15992596391809499 ) ) ;
#129 = CARTESIAN_POINT ( 'NONE',  ( 3.491481338843133355E-14, 1.364999999999998659, 10.00000000000000000 ) ) ;
#130 = VERTEX_POINT ( 'NONE', #20 ) ;
#131 = CIRCLE ( 'NONE', #90, 1.499999999999996003 ) ;
#132 = CC_DESIGN_PERSON_AND_ORGANIZATION_ASSIGNMENT ( #2, #22, ( #250 ) ) ;
#133 = VERTEX_POINT ( 'NONE', #248 ) ;
#134 = ADVANCED_BREP_SHAPE_REPRESENTATION ( '327098', ( #67, #73, #300 ), #269 ) ;
#135 = PERSON_AND_ORGANIZATION ( #229, #244 ) ;
#136 = CC_DESIGN_PERSON_AND_ORGANIZATION_ASSIGNMENT ( #135, #203, ( #109 ) ) ;
#137 = AXIS2_PLACEMENT_3D ( 'NONE', #100, #224, #79 ) ;
#138 = SECURITY_CLASSIFICATION_LEVEL ( 'unclassified' ) ;
#139 = FACE_BOUND ( 'NONE', #47, .T. ) ;
#140 = EDGE_LOOP ( 'NONE', ( #5 ) ) ;
#141 = APPROVAL_DATE_TIME ( #153, #36 ) ;
#142 = ADVANCED_FACE ( 'NONE', ( #121, #245 ), #81, .T. ) ;
#143 = EDGE_LOOP ( 'NONE', ( #215 ) ) ;
#144 = EDGE_LOOP ( 'NONE', ( #72 ) ) ;
#145 = DIRECTION ( 'NONE',  ( -3.491481338843133355E-15, 1.224646799147353454E-16, -1.000000000000000000 ) ) ;
#146 = CIRCLE ( 'NONE', #68, 1.364999999999999991 ) ;
#147 = DIRECTION ( 'NONE',  ( -3.491481338843133355E-15, 1.224646799147353454E-16, -1.000000000000000000 ) ) ;
#148 = CARTESIAN_POINT ( 'NONE',  ( 3.491481338843133355E-14, 1.023586051666716257E-32, 10.00000000000000000 ) ) ;
#149 = CARTESIAN_POINT ( 'NONE',  ( 3.621500934903066672E-14, -1.270251534412525425E-15, 10.37239092362731618 ) ) ;
#150 = CIRCLE ( 'NONE', #171, 1.149999999999998135 ) ;
#151 = FACE_OUTER_BOUND ( 'NONE', #112, .T. ) ;
#152 = AXIS2_PLACEMENT_3D ( 'NONE', #94, #195, #287 ) ;
#153 = DATE_AND_TIME ( #178, #65 ) ;
#154 = CARTESIAN_POINT ( 'NONE',  ( 8.728703347107833388E-14, -3.035766082959412415E-15, 25.00000000000000000 ) ) ;
#155 = VERTEX_POINT ( 'NONE', #156 ) ;
#156 = CARTESIAN_POINT ( 'NONE',  ( 2.119329172677781757E-13, 1.499999999999995559, 60.69999999999999574 ) ) ;
#157 = DATE_TIME_ROLE ( 'creation_date' ) ;
#158 = DIRECTION ( 'NONE',  ( 0.0000000000000000000, -1.000000000000000000, 0.0000000000000000000 ) ) ;
#159 = AXIS2_PLACEMENT_3D ( 'NONE', #148, #37, #221 ) ;
#160 = COORDINATED_UNIVERSAL_TIME_OFFSET ( 1, 0, .AHEAD. ) ;
#161 = APPLICATION_CONTEXT ( 'configuration controlled 3d designs of mechanical parts and assemblies' ) ;
#162 = CARTESIAN_POINT ( 'NONE',  ( 2.129803616694311221E-13, 8.998558695971062171E-33, 61.00000000000000000 ) ) ;
#163 = APPROVAL_DATE_TIME ( #46, #254 ) ;
#164 = EDGE_LOOP ( 'NONE', ( #115 ) ) ;
#165 = CC_DESIGN_PERSON_AND_ORGANIZATION_ASSIGNMENT ( #69, #303, ( #246 ) ) ;
#166 = APPROVAL_PERSON_ORGANIZATION ( #230, #254, #232 ) ;
#167 = DIRECTION ( 'NONE',  ( -3.491481338843133355E-15, 1.224646799147353454E-16, -1.000000000000000000 ) ) ;
#168 = ORIENTED_EDGE ( 'NONE', *, *, #63, .F. ) ;
#169 = CARTESIAN_POINT ( 'NONE',  ( 2.803391243357529634E-31, -9.832972826579854592E-33, 8.029231639217080119E-17 ) ) ;
#170 = DIRECTION ( 'NONE',  ( -3.491481338843133355E-15, 1.224646799147353454E-16, -1.000000000000000000 ) ) ;
#171 = AXIS2_PLACEMENT_3D ( 'NONE', #149, #35, #271 ) ;
#172 = CYLINDRICAL_SURFACE ( 'NONE', #137, 1.149999999999999023 ) ;
#173 = DIRECTION ( 'NONE',  ( 3.491481338843133355E-15, -1.224646799147353454E-16, 1.000000000000000000 ) ) ;
#174 = EDGE_CURVE ( 'NONE', #155, #155, #282, .T. ) ;
#175 = FACE_OUTER_BOUND ( 'NONE', #186, .T. ) ;
#176 = AXIS2_PLACEMENT_3D ( 'NONE', #154, #84, #101 ) ;
#177 = AXIS2_PLACEMENT_3D ( 'NONE', #76, #237, #193 ) ;
#178 = CALENDAR_DATE ( 2021, 2, 12 ) ;
#179 = AXIS2_PLACEMENT_3D ( 'NONE', #198, #147, #241 ) ;
#180 = VERTEX_POINT ( 'NONE', #207 ) ;
#181 = ADVANCED_FACE ( 'NONE', ( #175, #33 ), #32, .T. ) ;
#182 =( NAMED_UNIT ( * ) PLANE_ANGLE_UNIT ( ) SI_UNIT ( $, .RADIAN. ) );
#183 = APPROVAL_ROLE ( '' ) ;
#184 = MECHANICAL_CONTEXT ( 'NONE', #225, 'mechanical' ) ;
#185 = CALENDAR_DATE ( 2021, 2, 12 ) ;
#186 = EDGE_LOOP ( 'NONE', ( #284 ) ) ;
#187 = ORIENTED_EDGE ( 'NONE', *, *, #63, .T. ) ;
#188 = CONICAL_SURFACE ( 'NONE', #54, 1.149999999999998135, 0.5235987755982942637 ) ;
#189 = CIRCLE ( 'NONE', #240, 1.149999999999999911 ) ;
#190 = CALENDAR_DATE ( 2021, 2, 12 ) ;
#191 = ORIENTED_EDGE ( 'NONE', *, *, #98, .T. ) ;
#192 = EDGE_CURVE ( 'NONE', #62, #62, #295, .T. ) ;
#193 = DIRECTION ( 'NONE',  ( -4.275831445896959482E-31, -1.000000000000000000, -1.224646799147353454E-16 ) ) ;
#194 = CC_DESIGN_APPROVAL ( #213, ( #250 ) ) ;
#195 = DIRECTION ( 'NONE',  ( -3.491481338843133355E-15, 1.224646799147353454E-16, -1.000000000000000000 ) ) ;
#196 = PRODUCT_RELATED_PRODUCT_CATEGORY ( 'detail', '', ( #109 ) ) ;
#197 = DIRECTION ( 'NONE',  ( 4.275831445896960358E-31, 1.000000000000000000, 1.224646799147353454E-16 ) ) ;
#198 = CARTESIAN_POINT ( 'NONE',  ( 2.119329172677781757E-13, -7.433606070824434221E-15, 60.69999999999999574 ) ) ;
#199 = CARTESIAN_POINT ( 'NONE',  ( 8.728703347107827472E-16, -3.061616997868381785E-17, 0.2499999999999998335 ) ) ;
#200 = PRODUCT_DEFINITION_FORMATION_WITH_SPECIFIED_SOURCE ( 'ANY', '', #109, .NOT_KNOWN. ) ;
#201 = DIRECTION ( 'NONE',  ( -3.491481338843133355E-15, 1.224646799147353454E-16, -1.000000000000000000 ) ) ;
#202 = DIRECTION ( 'NONE',  ( -3.491481338843133355E-15, 1.224646799147353454E-16, -1.000000000000000000 ) ) ;
#203 = PERSON_AND_ORGANIZATION_ROLE ( 'design_owner' ) ;
#204 = APPROVAL_PERSON_ORGANIZATION ( #208, #36, #183 ) ;
#205 = DIRECTION ( 'NONE',  ( 1.000000000000000000, 0.0000000000000000000, 0.0000000000000000000 ) ) ;
#206 = AXIS2_PLACEMENT_3D ( 'NONE', #124, #238, #223 ) ;
#207 = CARTESIAN_POINT ( 'NONE',  ( 9.482837466738113547E-14, 1.499999999999992673, 27.15992596391809499 ) ) ;
#208 = PERSON_AND_ORGANIZATION ( #229, #244 ) ;
#209 = AXIS2_PLACEMENT_3D ( 'NONE', #80, #173, #268 ) ;
#210 = DATE_AND_TIME ( #255, #102 ) ;
#211 = ORIENTED_EDGE ( 'NONE', *, *, #122, .F. ) ;
#212 = DATE_TIME_ROLE ( 'classification_date' ) ;
#213 = APPROVAL ( #64, 'UNSPECIFIED' ) ;
#214 = ORIENTED_EDGE ( 'NONE', *, *, #192, .F. ) ;
#215 = ORIENTED_EDGE ( 'NONE', *, *, #88, .F. ) ;
#216 = EDGE_LOOP ( 'NONE', ( #118 ) ) ;
#217 = CC_DESIGN_PERSON_AND_ORGANIZATION_ASSIGNMENT ( #278, #24, ( #200 ) ) ;
#218 = ORIENTED_EDGE ( 'NONE', *, *, #127, .F. ) ;
#219 = DESIGN_CONTEXT ( 'detailed design', #161, 'design' ) ;
#220 = DIRECTION ( 'NONE',  ( 0.0000000000000000000, 1.000000000000000000, 0.0000000000000000000 ) ) ;
#221 = DIRECTION ( 'NONE',  ( -4.275831445896959482E-31, -1.000000000000000000, -1.224646799147353454E-16 ) ) ;
#222 = ADVANCED_FACE ( 'NONE', ( #293 ), #58, .F. ) ;
#223 = DIRECTION ( 'NONE',  ( 0.0000000000000000000, 1.000000000000000000, 0.0000000000000000000 ) ) ;
#224 = DIRECTION ( 'NONE',  ( -3.491481338843133355E-15, 1.224646799147353454E-16, -1.000000000000000000 ) ) ;
#225 = APPLICATION_CONTEXT ( 'configuration controlled 3d designs of mechanical parts and assemblies' ) ;
#226 = CARTESIAN_POINT ( 'NONE',  ( 0.0000000000000000000, 0.0000000000000000000, 0.0000000000000000000 ) ) ;
#227 = AXIS2_PLACEMENT_3D ( 'NONE', #96, #53, #197 ) ;
#228 = APPLICATION_PROTOCOL_DEFINITION ( 'international standard', 'config_control_design', 1994, #225 ) ;
#229 = PERSON ( 'UNSPECIFIED', 'UNSPECIFIED', 'UNSPECIFIED', ('UNSPECIFIED'), ('UNSPECIFIED'), ('UNSPECIFIED') ) ;
#230 = PERSON_AND_ORGANIZATION ( #229, #244 ) ;
#231 = CARTESIAN_POINT ( 'NONE',  ( 3.621500934903066672E-14, -1.270251534412525425E-15, 10.37239092362731618 ) ) ;
#232 = APPROVAL_ROLE ( '' ) ;
#233 = ORIENTED_EDGE ( 'NONE', *, *, #192, .T. ) ;
#234 = APPROVAL_STATUS ( 'not_yet_approved' ) ;
#235 = FACE_OUTER_BOUND ( 'NONE', #216, .T. ) ;
#236 = EDGE_LOOP ( 'NONE', ( #256 ) ) ;
#237 = DIRECTION ( 'NONE',  ( 3.491481338843133355E-15, -1.224646799147353454E-16, 1.000000000000000000 ) ) ;
#238 = DIRECTION ( 'NONE',  ( -3.491481338843133355E-15, 1.224646799147353454E-16, -1.000000000000000000 ) ) ;
#239 = CLOSED_SHELL ( 'NONE', ( #222, #116, #275, #71 ) ) ;
#240 = AXIS2_PLACEMENT_3D ( 'NONE', #265, #145, #51 ) ;
#241 = DIRECTION ( 'NONE',  ( 0.0000000000000000000, 1.000000000000000000, 0.0000000000000000000 ) ) ;
#242 = EDGE_CURVE ( 'NONE', #298, #298, #150, .T. ) ;
#243 = CARTESIAN_POINT ( 'NONE',  ( 8.849961221477468513E-14, -3.104148534859897150E-15, 25.34729635533384240 ) ) ;
#244 = ORGANIZATION ( 'UNSPECIFIED', 'UNSPECIFIED', '' ) ;
#245 = FACE_OUTER_BOUND ( 'NONE', #236, .T. ) ;
#246 = PRODUCT_DEFINITION ( 'UNKNOWN', '', #200, #219 ) ;
#247 = CARTESIAN_POINT ( 'NONE',  ( 3.491481338843133355E-14, 1.364999999999998659, 10.00000000000000000 ) ) ;
#248 = CARTESIAN_POINT ( 'NONE',  ( 8.728703347107833388E-14, 1.149999999999997025, 25.00000000000000000 ) ) ;
#249 = CC_DESIGN_PERSON_AND_ORGANIZATION_ASSIGNMENT ( #29, #27, ( #200 ) ) ;
#250 = SECURITY_CLASSIFICATION ( '', '', #138 ) ;
#251 = SHAPE_DEFINITION_REPRESENTATION ( #292, #134 ) ;
#252 = FACE_OUTER_BOUND ( 'NONE', #1, .T. ) ;
#253 = CIRCLE ( 'NONE', #206, 1.364999999999999991 ) ;
#254 = APPROVAL ( #234, 'UNSPECIFIED' ) ;
#255 = CALENDAR_DATE ( 2021, 2, 12 ) ;
#256 = ORIENTED_EDGE ( 'NONE', *, *, #174, .T. ) ;
#257 = APPROVAL_ROLE ( '' ) ;
#258 = ORIENTED_EDGE ( 'NONE', *, *, #242, .T. ) ;
#259 = APPROVAL_DATE_TIME ( #283, #213 ) ;
#260 = DIRECTION ( 'NONE',  ( 4.275831445896959482E-31, 1.000000000000000000, 1.224646799147353454E-16 ) ) ;
#261 = ADVANCED_FACE ( 'NONE', ( #59, #151 ), #39, .F. ) ;
#262 = FACE_BOUND ( 'NONE', #3, .T. ) ;
#263 = DIRECTION ( 'NONE',  ( -3.491481338843133355E-15, 1.224646799147353454E-16, -1.000000000000000000 ) ) ;
#264 = LOCAL_TIME ( 8, 11, 36.00000000000000000, #43 ) ;
#265 = CARTESIAN_POINT ( 'NONE',  ( 8.728703347107833388E-14, -3.061616997868383831E-15, 25.00000000000000000 ) ) ;
#266 = CC_DESIGN_DATE_AND_TIME_ASSIGNMENT ( #4, #212, ( #250 ) ) ;
#267 = CARTESIAN_POINT ( 'NONE',  ( 8.728703347107827472E-16, -3.061616997868381785E-17, 0.2499999999999998335 ) ) ;
#268 = DIRECTION ( 'NONE',  ( -4.275831445896959482E-31, -1.000000000000000000, -1.224646799147353454E-16 ) ) ;
#269 =( GEOMETRIC_REPRESENTATION_CONTEXT ( 3 ) GLOBAL_UNCERTAINTY_ASSIGNED_CONTEXT ( ( #117 ) ) GLOBAL_UNIT_ASSIGNED_CONTEXT ( ( #15, #182, #274 ) ) REPRESENTATION_CONTEXT ( 'NONE', 'WORKASPACE' ) );
#270 = CC_DESIGN_DATE_AND_TIME_ASSIGNMENT ( #210, #157, ( #246 ) ) ;
#271 = DIRECTION ( 'NONE',  ( 0.0000000000000000000, 1.000000000000000000, 0.0000000000000000000 ) ) ;
#272 = DIRECTION ( 'NONE',  ( 4.275831445896959482E-31, 1.000000000000000000, 1.224646799147353454E-16 ) ) ;
#273 = VERTEX_POINT ( 'NONE', #129 ) ;
#274 =( NAMED_UNIT ( * ) SI_UNIT ( $, .STERADIAN. ) SOLID_ANGLE_UNIT ( ) );
#275 = ADVANCED_FACE ( 'NONE', ( #296, #61 ), #14, .T. ) ;
#276 = CARTESIAN_POINT ( 'NONE',  ( 7.570943305532645426E-31, 1.115000000000001323, 2.168404344971008868E-16 ) ) ;
#277 = VERTEX_POINT ( 'NONE', #276 ) ;
#278 = PERSON_AND_ORGANIZATION ( #229, #244 ) ;
#279 = ORIENTED_EDGE ( 'NONE', *, *, #98, .F. ) ;
#280 = AXIS2_PLACEMENT_3D ( 'NONE', #7, #66, #158 ) ;
#281 = ORIENTED_EDGE ( 'NONE', *, *, #75, .T. ) ;
#282 = CIRCLE ( 'NONE', #179, 1.500000000000002887 ) ;
#283 = DATE_AND_TIME ( #114, #21 ) ;
#284 = ORIENTED_EDGE ( 'NONE', *, *, #174, .F. ) ;
#285 = FACE_OUTER_BOUND ( 'NONE', #44, .T. ) ;
#286 = LOCAL_TIME ( 8, 11, 36.00000000000000000, #111 ) ;
#287 = DIRECTION ( 'NONE',  ( 0.0000000000000000000, 1.000000000000000000, 0.0000000000000000000 ) ) ;
#288 = CIRCLE ( 'NONE', #152, 1.200000000000002842 ) ;
#289 = FACE_OUTER_BOUND ( 'NONE', #164, .T. ) ;
#290 = FACE_OUTER_BOUND ( 'NONE', #143, .T. ) ;
#291 = PLANE ( 'NONE',  #159 ) ;
#292 = PRODUCT_DEFINITION_SHAPE ( 'NONE', 'NONE',  #246 ) ;
#293 = FACE_OUTER_BOUND ( 'NONE', #110, .T. ) ;
#294 = DIRECTION ( 'NONE',  ( 0.0000000000000000000, 1.000000000000000000, 0.0000000000000000000 ) ) ;
#295 = CIRCLE ( 'NONE', #6, 1.180384493975581428 ) ;
#296 = FACE_OUTER_BOUND ( 'NONE', #297, .T. ) ;
#297 = EDGE_LOOP ( 'NONE', ( #168 ) ) ;
#298 = VERTEX_POINT ( 'NONE', #105 ) ;
#299 = APPROVAL_STATUS ( 'not_yet_approved' ) ;
#300 = AXIS2_PLACEMENT_3D ( 'NONE', #82, #106, #205 ) ;
#301 = APPLICATION_PROTOCOL_DEFINITION ( 'international standard', 'config_control_design', 1994, #161 ) ;
#302 = DIRECTION ( 'NONE',  ( 0.0000000000000000000, 1.000000000000000000, 0.0000000000000000000 ) ) ;
#303 = PERSON_AND_ORGANIZATION_ROLE ( 'creator' ) ;
ENDSEC;
END-ISO-10303-21;
