ISO-10303-21;
HEADER;
FILE_DESCRIPTION (( 'STEP AP203' ),
    '1' );
FILE_NAME ('327097.step',
    '2021-12-02T07:11:35',
    ( '' ),
    ( '' ),
    'SwSTEP 2.0',
    'SolidWorks 2019',
    '' );
FILE_SCHEMA (( 'CONFIG_CONTROL_DESIGN' ));
ENDSEC;

DATA;
#1 = EDGE_LOOP ( 'NONE', ( #230 ) ) ;
#2 = ADVANCED_FACE ( 'NONE', ( #21, #158 ), #59, .T. ) ;
#3 = EDGE_LOOP ( 'NONE', ( #78 ) ) ;
#4 = AXIS2_PLACEMENT_3D ( 'NONE', #293, #152, #56 ) ;
#5 = ORIENTED_EDGE ( 'NONE', *, *, #229, .F. ) ;
#6 = AXIS2_PLACEMENT_3D ( 'NONE', #146, #127, #13 ) ;
#7 = PLANE ( 'NONE',  #180 ) ;
#8 = PRODUCT ( '327097', '327097', '', ( #155 ) ) ;
#9 = CARTESIAN_POINT ( 'NONE',  ( 3.491481338843133355E-14, -1.224646799147353454E-15, 10.00000000000000000 ) ) ;
#10 = APPROVAL_PERSON_ORGANIZATION ( #74, #19, #23 ) ;
#11 = FACE_OUTER_BOUND ( 'NONE', #167, .T. ) ;
#12 = ADVANCED_FACE ( 'NONE', ( #96 ), #278, .F. ) ;
#13 = DIRECTION ( 'NONE',  ( 0.0000000000000000000, 1.000000000000000000, 0.0000000000000000000 ) ) ;
#14 = CC_DESIGN_SECURITY_CLASSIFICATION ( #245, ( #94 ) ) ;
#15 = CYLINDRICAL_SURFACE ( 'NONE', #210, 1.149999999999999023 ) ;
#16 = CIRCLE ( 'NONE', #187, 1.200000000000002842 ) ;
#17 = CIRCLE ( 'NONE', #223, 1.360000000000000098 ) ;
#18 = CC_DESIGN_APPROVAL ( #19, ( #94 ) ) ;
#19 = APPROVAL ( #99, 'UNSPECIFIED' ) ;
#20 = DATE_TIME_ROLE ( 'classification_date' ) ;
#21 = FACE_OUTER_BOUND ( 'NONE', #3, .T. ) ;
#22 = PERSON_AND_ORGANIZATION ( #300, #36 ) ;
#23 = APPROVAL_ROLE ( '' ) ;
#24 = EDGE_LOOP ( 'NONE', ( #26 ) ) ;
#25 = PERSON_AND_ORGANIZATION ( #300, #36 ) ;
#26 = ORIENTED_EDGE ( 'NONE', *, *, #183, .T. ) ;
#27 = EDGE_LOOP ( 'NONE', ( #67 ) ) ;
#28 = AXIS2_PLACEMENT_3D ( 'NONE', #71, #280, #258 ) ;
#29 = CIRCLE ( 'NONE', #98, 1.180384493975581428 ) ;
#30 = DIRECTION ( 'NONE',  ( 0.0000000000000000000, 1.000000000000000000, 0.0000000000000000000 ) ) ;
#31 = DIRECTION ( 'NONE',  ( -3.491481338843133355E-15, 1.224646799147353454E-16, -1.000000000000000000 ) ) ;
#32 = EDGE_CURVE ( 'NONE', #175, #175, #113, .T. ) ;
#33 = DIRECTION ( 'NONE',  ( 0.0000000000000000000, 1.000000000000000000, 0.0000000000000000000 ) ) ;
#34 = FACE_OUTER_BOUND ( 'NONE', #44, .T. ) ;
#35 = DIRECTION ( 'NONE',  ( -4.275831445896959482E-31, -1.000000000000000000, -1.224646799147353454E-16 ) ) ;
#36 = ORGANIZATION ( 'UNSPECIFIED', 'UNSPECIFIED', '' ) ;
#37 = VERTEX_POINT ( 'NONE', #202 ) ;
#38 =( NAMED_UNIT ( * ) SI_UNIT ( $, .STERADIAN. ) SOLID_ANGLE_UNIT ( ) );
#39 = DIRECTION ( 'NONE',  ( -3.491481338843133355E-15, 1.224646799147353454E-16, -1.000000000000000000 ) ) ;
#40 = EDGE_CURVE ( 'NONE', #62, #62, #16, .T. ) ;
#41 = CARTESIAN_POINT ( 'NONE',  ( 3.491481338843133355E-14, 1.359999999999998765, 10.00000000000000000 ) ) ;
#42 = AXIS2_PLACEMENT_3D ( 'NONE', #171, #216, #198 ) ;
#43 = DATE_AND_TIME ( #101, #57 ) ;
#44 = EDGE_LOOP ( 'NONE', ( #209 ) ) ;
#45 = COORDINATED_UNIVERSAL_TIME_OFFSET ( 1, 0, .AHEAD. ) ;
#46 = CARTESIAN_POINT ( 'NONE',  ( 2.129803616694311221E-13, -7.470345474798856659E-15, 61.00000000000000000 ) ) ;
#47 = DIRECTION ( 'NONE',  ( -3.491481338843133355E-15, 1.224646799147353454E-16, -1.000000000000000000 ) ) ;
#48 = CC_DESIGN_APPROVAL ( #172, ( #245 ) ) ;
#49 = EDGE_LOOP ( 'NONE', ( #235 ) ) ;
#50 = ORIENTED_EDGE ( 'NONE', *, *, #61, .T. ) ;
#51 = FACE_BOUND ( 'NONE', #125, .T. ) ;
#52 = DIRECTION ( 'NONE',  ( 0.0000000000000000000, 1.000000000000000000, 0.0000000000000000000 ) ) ;
#53 = CIRCLE ( 'NONE', #54, 1.110000000000001652 ) ;
#54 = AXIS2_PLACEMENT_3D ( 'NONE', #232, #122, #212 ) ;
#55 = DIRECTION ( 'NONE',  ( -3.491481338843133355E-15, 1.224646799147353454E-16, -1.000000000000000000 ) ) ;
#56 = DIRECTION ( 'NONE',  ( 0.0000000000000000000, 1.000000000000000000, 0.0000000000000000000 ) ) ;
#57 = LOCAL_TIME ( 8, 11, 35.00000000000000000, #189 ) ;
#58 = DIRECTION ( 'NONE',  ( -4.248374877324788679E-31, -1.000000000000000000, -1.195811219653130935E-16 ) ) ;
#59 = CONICAL_SURFACE ( 'NONE', #237, 1.149999999999998135, 0.5235987755982933756 ) ;
#60 =( NAMED_UNIT ( * ) PLANE_ANGLE_UNIT ( ) SI_UNIT ( $, .RADIAN. ) );
#61 = EDGE_CURVE ( 'NONE', #181, #181, #53, .T. ) ;
#62 = VERTEX_POINT ( 'NONE', #203 ) ;
#63 = CARTESIAN_POINT ( 'NONE',  ( 8.728703347107833388E-14, 1.149999999999997025, 25.00000000000000000 ) ) ;
#64 = APPLICATION_PROTOCOL_DEFINITION ( 'international standard', 'config_control_design', 1994, #266 ) ;
#65 = PRODUCT_RELATED_PRODUCT_CATEGORY ( 'detail', '', ( #8 ) ) ;
#66 = APPROVAL_STATUS ( 'not_yet_approved' ) ;
#67 = ORIENTED_EDGE ( 'NONE', *, *, #183, .F. ) ;
#68 = APPLICATION_CONTEXT ( 'configuration controlled 3d designs of mechanical parts and assemblies' ) ;
#69 = CIRCLE ( 'NONE', #6, 1.500000000000002887 ) ;
#70 = APPROVAL_DATE_TIME ( #303, #83 ) ;
#71 = CARTESIAN_POINT ( 'NONE',  ( 3.305121026676668312E-31, -1.159280400867136991E-32, 9.466242852014744143E-17 ) ) ;
#72 = SECURITY_CLASSIFICATION_LEVEL ( 'unclassified' ) ;
#73 = ORIENTED_EDGE ( 'NONE', *, *, #103, .T. ) ;
#74 = PERSON_AND_ORGANIZATION ( #300, #36 ) ;
#75 = ORIENTED_EDGE ( 'NONE', *, *, #79, .F. ) ;
#76 =( GEOMETRIC_REPRESENTATION_CONTEXT ( 3 ) GLOBAL_UNCERTAINTY_ASSIGNED_CONTEXT ( ( #284 ) ) GLOBAL_UNIT_ASSIGNED_CONTEXT ( ( #92, #60, #38 ) ) REPRESENTATION_CONTEXT ( 'NONE', 'WORKASPACE' ) );
#77 = CALENDAR_DATE ( 2021, 2, 12 ) ;
#78 = ORIENTED_EDGE ( 'NONE', *, *, #201, .F. ) ;
#79 = EDGE_CURVE ( 'NONE', #153, #153, #17, .T. ) ;
#80 = CARTESIAN_POINT ( 'NONE',  ( 0.0000000000000000000, 0.0000000000000000000, 0.0000000000000000000 ) ) ;
#81 = DIRECTION ( 'NONE',  ( 0.0000000000000000000, 1.000000000000000000, 0.0000000000000000000 ) ) ;
#82 = LOCAL_TIME ( 8, 11, 35.00000000000000000, #157 ) ;
#83 = APPROVAL ( #66, 'UNSPECIFIED' ) ;
#84 = DIRECTION ( 'NONE',  ( -3.491481338843133355E-15, 1.224646799147353454E-16, -1.000000000000000000 ) ) ;
#85 = PLANE ( 'NONE',  #213 ) ;
#86 = ADVANCED_BREP_SHAPE_REPRESENTATION ( '327097', ( #285, #88, #120 ), #76 ) ;
#87 = CARTESIAN_POINT ( 'NONE',  ( 2.129803616694311221E-13, 8.998558695971062171E-33, 61.00000000000000000 ) ) ;
#88 = MANIFOLD_SOLID_BREP ( 'Corps-Déplacer/Copier1[2]', #136 ) ;
#89 = AXIS2_PLACEMENT_3D ( 'NONE', #95, #179, #116 ) ;
#90 = CARTESIAN_POINT ( 'NONE',  ( 9.482837466738113547E-14, 1.499999999999992673, 27.15992596391809499 ) ) ;
#91 = CIRCLE ( 'NONE', #215, 1.360000000000000098 ) ;
#92 =( LENGTH_UNIT ( ) NAMED_UNIT ( * ) SI_UNIT ( .MILLI., .METRE. ) );
#93 = FACE_OUTER_BOUND ( 'NONE', #227, .T. ) ;
#94 = PRODUCT_DEFINITION_FORMATION_WITH_SPECIFIED_SOURCE ( 'ANY', '', #8, .NOT_KNOWN. ) ;
#95 = CARTESIAN_POINT ( 'NONE',  ( 8.728703347107833388E-14, -3.035766082959412415E-15, 25.00000000000000000 ) ) ;
#96 = FACE_OUTER_BOUND ( 'NONE', #211, .T. ) ;
#97 = ADVANCED_FACE ( 'NONE', ( #51, #260 ), #159, .T. ) ;
#98 = AXIS2_PLACEMENT_3D ( 'NONE', #196, #242, #33 ) ;
#99 = APPROVAL_STATUS ( 'not_yet_approved' ) ;
#100 = EDGE_LOOP ( 'NONE', ( #233 ) ) ;
#101 = CALENDAR_DATE ( 2021, 2, 12 ) ;
#102 = EDGE_LOOP ( 'NONE', ( #186 ) ) ;
#103 = EDGE_CURVE ( 'NONE', #135, #135, #29, .T. ) ;
#104 = PERSON_AND_ORGANIZATION ( #300, #36 ) ;
#105 = EDGE_LOOP ( 'NONE', ( #185 ) ) ;
#106 = DIRECTION ( 'NONE',  ( 4.275831445896959482E-31, 1.000000000000000000, 1.224646799147353454E-16 ) ) ;
#107 = DIRECTION ( 'NONE',  ( 3.491481338843133355E-15, -1.224646799147353454E-16, 1.000000000000000000 ) ) ;
#108 = FACE_OUTER_BOUND ( 'NONE', #251, .T. ) ;
#109 = DIRECTION ( 'NONE',  ( -3.491481338843133355E-15, 1.224646799147353454E-16, -1.000000000000000000 ) ) ;
#110 = DIRECTION ( 'NONE',  ( -3.491481338843133355E-15, 1.224646799147353454E-16, -1.000000000000000000 ) ) ;
#111 = CC_DESIGN_PERSON_AND_ORGANIZATION_ASSIGNMENT ( #191, #166, ( #94 ) ) ;
#112 = CARTESIAN_POINT ( 'NONE',  ( 3.491481338843133355E-14, 1.359999999999998765, 10.00000000000000000 ) ) ;
#113 = CIRCLE ( 'NONE', #277, 1.359999999999998765 ) ;
#114 = AXIS2_PLACEMENT_3D ( 'NONE', #128, #84, #81 ) ;
#115 = EDGE_CURVE ( 'NONE', #37, #37, #69, .T. ) ;
#116 = DIRECTION ( 'NONE',  ( 4.275831445896959482E-31, 1.000000000000000000, 1.224646799147353454E-16 ) ) ;
#117 = LOCAL_TIME ( 8, 11, 35.00000000000000000, #207 ) ;
#118 = CARTESIAN_POINT ( 'NONE',  ( 1.135641495829896858E-30, 1.110000000000001652, 3.252606517456513302E-16 ) ) ;
#119 = DIRECTION ( 'NONE',  ( -3.491481338843133355E-15, 1.224646799147353454E-16, -1.000000000000000000 ) ) ;
#120 = AXIS2_PLACEMENT_3D ( 'NONE', #134, #298, #243 ) ;
#121 = DIRECTION ( 'NONE',  ( -3.491481338843133355E-15, 1.224646799147353454E-16, -1.000000000000000000 ) ) ;
#122 = DIRECTION ( 'NONE',  ( -3.491481338843133355E-15, 1.224646799147353454E-16, -1.000000000000000000 ) ) ;
#123 = CC_DESIGN_PERSON_AND_ORGANIZATION_ASSIGNMENT ( #25, #164, ( #245 ) ) ;
#124 = APPROVAL_STATUS ( 'not_yet_approved' ) ;
#125 = EDGE_LOOP ( 'NONE', ( #255 ) ) ;
#126 = CONICAL_SURFACE ( 'NONE', #42, 1.499999999999996003, 0.1745329251994258424 ) ;
#127 = DIRECTION ( 'NONE',  ( -3.491481338843133355E-15, 1.224646799147353454E-16, -1.000000000000000000 ) ) ;
#128 = CARTESIAN_POINT ( 'NONE',  ( 9.482837466738113547E-14, -3.326131639679139478E-15, 27.15992596391809499 ) ) ;
#129 = CARTESIAN_POINT ( 'NONE',  ( 3.491481338843133355E-14, 1.019836652210061723E-32, 10.00000000000000000 ) ) ;
#130 = LOCAL_TIME ( 8, 11, 35.00000000000000000, #45 ) ;
#131 = CYLINDRICAL_SURFACE ( 'NONE', #262, 1.499999999999999334 ) ;
#132 = FACE_OUTER_BOUND ( 'NONE', #105, .T. ) ;
#133 = FACE_OUTER_BOUND ( 'NONE', #144, .T. ) ;
#134 = CARTESIAN_POINT ( 'NONE',  ( 0.0000000000000000000, 0.0000000000000000000, 0.0000000000000000000 ) ) ;
#135 = VERTEX_POINT ( 'NONE', #244 ) ;
#136 = CLOSED_SHELL ( 'NONE', ( #12, #97, #263, #234 ) ) ;
#137 = CIRCLE ( 'NONE', #114, 1.499999999999996003 ) ;
#138 = EDGE_CURVE ( 'NONE', #222, #222, #137, .T. ) ;
#139 = ORIENTED_EDGE ( 'NONE', *, *, #138, .F. ) ;
#140 = DATE_AND_TIME ( #272, #117 ) ;
#141 = DIRECTION ( 'NONE',  ( 0.0000000000000000000, 1.000000000000000000, 0.0000000000000000000 ) ) ;
#142 = DATE_TIME_ROLE ( 'creation_date' ) ;
#143 = CARTESIAN_POINT ( 'NONE',  ( 3.618477223366789168E-14, -1.269190959173800578E-15, 10.36373066958947220 ) ) ;
#144 = EDGE_LOOP ( 'NONE', ( #5 ) ) ;
#145 = DESIGN_CONTEXT ( 'detailed design', #68, 'design' ) ;
#146 = CARTESIAN_POINT ( 'NONE',  ( 2.119329172677781757E-13, -7.433606070824434221E-15, 60.69999999999999574 ) ) ;
#147 = ADVANCED_FACE ( 'NONE', ( #11, #34 ), #131, .T. ) ;
#148 = CONICAL_SURFACE ( 'NONE', #252, 1.200000000000002842, 0.7853981633974453924 ) ;
#149 = FACE_OUTER_BOUND ( 'NONE', #1, .T. ) ;
#150 = DIRECTION ( 'NONE',  ( -3.491481338843133355E-15, 1.224646799147353454E-16, -1.000000000000000000 ) ) ;
#151 = DIRECTION ( 'NONE',  ( -3.491481338843133355E-15, 1.224646799147353454E-16, -1.000000000000000000 ) ) ;
#152 = DIRECTION ( 'NONE',  ( -3.491481338843133355E-15, 1.224646799147353454E-16, -1.000000000000000000 ) ) ;
#153 = VERTEX_POINT ( 'NONE', #41 ) ;
#154 = APPROVAL_PERSON_ORGANIZATION ( #231, #172, #257 ) ;
#155 = MECHANICAL_CONTEXT ( 'NONE', #266, 'mechanical' ) ;
#156 = FACE_OUTER_BOUND ( 'NONE', #27, .T. ) ;
#157 = COORDINATED_UNIVERSAL_TIME_OFFSET ( 1, 0, .AHEAD. ) ;
#158 = FACE_BOUND ( 'NONE', #24, .T. ) ;
#159 = CONICAL_SURFACE ( 'NONE', #238, 1.359999999999998765, 0.7853981633974431720 ) ;
#160 = SHAPE_DEFINITION_REPRESENTATION ( #276, #86 ) ;
#161 = CARTESIAN_POINT ( 'NONE',  ( 8.728703347107829444E-16, -3.061616997868382402E-17, 0.2499999999999998890 ) ) ;
#162 = ADVANCED_FACE ( 'NONE', ( #132, #219 ), #148, .T. ) ;
#163 = EDGE_LOOP ( 'NONE', ( #165 ) ) ;
#164 = PERSON_AND_ORGANIZATION_ROLE ( 'classification_officer' ) ;
#165 = ORIENTED_EDGE ( 'NONE', *, *, #201, .T. ) ;
#166 = PERSON_AND_ORGANIZATION_ROLE ( 'creator' ) ;
#167 = EDGE_LOOP ( 'NONE', ( #139 ) ) ;
#168 = PLANE ( 'NONE',  #283 ) ;
#169 = DIRECTION ( 'NONE',  ( 0.0000000000000000000, 1.000000000000000000, 0.0000000000000000000 ) ) ;
#170 = CC_DESIGN_APPROVAL ( #83, ( #281 ) ) ;
#171 = CARTESIAN_POINT ( 'NONE',  ( 9.482837466738113547E-14, -3.326131639679139478E-15, 27.15992596391809499 ) ) ;
#172 = APPROVAL ( #124, 'UNSPECIFIED' ) ;
#173 = DIRECTION ( 'NONE',  ( -4.275831445896959482E-31, -1.000000000000000000, -1.224646799147353454E-16 ) ) ;
#174 = DIRECTION ( 'NONE',  ( 4.275831445896959482E-31, 1.000000000000000000, 1.224646799147353454E-16 ) ) ;
#175 = VERTEX_POINT ( 'NONE', #177 ) ;
#176 = CIRCLE ( 'NONE', #188, 1.149999999999998135 ) ;
#177 = CARTESIAN_POINT ( 'NONE',  ( 8.728703347107835360E-16, 1.359999999999998765, 0.2500000000000000555 ) ) ;
#178 = ADVANCED_FACE ( 'NONE', ( #199, #265 ), #126, .T. ) ;
#179 = DIRECTION ( 'NONE',  ( -3.491481338843133355E-15, 1.224646799147353454E-16, -1.000000000000000000 ) ) ;
#180 = AXIS2_PLACEMENT_3D ( 'NONE', #289, #107, #173 ) ;
#181 = VERTEX_POINT ( 'NONE', #118 ) ;
#182 = CARTESIAN_POINT ( 'NONE',  ( 3.618477223366789168E-14, 1.149999999999997025, 10.36373066958947220 ) ) ;
#183 = EDGE_CURVE ( 'NONE', #297, #297, #176, .T. ) ;
#184 = APPROVAL_ROLE ( '' ) ;
#185 = ORIENTED_EDGE ( 'NONE', *, *, #115, .F. ) ;
#186 = ORIENTED_EDGE ( 'NONE', *, *, #32, .T. ) ;
#187 = AXIS2_PLACEMENT_3D ( 'NONE', #46, #47, #141 ) ;
#188 = AXIS2_PLACEMENT_3D ( 'NONE', #217, #55, #169 ) ;
#189 = COORDINATED_UNIVERSAL_TIME_OFFSET ( 1, 0, .AHEAD. ) ;
#190 = EDGE_LOOP ( 'NONE', ( #259 ) ) ;
#191 = PERSON_AND_ORGANIZATION ( #300, #36 ) ;
#192 = ORIENTED_EDGE ( 'NONE', *, *, #32, .F. ) ;
#193 = DATE_AND_TIME ( #77, #249 ) ;
#194 = EDGE_LOOP ( 'NONE', ( #214 ) ) ;
#195 = FACE_OUTER_BOUND ( 'NONE', #287, .T. ) ;
#196 = CARTESIAN_POINT ( 'NONE',  ( 8.849961221477468513E-14, -3.104148534859897150E-15, 25.34729635533384240 ) ) ;
#197 = DIRECTION ( 'NONE',  ( 3.491481338843133355E-15, -1.224646799147353454E-16, 1.000000000000000000 ) ) ;
#198 = DIRECTION ( 'NONE',  ( 0.0000000000000000000, -1.000000000000000000, 0.0000000000000000000 ) ) ;
#199 = FACE_BOUND ( 'NONE', #194, .T. ) ;
#200 = PERSON_AND_ORGANIZATION ( #300, #36 ) ;
#201 = EDGE_CURVE ( 'NONE', #299, #299, #91, .T. ) ;
#202 = CARTESIAN_POINT ( 'NONE',  ( 2.119329172677781757E-13, 1.499999999999995559, 60.69999999999999574 ) ) ;
#203 = CARTESIAN_POINT ( 'NONE',  ( 2.129803616694311221E-13, 1.199999999999995515, 61.00000000000000000 ) ) ;
#204 = CIRCLE ( 'NONE', #4, 1.149999999999999911 ) ;
#205 = TOROIDAL_SURFACE ( 'NONE', #89, 3.149999999999999911, 2.000000000000000000 ) ;
#206 = PERSON_AND_ORGANIZATION_ROLE ( 'design_owner' ) ;
#207 = COORDINATED_UNIVERSAL_TIME_OFFSET ( 1, 0, .AHEAD. ) ;
#208 = CALENDAR_DATE ( 2021, 2, 12 ) ;
#209 = ORIENTED_EDGE ( 'NONE', *, *, #115, .T. ) ;
#210 = AXIS2_PLACEMENT_3D ( 'NONE', #225, #39, #270 ) ;
#211 = EDGE_LOOP ( 'NONE', ( #50 ) ) ;
#212 = DIRECTION ( 'NONE',  ( 4.275831445896959482E-31, 1.000000000000000000, 1.224646799147353454E-16 ) ) ;
#213 = AXIS2_PLACEMENT_3D ( 'NONE', #129, #248, #35 ) ;
#214 = ORIENTED_EDGE ( 'NONE', *, *, #103, .F. ) ;
#215 = AXIS2_PLACEMENT_3D ( 'NONE', #9, #261, #52 ) ;
#216 = DIRECTION ( 'NONE',  ( 3.491481338843133355E-15, -1.224646799147353454E-16, 1.000000000000000000 ) ) ;
#217 = CARTESIAN_POINT ( 'NONE',  ( 3.618477223366789168E-14, -1.269190959173800578E-15, 10.36373066958947220 ) ) ;
#218 = CC_DESIGN_DATE_AND_TIME_ASSIGNMENT ( #193, #142, ( #281 ) ) ;
#219 = FACE_BOUND ( 'NONE', #100, .T. ) ;
#220 = CARTESIAN_POINT ( 'NONE',  ( 8.728703347107829444E-16, -3.061616997868382402E-17, 0.2499999999999998890 ) ) ;
#221 = ADVANCED_FACE ( 'NONE', ( #149 ), #168, .F. ) ;
#222 = VERTEX_POINT ( 'NONE', #90 ) ;
#223 = AXIS2_PLACEMENT_3D ( 'NONE', #264, #151, #30 ) ;
#224 = CC_DESIGN_DATE_AND_TIME_ASSIGNMENT ( #140, #20, ( #245 ) ) ;
#225 = CARTESIAN_POINT ( 'NONE',  ( 0.0000000000000000000, 0.0000000000000000000, 0.0000000000000000000 ) ) ;
#226 = PERSON_AND_ORGANIZATION_ROLE ( 'creator' ) ;
#227 = EDGE_LOOP ( 'NONE', ( #73 ) ) ;
#228 = CALENDAR_DATE ( 2021, 2, 12 ) ;
#229 = EDGE_CURVE ( 'NONE', #268, #268, #204, .T. ) ;
#230 = ORIENTED_EDGE ( 'NONE', *, *, #40, .F. ) ;
#231 = PERSON_AND_ORGANIZATION ( #300, #36 ) ;
#232 = CARTESIAN_POINT ( 'NONE',  ( 6.610242053353336623E-31, -2.318560801734273983E-32, 1.893248570402948829E-16 ) ) ;
#233 = ORIENTED_EDGE ( 'NONE', *, *, #40, .T. ) ;
#234 = ADVANCED_FACE ( 'NONE', ( #195 ), #7, .T. ) ;
#235 = ORIENTED_EDGE ( 'NONE', *, *, #138, .T. ) ;
#236 = DIRECTION ( 'NONE',  ( 4.275831445896960358E-31, 1.000000000000000000, 1.224646799147353454E-16 ) ) ;
#237 = AXIS2_PLACEMENT_3D ( 'NONE', #143, #119, #302 ) ;
#238 = AXIS2_PLACEMENT_3D ( 'NONE', #220, #197, #58 ) ;
#239 = CC_DESIGN_PERSON_AND_ORGANIZATION_ASSIGNMENT ( #200, #206, ( #8 ) ) ;
#240 = DIRECTION ( 'NONE',  ( 0.0000000000000000000, 1.000000000000000000, 0.0000000000000000000 ) ) ;
#241 = CARTESIAN_POINT ( 'NONE',  ( 2.129803616694311221E-13, -7.470345474798856659E-15, 61.00000000000000000 ) ) ;
#242 = DIRECTION ( 'NONE',  ( -3.491481338843133355E-15, 1.224646799147353454E-16, -1.000000000000000000 ) ) ;
#243 = DIRECTION ( 'NONE',  ( 1.000000000000000000, 0.0000000000000000000, 0.0000000000000000000 ) ) ;
#244 = CARTESIAN_POINT ( 'NONE',  ( 8.849961221477468513E-14, 1.180384493975578319, 25.34729635533384240 ) ) ;
#245 = SECURITY_CLASSIFICATION ( '', '', #72 ) ;
#246 = CC_DESIGN_PERSON_AND_ORGANIZATION_ASSIGNMENT ( #22, #279, ( #94 ) ) ;
#247 = APPLICATION_PROTOCOL_DEFINITION ( 'international standard', 'config_control_design', 1994, #68 ) ;
#248 = DIRECTION ( 'NONE',  ( 3.491481338843133355E-15, -1.224646799147353454E-16, 1.000000000000000000 ) ) ;
#249 = LOCAL_TIME ( 8, 11, 35.00000000000000000, #253 ) ;
#250 = DATE_AND_TIME ( #228, #82 ) ;
#251 = EDGE_LOOP ( 'NONE', ( #192 ) ) ;
#252 = AXIS2_PLACEMENT_3D ( 'NONE', #241, #110, #240 ) ;
#253 = COORDINATED_UNIVERSAL_TIME_OFFSET ( 1, 0, .AHEAD. ) ;
#254 = DIRECTION ( 'NONE',  ( 4.248374877324788679E-31, 1.000000000000000000, 1.195811219653130935E-16 ) ) ;
#255 = ORIENTED_EDGE ( 'NONE', *, *, #61, .F. ) ;
#256 = AXIS2_PLACEMENT_3D ( 'NONE', #80, #31, #174 ) ;
#257 = APPROVAL_ROLE ( '' ) ;
#258 = DIRECTION ( 'NONE',  ( -4.275831445896959482E-31, -1.000000000000000000, -1.224646799147353454E-16 ) ) ;
#259 = ORIENTED_EDGE ( 'NONE', *, *, #229, .T. ) ;
#260 = FACE_OUTER_BOUND ( 'NONE', #102, .T. ) ;
#261 = DIRECTION ( 'NONE',  ( -3.491481338843133355E-15, 1.224646799147353454E-16, -1.000000000000000000 ) ) ;
#262 = AXIS2_PLACEMENT_3D ( 'NONE', #267, #109, #236 ) ;
#263 = ADVANCED_FACE ( 'NONE', ( #108, #292 ), #290, .T. ) ;
#264 = CARTESIAN_POINT ( 'NONE',  ( 3.491481338843133355E-14, -1.224646799147353454E-15, 10.00000000000000000 ) ) ;
#265 = FACE_OUTER_BOUND ( 'NONE', #49, .T. ) ;
#266 = APPLICATION_CONTEXT ( 'configuration controlled 3d designs of mechanical parts and assemblies' ) ;
#267 = CARTESIAN_POINT ( 'NONE',  ( 0.0000000000000000000, 0.0000000000000000000, 0.0000000000000000000 ) ) ;
#268 = VERTEX_POINT ( 'NONE', #63 ) ;
#269 = CC_DESIGN_PERSON_AND_ORGANIZATION_ASSIGNMENT ( #104, #226, ( #281 ) ) ;
#270 = DIRECTION ( 'NONE',  ( 4.275831445896959482E-31, 1.000000000000000000, 1.224646799147353454E-16 ) ) ;
#271 = PERSON_AND_ORGANIZATION ( #300, #36 ) ;
#272 = CALENDAR_DATE ( 2021, 2, 12 ) ;
#273 = EDGE_LOOP ( 'NONE', ( #282 ) ) ;
#274 = ADVANCED_FACE ( 'NONE', ( #294 ), #85, .F. ) ;
#275 = APPROVAL_PERSON_ORGANIZATION ( #271, #83, #184 ) ;
#276 = PRODUCT_DEFINITION_SHAPE ( 'NONE', 'NONE',  #281 ) ;
#277 = AXIS2_PLACEMENT_3D ( 'NONE', #161, #121, #254 ) ;
#278 = PLANE ( 'NONE',  #28 ) ;
#279 = PERSON_AND_ORGANIZATION_ROLE ( 'design_supplier' ) ;
#280 = DIRECTION ( 'NONE',  ( 3.491481338843133355E-15, -1.224646799147353454E-16, 1.000000000000000000 ) ) ;
#281 = PRODUCT_DEFINITION ( 'UNKNOWN', '', #94, #145 ) ;
#282 = ORIENTED_EDGE ( 'NONE', *, *, #79, .T. ) ;
#283 = AXIS2_PLACEMENT_3D ( 'NONE', #87, #150, #106 ) ;
#284 = UNCERTAINTY_MEASURE_WITH_UNIT (LENGTH_MEASURE( 1.000000000000000082E-05 ), #92, 'distance_accuracy_value', 'NONE');
#285 = MANIFOLD_SOLID_BREP ( 'Corps-Déplacer/Copier1[1]', #288 ) ;
#286 = APPROVAL_DATE_TIME ( #43, #172 ) ;
#287 = EDGE_LOOP ( 'NONE', ( #75 ) ) ;
#288 = CLOSED_SHELL ( 'NONE', ( #274, #2, #296, #291, #178, #147, #162, #221 ) ) ;
#289 = CARTESIAN_POINT ( 'NONE',  ( 3.491481338843133355E-14, 1.019836652210061723E-32, 10.00000000000000000 ) ) ;
#290 = CYLINDRICAL_SURFACE ( 'NONE', #256, 1.359999999999999432 ) ;
#291 = ADVANCED_FACE ( 'NONE', ( #133, #93 ), #205, .F. ) ;
#292 = FACE_OUTER_BOUND ( 'NONE', #273, .T. ) ;
#293 = CARTESIAN_POINT ( 'NONE',  ( 8.728703347107833388E-14, -3.061616997868383831E-15, 25.00000000000000000 ) ) ;
#294 = FACE_OUTER_BOUND ( 'NONE', #163, .T. ) ;
#295 = FACE_OUTER_BOUND ( 'NONE', #190, .T. ) ;
#296 = ADVANCED_FACE ( 'NONE', ( #156, #295 ), #15, .T. ) ;
#297 = VERTEX_POINT ( 'NONE', #182 ) ;
#298 = DIRECTION ( 'NONE',  ( 0.0000000000000000000, 0.0000000000000000000, 1.000000000000000000 ) ) ;
#299 = VERTEX_POINT ( 'NONE', #112 ) ;
#300 = PERSON ( 'UNSPECIFIED', 'UNSPECIFIED', 'UNSPECIFIED', ('UNSPECIFIED'), ('UNSPECIFIED'), ('UNSPECIFIED') ) ;
#301 = APPROVAL_DATE_TIME ( #250, #19 ) ;
#302 = DIRECTION ( 'NONE',  ( 0.0000000000000000000, 1.000000000000000000, 0.0000000000000000000 ) ) ;
#303 = DATE_AND_TIME ( #208, #130 ) ;
ENDSEC;
END-ISO-10303-21;
