ISO-10303-21;
HEADER;
FILE_DESCRIPTION (( 'STEP AP203' ),
    '1' );
FILE_NAME ('327096.step',
    '2021-12-02T07:11:35',
    ( '' ),
    ( '' ),
    'SwSTEP 2.0',
    'SolidWorks 2019',
    '' );
FILE_SCHEMA (( 'CONFIG_CONTROL_DESIGN' ));
ENDSEC;

DATA;
#1 = LOCAL_TIME ( 8, 11, 35.00000000000000000, #214 ) ;
#2 = PERSON_AND_ORGANIZATION ( #3, #172 ) ;
#3 = PERSON ( 'UNSPECIFIED', 'UNSPECIFIED', 'UNSPECIFIED', ('UNSPECIFIED'), ('UNSPECIFIED'), ('UNSPECIFIED') ) ;
#4 = ADVANCED_FACE ( 'NONE', ( #143 ), #119, .F. ) ;
#5 = PERSON_AND_ORGANIZATION ( #3, #172 ) ;
#6 = ORIENTED_EDGE ( 'NONE', *, *, #284, .F. ) ;
#7 = CARTESIAN_POINT ( 'NONE',  ( 3.491481338843133355E-14, 1.354999999999998872, 10.00000000000000000 ) ) ;
#8 = APPROVAL_ROLE ( '' ) ;
#9 = EDGE_LOOP ( 'NONE', ( #170 ) ) ;
#10 = CC_DESIGN_PERSON_AND_ORGANIZATION_ASSIGNMENT ( #5, #285, ( #173 ) ) ;
#11 = CARTESIAN_POINT ( 'NONE',  ( 0.0000000000000000000, 0.0000000000000000000, 0.0000000000000000000 ) ) ;
#12 = CARTESIAN_POINT ( 'NONE',  ( 3.491481338843133355E-14, 1.016087252753407051E-32, 10.00000000000000000 ) ) ;
#13 = CARTESIAN_POINT ( 'NONE',  ( 2.846149557816499938E-31, -9.982948804846042816E-33, 8.151696319131816401E-17 ) ) ;
#14 = SECURITY_CLASSIFICATION ( '', '', #133 ) ;
#15 = ORIENTED_EDGE ( 'NONE', *, *, #229, .F. ) ;
#16 = DIRECTION ( 'NONE',  ( -3.491481338843133355E-15, 1.224646799147353454E-16, -1.000000000000000000 ) ) ;
#17 = ORIENTED_EDGE ( 'NONE', *, *, #81, .F. ) ;
#18 = DIRECTION ( 'NONE',  ( -3.491481338843133355E-15, 1.224646799147353454E-16, -1.000000000000000000 ) ) ;
#19 = CYLINDRICAL_SURFACE ( 'NONE', #135, 1.354999999999999538 ) ;
#20 = DIRECTION ( 'NONE',  ( -3.491481338843133355E-15, 1.224646799147353454E-16, -1.000000000000000000 ) ) ;
#21 = ADVANCED_FACE ( 'NONE', ( #230, #138 ), #19, .T. ) ;
#22 = AXIS2_PLACEMENT_3D ( 'NONE', #90, #178, #297 ) ;
#23 = DIRECTION ( 'NONE',  ( 0.0000000000000000000, 1.000000000000000000, 0.0000000000000000000 ) ) ;
#24 = APPROVAL_STATUS ( 'not_yet_approved' ) ;
#25 = VERTEX_POINT ( 'NONE', #185 ) ;
#26 = DESIGN_CONTEXT ( 'detailed design', #149, 'design' ) ;
#27 = COORDINATED_UNIVERSAL_TIME_OFFSET ( 1, 0, .AHEAD. ) ;
#28 = DIRECTION ( 'NONE',  ( 1.000000000000000000, 0.0000000000000000000, 0.0000000000000000000 ) ) ;
#29 = CIRCLE ( 'NONE', #268, 1.180384493975581428 ) ;
#30 = EDGE_LOOP ( 'NONE', ( #82 ) ) ;
#31 = ORIENTED_EDGE ( 'NONE', *, *, #274, .T. ) ;
#32 = EDGE_CURVE ( 'NONE', #271, #271, #209, .T. ) ;
#33 = LOCAL_TIME ( 8, 11, 35.00000000000000000, #56 ) ;
#34 = FACE_OUTER_BOUND ( 'NONE', #194, .T. ) ;
#35 = PERSON_AND_ORGANIZATION_ROLE ( 'design_supplier' ) ;
#36 = ORIENTED_EDGE ( 'NONE', *, *, #243, .T. ) ;
#37 = DIRECTION ( 'NONE',  ( 0.0000000000000000000, -1.000000000000000000, 0.0000000000000000000 ) ) ;
#38 = EDGE_LOOP ( 'NONE', ( #267 ) ) ;
#39 = FACE_OUTER_BOUND ( 'NONE', #113, .T. ) ;
#40 = AXIS2_PLACEMENT_3D ( 'NONE', #12, #182, #195 ) ;
#41 = LOCAL_TIME ( 8, 11, 35.00000000000000000, #73 ) ;
#42 = DIRECTION ( 'NONE',  ( 0.0000000000000000000, 1.000000000000000000, 0.0000000000000000000 ) ) ;
#43 = DIRECTION ( 'NONE',  ( 4.275831445896959482E-31, 1.000000000000000000, 1.224646799147353454E-16 ) ) ;
#44 = CARTESIAN_POINT ( 'NONE',  ( 8.728703347107833388E-14, -3.035766082959412415E-15, 25.00000000000000000 ) ) ;
#45 = DIRECTION ( 'NONE',  ( 4.264051537388717973E-31, 1.000000000000000000, 1.200223807179526303E-16 ) ) ;
#46 = ADVANCED_FACE ( 'NONE', ( #34, #248 ), #175, .T. ) ;
#47 = DIRECTION ( 'NONE',  ( 3.491481338843133355E-15, -1.224646799147353454E-16, 1.000000000000000000 ) ) ;
#48 = CARTESIAN_POINT ( 'NONE',  ( 3.491481338843133355E-14, -1.224646799147353454E-15, 10.00000000000000000 ) ) ;
#49 = APPROVAL_PERSON_ORGANIZATION ( #80, #114, #8 ) ;
#50 = CALENDAR_DATE ( 2021, 2, 12 ) ;
#51 = CARTESIAN_POINT ( 'NONE',  ( 3.615453511830512295E-14, 1.149999999999997025, 10.35507041555162822 ) ) ;
#52 = CARTESIAN_POINT ( 'NONE',  ( 9.482837466738113547E-14, 1.499999999999992673, 27.15992596391809499 ) ) ;
#53 = VERTEX_POINT ( 'NONE', #261 ) ;
#54 = AXIS2_PLACEMENT_3D ( 'NONE', #158, #254, #219 ) ;
#55 = EDGE_LOOP ( 'NONE', ( #244 ) ) ;
#56 = COORDINATED_UNIVERSAL_TIME_OFFSET ( 1, 0, .AHEAD. ) ;
#57 = ADVANCED_BREP_SHAPE_REPRESENTATION ( '327096', ( #93, #290, #148 ), #277 ) ;
#58 = CARTESIAN_POINT ( 'NONE',  ( 8.728703347107833388E-14, -3.061616997868383831E-15, 25.00000000000000000 ) ) ;
#59 = DATE_TIME_ROLE ( 'classification_date' ) ;
#60 = CIRCLE ( 'NONE', #196, 1.354999999999998872 ) ;
#61 = ORIENTED_EDGE ( 'NONE', *, *, #294, .F. ) ;
#62 = VERTEX_POINT ( 'NONE', #241 ) ;
#63 = ADVANCED_FACE ( 'NONE', ( #295 ), #64, .F. ) ;
#64 = PLANE ( 'NONE',  #258 ) ;
#65 = FACE_BOUND ( 'NONE', #55, .T. ) ;
#66 = DIRECTION ( 'NONE',  ( 0.0000000000000000000, 1.000000000000000000, 0.0000000000000000000 ) ) ;
#67 = CONICAL_SURFACE ( 'NONE', #251, 1.149999999999998135, 0.5235987755982921543 ) ;
#68 = FACE_OUTER_BOUND ( 'NONE', #272, .T. ) ;
#69 = APPROVAL ( #24, 'UNSPECIFIED' ) ;
#70 = DIRECTION ( 'NONE',  ( -3.491481338843133355E-15, 1.224646799147353454E-16, -1.000000000000000000 ) ) ;
#71 = CARTESIAN_POINT ( 'NONE',  ( 2.129803616694311221E-13, 1.199999999999995515, 61.00000000000000000 ) ) ;
#72 = DIRECTION ( 'NONE',  ( 0.0000000000000000000, 0.0000000000000000000, 1.000000000000000000 ) ) ;
#73 = COORDINATED_UNIVERSAL_TIME_OFFSET ( 1, 0, .AHEAD. ) ;
#74 = APPROVAL_ROLE ( '' ) ;
#75 = PERSON_AND_ORGANIZATION ( #3, #172 ) ;
#76 = CIRCLE ( 'NONE', #234, 1.499999999999996003 ) ;
#77 = CARTESIAN_POINT ( 'NONE',  ( 0.0000000000000000000, 0.0000000000000000000, 0.0000000000000000000 ) ) ;
#78 = CC_DESIGN_DATE_AND_TIME_ASSIGNMENT ( #153, #59, ( #14 ) ) ;
#79 = EDGE_LOOP ( 'NONE', ( #17 ) ) ;
#80 = PERSON_AND_ORGANIZATION ( #3, #172 ) ;
#81 = EDGE_CURVE ( 'NONE', #280, #280, #145, .T. ) ;
#82 = ORIENTED_EDGE ( 'NONE', *, *, #266, .T. ) ;
#83 = PERSON_AND_ORGANIZATION_ROLE ( 'creator' ) ;
#84 = AXIS2_PLACEMENT_3D ( 'NONE', #199, #276, #89 ) ;
#85 = CALENDAR_DATE ( 2021, 2, 12 ) ;
#86 = CARTESIAN_POINT ( 'NONE',  ( 2.129803616694311221E-13, 8.998558695971062171E-33, 61.00000000000000000 ) ) ;
#87 = AXIS2_PLACEMENT_3D ( 'NONE', #58, #162, #245 ) ;
#88 = EDGE_LOOP ( 'NONE', ( #156 ) ) ;
#89 = DIRECTION ( 'NONE',  ( -4.264051537388717973E-31, -1.000000000000000000, -1.200223807179526303E-16 ) ) ;
#90 = CARTESIAN_POINT ( 'NONE',  ( 2.129803616694311221E-13, -7.470345474798856659E-15, 61.00000000000000000 ) ) ;
#91 = FACE_BOUND ( 'NONE', #190, .T. ) ;
#92 = FACE_OUTER_BOUND ( 'NONE', #121, .T. ) ;
#93 = MANIFOLD_SOLID_BREP ( 'Corps-Déplacer/Copier1[1]', #224 ) ;
#94 = APPROVAL_PERSON_ORGANIZATION ( #102, #69, #74 ) ;
#95 = DIRECTION ( 'NONE',  ( 4.275831445896959482E-31, 1.000000000000000000, 1.224646799147353454E-16 ) ) ;
#96 = DIRECTION ( 'NONE',  ( 0.0000000000000000000, 1.000000000000000000, 0.0000000000000000000 ) ) ;
#97 = CYLINDRICAL_SURFACE ( 'NONE', #111, 1.149999999999999023 ) ;
#98 = PRODUCT_RELATED_PRODUCT_CATEGORY ( 'detail', '', ( #207 ) ) ;
#99 = CIRCLE ( 'NONE', #238, 1.354999999999999982 ) ;
#100 = CC_DESIGN_SECURITY_CLASSIFICATION ( #14, ( #140 ) ) ;
#101 = VERTEX_POINT ( 'NONE', #52 ) ;
#102 = PERSON_AND_ORGANIZATION ( #3, #172 ) ;
#103 = CC_DESIGN_PERSON_AND_ORGANIZATION_ASSIGNMENT ( #112, #287, ( #14 ) ) ;
#104 = DATE_AND_TIME ( #188, #282 ) ;
#105 = AXIS2_PLACEMENT_3D ( 'NONE', #157, #273, #278 ) ;
#106 = AXIS2_PLACEMENT_3D ( 'NONE', #44, #70, #144 ) ;
#107 = EDGE_LOOP ( 'NONE', ( #174 ) ) ;
#108 = APPROVAL_STATUS ( 'not_yet_approved' ) ;
#109 = ORIENTED_EDGE ( 'NONE', *, *, #243, .F. ) ;
#110 = PERSON_AND_ORGANIZATION ( #3, #172 ) ;
#111 = AXIS2_PLACEMENT_3D ( 'NONE', #122, #120, #201 ) ;
#112 = PERSON_AND_ORGANIZATION ( #3, #172 ) ;
#113 = EDGE_LOOP ( 'NONE', ( #286 ) ) ;
#114 = APPROVAL ( #108, 'UNSPECIFIED' ) ;
#115 = ORIENTED_EDGE ( 'NONE', *, *, #32, .F. ) ;
#116 = DIRECTION ( 'NONE',  ( -3.491481338843133355E-15, 1.224646799147353454E-16, -1.000000000000000000 ) ) ;
#117 = FACE_BOUND ( 'NONE', #38, .T. ) ;
#118 = ADVANCED_FACE ( 'NONE', ( #275, #65 ), #189, .T. ) ;
#119 = PLANE ( 'NONE',  #40 ) ;
#120 = DIRECTION ( 'NONE',  ( -3.491481338843133355E-15, 1.224646799147353454E-16, -1.000000000000000000 ) ) ;
#121 = EDGE_LOOP ( 'NONE', ( #115 ) ) ;
#122 = CARTESIAN_POINT ( 'NONE',  ( 0.0000000000000000000, 0.0000000000000000000, 0.0000000000000000000 ) ) ;
#123 = LOCAL_TIME ( 8, 11, 35.00000000000000000, #27 ) ;
#124 = DIRECTION ( 'NONE',  ( 0.0000000000000000000, 1.000000000000000000, 0.0000000000000000000 ) ) ;
#125 = DATE_TIME_ROLE ( 'creation_date' ) ;
#126 = AXIS2_PLACEMENT_3D ( 'NONE', #279, #47, #256 ) ;
#127 = APPROVAL_DATE_TIME ( #187, #69 ) ;
#128 = ADVANCED_FACE ( 'NONE', ( #92, #180 ), #166, .F. ) ;
#129 = UNCERTAINTY_MEASURE_WITH_UNIT (LENGTH_MEASURE( 1.000000000000000082E-05 ), #211, 'distance_accuracy_value', 'NONE');
#130 = ORIENTED_EDGE ( 'NONE', *, *, #32, .T. ) ;
#131 = VERTEX_POINT ( 'NONE', #150 ) ;
#132 = AXIS2_PLACEMENT_3D ( 'NONE', #233, #222, #37 ) ;
#133 = SECURITY_CLASSIFICATION_LEVEL ( 'unclassified' ) ;
#134 = DATE_AND_TIME ( #85, #33 ) ;
#135 = AXIS2_PLACEMENT_3D ( 'NONE', #11, #136, #95 ) ;
#136 = DIRECTION ( 'NONE',  ( -3.491481338843133355E-15, 1.224646799147353454E-16, -1.000000000000000000 ) ) ;
#137 = CALENDAR_DATE ( 2021, 2, 12 ) ;
#138 = FACE_OUTER_BOUND ( 'NONE', #154, .T. ) ;
#139 = PLANE ( 'NONE',  #289 ) ;
#140 = PRODUCT_DEFINITION_FORMATION_WITH_SPECIFIED_SOURCE ( 'ANY', '', #207, .NOT_KNOWN. ) ;
#141 = ORIENTED_EDGE ( 'NONE', *, *, #252, .T. ) ;
#142 = DIRECTION ( 'NONE',  ( -3.491481338843133355E-15, 1.224646799147353454E-16, -1.000000000000000000 ) ) ;
#143 = FACE_OUTER_BOUND ( 'NONE', #9, .T. ) ;
#144 = DIRECTION ( 'NONE',  ( 4.275831445896959482E-31, 1.000000000000000000, 1.224646799147353454E-16 ) ) ;
#145 = CIRCLE ( 'NONE', #22, 1.200000000000002842 ) ;
#146 = ADVANCED_FACE ( 'NONE', ( #68 ), #163, .T. ) ;
#147 = COORDINATED_UNIVERSAL_TIME_OFFSET ( 1, 0, .AHEAD. ) ;
#148 = AXIS2_PLACEMENT_3D ( 'NONE', #77, #72, #28 ) ;
#149 = APPLICATION_CONTEXT ( 'configuration controlled 3d designs of mechanical parts and assemblies' ) ;
#150 = CARTESIAN_POINT ( 'NONE',  ( 2.119329172677781757E-13, 1.499999999999995559, 60.69999999999999574 ) ) ;
#151 = APPROVAL ( #303, 'UNSPECIFIED' ) ;
#152 = AXIS2_PLACEMENT_3D ( 'NONE', #160, #202, #42 ) ;
#153 = DATE_AND_TIME ( #137, #1 ) ;
#154 = EDGE_LOOP ( 'NONE', ( #200 ) ) ;
#155 = AXIS2_PLACEMENT_3D ( 'NONE', #13, #116, #43 ) ;
#156 = ORIENTED_EDGE ( 'NONE', *, *, #294, .T. ) ;
#157 = CARTESIAN_POINT ( 'NONE',  ( 3.615453511830512295E-14, -1.268130383935075731E-15, 10.35507041555162822 ) ) ;
#158 = CARTESIAN_POINT ( 'NONE',  ( 0.0000000000000000000, 0.0000000000000000000, 0.0000000000000000000 ) ) ;
#159 = FACE_BOUND ( 'NONE', #292, .T. ) ;
#160 = CARTESIAN_POINT ( 'NONE',  ( 2.129803616694311221E-13, -7.470345474798856659E-15, 61.00000000000000000 ) ) ;
#161 = CIRCLE ( 'NONE', #270, 1.500000000000002887 ) ;
#162 = DIRECTION ( 'NONE',  ( -3.491481338843133355E-15, 1.224646799147353454E-16, -1.000000000000000000 ) ) ;
#163 = PLANE ( 'NONE',  #126 ) ;
#164 = CARTESIAN_POINT ( 'NONE',  ( 8.728703347107829444E-16, -3.061616997868382402E-17, 0.2499999999999998890 ) ) ;
#165 = MECHANICAL_CONTEXT ( 'NONE', #217, 'mechanical' ) ;
#166 = TOROIDAL_SURFACE ( 'NONE', #106, 3.149999999999999911, 2.000000000000000000 ) ;
#167 = ADVANCED_FACE ( 'NONE', ( #91, #184 ), #216, .T. ) ;
#168 = APPLICATION_PROTOCOL_DEFINITION ( 'international standard', 'config_control_design', 1994, #217 ) ;
#169 = CC_DESIGN_APPROVAL ( #151, ( #140 ) ) ;
#170 = ORIENTED_EDGE ( 'NONE', *, *, #229, .T. ) ;
#171 = EDGE_LOOP ( 'NONE', ( #36 ) ) ;
#172 = ORGANIZATION ( 'UNSPECIFIED', 'UNSPECIFIED', '' ) ;
#173 = PRODUCT_DEFINITION ( 'UNKNOWN', '', #140, #26 ) ;
#174 = ORIENTED_EDGE ( 'NONE', *, *, #215, .F. ) ;
#175 = CYLINDRICAL_SURFACE ( 'NONE', #54, 1.499999999999999334 ) ;
#176 = DIRECTION ( 'NONE',  ( -4.275831445896959482E-31, -1.000000000000000000, -1.224646799147353454E-16 ) ) ;
#177 = CC_DESIGN_DATE_AND_TIME_ASSIGNMENT ( #104, #125, ( #173 ) ) ;
#178 = DIRECTION ( 'NONE',  ( -3.491481338843133355E-15, 1.224646799147353454E-16, -1.000000000000000000 ) ) ;
#179 = DIRECTION ( 'NONE',  ( -3.491481338843133355E-15, 1.224646799147353454E-16, -1.000000000000000000 ) ) ;
#180 = FACE_OUTER_BOUND ( 'NONE', #88, .T. ) ;
#181 = DIRECTION ( 'NONE',  ( -3.491481338843133355E-15, 1.224646799147353454E-16, -1.000000000000000000 ) ) ;
#182 = DIRECTION ( 'NONE',  ( 3.491481338843133355E-15, -1.224646799147353454E-16, 1.000000000000000000 ) ) ;
#183 = CC_DESIGN_PERSON_AND_ORGANIZATION_ASSIGNMENT ( #2, #83, ( #140 ) ) ;
#184 = FACE_OUTER_BOUND ( 'NONE', #30, .T. ) ;
#185 = CARTESIAN_POINT ( 'NONE',  ( 7.570943305532645426E-31, 1.105000000000001315, 2.168404344971008868E-16 ) ) ;
#186 = VERTEX_POINT ( 'NONE', #213 ) ;
#187 = DATE_AND_TIME ( #50, #123 ) ;
#188 = CALENDAR_DATE ( 2021, 2, 12 ) ;
#189 = CONICAL_SURFACE ( 'NONE', #152, 1.200000000000002842, 0.7853981633974453924 ) ;
#190 = EDGE_LOOP ( 'NONE', ( #61 ) ) ;
#191 = APPROVAL_DATE_TIME ( #134, #114 ) ;
#192 = PRODUCT_DEFINITION_SHAPE ( 'NONE', 'NONE',  #173 ) ;
#193 = CIRCLE ( 'NONE', #155, 1.105000000000001315 ) ;
#194 = EDGE_LOOP ( 'NONE', ( #223 ) ) ;
#195 = DIRECTION ( 'NONE',  ( -4.275831445896959482E-31, -1.000000000000000000, -1.224646799147353454E-16 ) ) ;
#196 = AXIS2_PLACEMENT_3D ( 'NONE', #164, #226, #45 ) ;
#197 = CC_DESIGN_PERSON_AND_ORGANIZATION_ASSIGNMENT ( #75, #259, ( #207 ) ) ;
#198 = FACE_OUTER_BOUND ( 'NONE', #227, .T. ) ;
#199 = CARTESIAN_POINT ( 'NONE',  ( 8.728703347107829444E-16, -3.061616997868382402E-17, 0.2499999999999998890 ) ) ;
#200 = ORIENTED_EDGE ( 'NONE', *, *, #284, .T. ) ;
#201 = DIRECTION ( 'NONE',  ( 4.275831445896959482E-31, 1.000000000000000000, 1.224646799147353454E-16 ) ) ;
#202 = DIRECTION ( 'NONE',  ( -3.491481338843133355E-15, 1.224646799147353454E-16, -1.000000000000000000 ) ) ;
#203 = CARTESIAN_POINT ( 'NONE',  ( 8.728703347107833388E-14, 1.149999999999997025, 25.00000000000000000 ) ) ;
#204 = CC_DESIGN_APPROVAL ( #114, ( #14 ) ) ;
#205 = FACE_OUTER_BOUND ( 'NONE', #299, .T. ) ;
#206 = PERSON_AND_ORGANIZATION ( #3, #172 ) ;
#207 = PRODUCT ( '327096', '327096', '', ( #165 ) ) ;
#208 = APPROVAL_DATE_TIME ( #237, #151 ) ;
#209 = CIRCLE ( 'NONE', #87, 1.149999999999999911 ) ;
#210 = APPLICATION_PROTOCOL_DEFINITION ( 'international standard', 'config_control_design', 1994, #149 ) ;
#211 =( LENGTH_UNIT ( ) NAMED_UNIT ( * ) SI_UNIT ( .MILLI., .METRE. ) );
#212 = EDGE_LOOP ( 'NONE', ( #109 ) ) ;
#213 = CARTESIAN_POINT ( 'NONE',  ( 8.849961221477468513E-14, 1.180384493975578319, 25.34729635533384240 ) ) ;
#214 = COORDINATED_UNIVERSAL_TIME_OFFSET ( 1, 0, .AHEAD. ) ;
#215 = EDGE_CURVE ( 'NONE', #62, #62, #60, .T. ) ;
#216 = CONICAL_SURFACE ( 'NONE', #132, 1.499999999999996003, 0.1745329251994258424 ) ;
#217 = APPLICATION_CONTEXT ( 'configuration controlled 3d designs of mechanical parts and assemblies' ) ;
#218 = SHAPE_DEFINITION_REPRESENTATION ( #192, #57 ) ;
#219 = DIRECTION ( 'NONE',  ( 4.275831445896960358E-31, 1.000000000000000000, 1.224646799147353454E-16 ) ) ;
#220 = ORIENTED_EDGE ( 'NONE', *, *, #215, .T. ) ;
#221 = ADVANCED_FACE ( 'NONE', ( #117, #257 ), #225, .T. ) ;
#222 = DIRECTION ( 'NONE',  ( 3.491481338843133355E-15, -1.224646799147353454E-16, 1.000000000000000000 ) ) ;
#223 = ORIENTED_EDGE ( 'NONE', *, *, #266, .F. ) ;
#224 = CLOSED_SHELL ( 'NONE', ( #4, #281, #288, #128, #167, #46, #118, #63 ) ) ;
#225 = CONICAL_SURFACE ( 'NONE', #84, 1.354999999999998872, 0.7853981633974435050 ) ;
#226 = DIRECTION ( 'NONE',  ( -3.491481338843133355E-15, 1.224646799147353454E-16, -1.000000000000000000 ) ) ;
#227 = EDGE_LOOP ( 'NONE', ( #141 ) ) ;
#228 = CARTESIAN_POINT ( 'NONE',  ( 3.491481338843133355E-14, -1.224646799147353454E-15, 10.00000000000000000 ) ) ;
#229 = EDGE_CURVE ( 'NONE', #53, #53, #291, .T. ) ;
#230 = FACE_OUTER_BOUND ( 'NONE', #107, .T. ) ;
#231 = CARTESIAN_POINT ( 'NONE',  ( 8.849961221477468513E-14, -3.104148534859897150E-15, 25.34729635533384240 ) ) ;
#232 = CLOSED_SHELL ( 'NONE', ( #236, #221, #21, #146 ) ) ;
#233 = CARTESIAN_POINT ( 'NONE',  ( 9.482837466738113547E-14, -3.326131639679139478E-15, 27.15992596391809499 ) ) ;
#234 = AXIS2_PLACEMENT_3D ( 'NONE', #296, #181, #124 ) ;
#235 = VERTEX_POINT ( 'NONE', #7 ) ;
#236 = ADVANCED_FACE ( 'NONE', ( #198 ), #139, .F. ) ;
#237 = DATE_AND_TIME ( #260, #41 ) ;
#238 = AXIS2_PLACEMENT_3D ( 'NONE', #228, #18, #249 ) ;
#239 =( NAMED_UNIT ( * ) SI_UNIT ( $, .STERADIAN. ) SOLID_ANGLE_UNIT ( ) );
#240 = CC_DESIGN_PERSON_AND_ORGANIZATION_ASSIGNMENT ( #110, #35, ( #140 ) ) ;
#241 = CARTESIAN_POINT ( 'NONE',  ( 8.728703347107835360E-16, 1.354999999999998872, 0.2500000000000000555 ) ) ;
#242 = AXIS2_PLACEMENT_3D ( 'NONE', #48, #142, #23 ) ;
#243 = EDGE_CURVE ( 'NONE', #131, #131, #161, .T. ) ;
#244 = ORIENTED_EDGE ( 'NONE', *, *, #81, .T. ) ;
#245 = DIRECTION ( 'NONE',  ( 0.0000000000000000000, 1.000000000000000000, 0.0000000000000000000 ) ) ;
#246 = CIRCLE ( 'NONE', #105, 1.149999999999998135 ) ;
#247 = EDGE_LOOP ( 'NONE', ( #130 ) ) ;
#248 = FACE_OUTER_BOUND ( 'NONE', #171, .T. ) ;
#249 = DIRECTION ( 'NONE',  ( 0.0000000000000000000, 1.000000000000000000, 0.0000000000000000000 ) ) ;
#250 = DIRECTION ( 'NONE',  ( -3.491481338843133355E-15, 1.224646799147353454E-16, -1.000000000000000000 ) ) ;
#251 = AXIS2_PLACEMENT_3D ( 'NONE', #293, #179, #66 ) ;
#252 = EDGE_CURVE ( 'NONE', #25, #25, #193, .T. ) ;
#253 = CARTESIAN_POINT ( 'NONE',  ( 1.423074778908249969E-31, -4.991474402423021408E-33, 4.075848159565908201E-17 ) ) ;
#254 = DIRECTION ( 'NONE',  ( -3.491481338843133355E-15, 1.224646799147353454E-16, -1.000000000000000000 ) ) ;
#255 = DIRECTION ( 'NONE',  ( 0.0000000000000000000, 1.000000000000000000, 0.0000000000000000000 ) ) ;
#256 = DIRECTION ( 'NONE',  ( -4.275831445896959482E-31, -1.000000000000000000, -1.224646799147353454E-16 ) ) ;
#257 = FACE_OUTER_BOUND ( 'NONE', #265, .T. ) ;
#258 = AXIS2_PLACEMENT_3D ( 'NONE', #86, #250, #269 ) ;
#259 = PERSON_AND_ORGANIZATION_ROLE ( 'design_owner' ) ;
#260 = CALENDAR_DATE ( 2021, 2, 12 ) ;
#261 = CARTESIAN_POINT ( 'NONE',  ( 3.491481338843133355E-14, 1.354999999999998872, 10.00000000000000000 ) ) ;
#262 =( NAMED_UNIT ( * ) PLANE_ANGLE_UNIT ( ) SI_UNIT ( $, .RADIAN. ) );
#263 = CC_DESIGN_APPROVAL ( #69, ( #173 ) ) ;
#264 = VERTEX_POINT ( 'NONE', #51 ) ;
#265 = EDGE_LOOP ( 'NONE', ( #220 ) ) ;
#266 = EDGE_CURVE ( 'NONE', #101, #101, #76, .T. ) ;
#267 = ORIENTED_EDGE ( 'NONE', *, *, #252, .F. ) ;
#268 = AXIS2_PLACEMENT_3D ( 'NONE', #231, #20, #96 ) ;
#269 = DIRECTION ( 'NONE',  ( 4.275831445896959482E-31, 1.000000000000000000, 1.224646799147353454E-16 ) ) ;
#270 = AXIS2_PLACEMENT_3D ( 'NONE', #298, #16, #255 ) ;
#271 = VERTEX_POINT ( 'NONE', #203 ) ;
#272 = EDGE_LOOP ( 'NONE', ( #6 ) ) ;
#273 = DIRECTION ( 'NONE',  ( -3.491481338843133355E-15, 1.224646799147353454E-16, -1.000000000000000000 ) ) ;
#274 = EDGE_CURVE ( 'NONE', #264, #264, #246, .T. ) ;
#275 = FACE_OUTER_BOUND ( 'NONE', #212, .T. ) ;
#276 = DIRECTION ( 'NONE',  ( 3.491481338843133355E-15, -1.224646799147353454E-16, 1.000000000000000000 ) ) ;
#277 =( GEOMETRIC_REPRESENTATION_CONTEXT ( 3 ) GLOBAL_UNCERTAINTY_ASSIGNED_CONTEXT ( ( #129 ) ) GLOBAL_UNIT_ASSIGNED_CONTEXT ( ( #211, #262, #239 ) ) REPRESENTATION_CONTEXT ( 'NONE', 'WORKASPACE' ) );
#278 = DIRECTION ( 'NONE',  ( 0.0000000000000000000, 1.000000000000000000, 0.0000000000000000000 ) ) ;
#279 = CARTESIAN_POINT ( 'NONE',  ( 3.491481338843133355E-14, 1.016087252753407051E-32, 10.00000000000000000 ) ) ;
#280 = VERTEX_POINT ( 'NONE', #71 ) ;
#281 = ADVANCED_FACE ( 'NONE', ( #205, #159 ), #67, .T. ) ;
#282 = LOCAL_TIME ( 8, 11, 35.00000000000000000, #147 ) ;
#283 = APPROVAL_ROLE ( '' ) ;
#284 = EDGE_CURVE ( 'NONE', #235, #235, #99, .T. ) ;
#285 = PERSON_AND_ORGANIZATION_ROLE ( 'creator' ) ;
#286 = ORIENTED_EDGE ( 'NONE', *, *, #274, .F. ) ;
#287 = PERSON_AND_ORGANIZATION_ROLE ( 'classification_officer' ) ;
#288 = ADVANCED_FACE ( 'NONE', ( #39, #302 ), #97, .T. ) ;
#289 = AXIS2_PLACEMENT_3D ( 'NONE', #253, #301, #176 ) ;
#290 = MANIFOLD_SOLID_BREP ( 'Corps-Déplacer/Copier1[2]', #232 ) ;
#291 = CIRCLE ( 'NONE', #242, 1.354999999999999982 ) ;
#292 = EDGE_LOOP ( 'NONE', ( #31 ) ) ;
#293 = CARTESIAN_POINT ( 'NONE',  ( 3.615453511830512295E-14, -1.268130383935075731E-15, 10.35507041555162822 ) ) ;
#294 = EDGE_CURVE ( 'NONE', #186, #186, #29, .T. ) ;
#295 = FACE_OUTER_BOUND ( 'NONE', #79, .T. ) ;
#296 = CARTESIAN_POINT ( 'NONE',  ( 9.482837466738113547E-14, -3.326131639679139478E-15, 27.15992596391809499 ) ) ;
#297 = DIRECTION ( 'NONE',  ( 0.0000000000000000000, 1.000000000000000000, 0.0000000000000000000 ) ) ;
#298 = CARTESIAN_POINT ( 'NONE',  ( 2.119329172677781757E-13, -7.433606070824434221E-15, 60.69999999999999574 ) ) ;
#299 = EDGE_LOOP ( 'NONE', ( #15 ) ) ;
#300 = APPROVAL_PERSON_ORGANIZATION ( #206, #151, #283 ) ;
#301 = DIRECTION ( 'NONE',  ( 3.491481338843133355E-15, -1.224646799147353454E-16, 1.000000000000000000 ) ) ;
#302 = FACE_OUTER_BOUND ( 'NONE', #247, .T. ) ;
#303 = APPROVAL_STATUS ( 'not_yet_approved' ) ;
ENDSEC;
END-ISO-10303-21;
