ISO-10303-21;
HEADER;
FILE_DESCRIPTION (( 'STEP AP203' ),
    '1' );
FILE_NAME ('327095.step',
    '2021-12-02T07:11:34',
    ( '' ),
    ( '' ),
    'SwSTEP 2.0',
    'SolidWorks 2019',
    '' );
FILE_SCHEMA (( 'CONFIG_CONTROL_DESIGN' ));
ENDSEC;

DATA;
#1 = AXIS2_PLACEMENT_3D ( 'NONE', #116, #299, #65 ) ;
#2 = EDGE_LOOP ( 'NONE', ( #196 ) ) ;
#3 = ADVANCED_FACE ( 'NONE', ( #171 ), #100, .T. ) ;
#4 = CARTESIAN_POINT ( 'NONE',  ( 6.674379525041790766E-31, -2.341057198474201737E-32, 1.911618272390159209E-16 ) ) ;
#5 = EDGE_LOOP ( 'NONE', ( #194 ) ) ;
#6 = AXIS2_PLACEMENT_3D ( 'NONE', #228, #20, #209 ) ;
#7 = DIRECTION ( 'NONE',  ( 0.0000000000000000000, 0.0000000000000000000, 1.000000000000000000 ) ) ;
#8 = MECHANICAL_CONTEXT ( 'NONE', #178, 'mechanical' ) ;
#9 = APPLICATION_PROTOCOL_DEFINITION ( 'international standard', 'config_control_design', 1994, #164 ) ;
#10 = CARTESIAN_POINT ( 'NONE',  ( 2.129803616694311221E-13, -7.470345474798856659E-15, 61.00000000000000000 ) ) ;
#11 = PERSON_AND_ORGANIZATION ( #238, #109 ) ;
#12 = CC_DESIGN_DATE_AND_TIME_ASSIGNMENT ( #137, #154, ( #232 ) ) ;
#13 = AXIS2_PLACEMENT_3D ( 'NONE', #231, #188, #43 ) ;
#14 = ORIENTED_EDGE ( 'NONE', *, *, #261, .T. ) ;
#15 = PERSON_AND_ORGANIZATION_ROLE ( 'creator' ) ;
#16 = CONICAL_SURFACE ( 'NONE', #141, 1.200000000000002842, 0.7853981633974453924 ) ;
#17 = DIRECTION ( 'NONE',  ( -3.491481338843133355E-15, 1.224646799147353454E-16, -1.000000000000000000 ) ) ;
#18 = DATE_AND_TIME ( #157, #199 ) ;
#19 = VERTEX_POINT ( 'NONE', #84 ) ;
#20 = DIRECTION ( 'NONE',  ( -3.491481338843133355E-15, 1.224646799147353454E-16, -1.000000000000000000 ) ) ;
#21 = PLANE ( 'NONE',  #57 ) ;
#22 = PRODUCT_RELATED_PRODUCT_CATEGORY ( 'detail', '', ( #242 ) ) ;
#23 = CARTESIAN_POINT ( 'NONE',  ( 3.337189762520895383E-31, -1.170528599237100869E-32, 9.558091361950796047E-17 ) ) ;
#24 = CIRCLE ( 'NONE', #114, 1.095000000000001750 ) ;
#25 = ORIENTED_EDGE ( 'NONE', *, *, #281, .T. ) ;
#26 = FACE_OUTER_BOUND ( 'NONE', #2, .T. ) ;
#27 = AXIS2_PLACEMENT_3D ( 'NONE', #226, #251, #156 ) ;
#28 = DIRECTION ( 'NONE',  ( 4.275831445896959482E-31, 1.000000000000000000, 1.224646799147353454E-16 ) ) ;
#29 = CARTESIAN_POINT ( 'NONE',  ( 3.491481338843133355E-14, 1.344999999999998863, 10.00000000000000000 ) ) ;
#30 = CIRCLE ( 'NONE', #122, 1.344999999999999973 ) ;
#31 = ADVANCED_FACE ( 'NONE', ( #258, #83 ), #16, .T. ) ;
#32 = APPROVAL_ROLE ( '' ) ;
#33 = AXIS2_PLACEMENT_3D ( 'NONE', #177, #59, #221 ) ;
#34 = EDGE_LOOP ( 'NONE', ( #25 ) ) ;
#35 = PERSON_AND_ORGANIZATION ( #238, #109 ) ;
#36 = DIRECTION ( 'NONE',  ( -3.491481338843133355E-15, 1.224646799147353454E-16, -1.000000000000000000 ) ) ;
#37 = CARTESIAN_POINT ( 'NONE',  ( 1.135641495829896858E-30, 1.095000000000001750, 3.252606517456513302E-16 ) ) ;
#38 = PLANE ( 'NONE',  #6 ) ;
#39 = LOCAL_TIME ( 8, 11, 34.00000000000000000, #126 ) ;
#40 = CARTESIAN_POINT ( 'NONE',  ( 2.119329172677781757E-13, -7.433606070824434221E-15, 60.69999999999999574 ) ) ;
#41 = SECURITY_CLASSIFICATION_LEVEL ( 'unclassified' ) ;
#42 = CARTESIAN_POINT ( 'NONE',  ( 2.119329172677781757E-13, 1.499999999999995559, 60.69999999999999574 ) ) ;
#43 = DIRECTION ( 'NONE',  ( 0.0000000000000000000, 1.000000000000000000, 0.0000000000000000000 ) ) ;
#44 = ADVANCED_FACE ( 'NONE', ( #265, #152 ), #201, .T. ) ;
#45 = CARTESIAN_POINT ( 'NONE',  ( 8.849961221477469775E-14, 1.155384493975579296, 25.34729635533384595 ) ) ;
#46 = DIRECTION ( 'NONE',  ( 0.0000000000000000000, 1.000000000000000000, 0.0000000000000000000 ) ) ;
#47 = ORIENTED_EDGE ( 'NONE', *, *, #206, .T. ) ;
#48 = DIRECTION ( 'NONE',  ( 0.0000000000000000000, -1.000000000000000000, 0.0000000000000000000 ) ) ;
#49 = AXIS2_PLACEMENT_3D ( 'NONE', #269, #36, #224 ) ;
#50 = CARTESIAN_POINT ( 'NONE',  ( 2.129803616694311221E-13, 1.199999999999995515, 61.00000000000000000 ) ) ;
#51 = ORIENTED_EDGE ( 'NONE', *, *, #62, .F. ) ;
#52 = CLOSED_SHELL ( 'NONE', ( #272, #95, #99, #3 ) ) ;
#53 = FACE_BOUND ( 'NONE', #94, .T. ) ;
#54 =( NAMED_UNIT ( * ) SI_UNIT ( $, .STERADIAN. ) SOLID_ANGLE_UNIT ( ) );
#55 = DIRECTION ( 'NONE',  ( -3.491481338843133355E-15, 1.224646799147353454E-16, -1.000000000000000000 ) ) ;
#56 = APPROVAL_STATUS ( 'not_yet_approved' ) ;
#57 = AXIS2_PLACEMENT_3D ( 'NONE', #135, #278, #72 ) ;
#58 = ADVANCED_BREP_SHAPE_REPRESENTATION ( '327095', ( #263, #264, #159 ), #202 ) ;
#59 = DIRECTION ( 'NONE',  ( 3.491481338843133355E-15, -1.224646799147353454E-16, 1.000000000000000000 ) ) ;
#60 = DIRECTION ( 'NONE',  ( 4.275831445896960358E-31, 1.000000000000000000, 1.224646799147353454E-16 ) ) ;
#61 = AXIS2_PLACEMENT_3D ( 'NONE', #142, #55, #197 ) ;
#62 = EDGE_CURVE ( 'NONE', #285, #285, #30, .T. ) ;
#63 = CARTESIAN_POINT ( 'NONE',  ( 3.491481338843133355E-14, 1.344999999999998863, 10.00000000000000000 ) ) ;
#64 = DIRECTION ( 'NONE',  ( 0.0000000000000000000, 1.000000000000000000, 0.0000000000000000000 ) ) ;
#65 = DIRECTION ( 'NONE',  ( 0.0000000000000000000, 1.000000000000000000, 0.0000000000000000000 ) ) ;
#66 = CC_DESIGN_APPROVAL ( #241, ( #232 ) ) ;
#67 = CIRCLE ( 'NONE', #1, 1.344999999999999973 ) ;
#68 = DIRECTION ( 'NONE',  ( -3.491481338843133355E-15, 1.224646799147353454E-16, -1.000000000000000000 ) ) ;
#69 = APPROVAL ( #176, 'UNSPECIFIED' ) ;
#70 = PERSON_AND_ORGANIZATION_ROLE ( 'design_supplier' ) ;
#71 = FACE_OUTER_BOUND ( 'NONE', #108, .T. ) ;
#72 = DIRECTION ( 'NONE',  ( -4.275831445896959482E-31, -1.000000000000000000, -1.224646799147353454E-16 ) ) ;
#73 = UNCERTAINTY_MEASURE_WITH_UNIT (LENGTH_MEASURE( 1.000000000000000082E-05 ), #187, 'distance_accuracy_value', 'NONE');
#74 = DIRECTION ( 'NONE',  ( -3.491481338843133355E-15, 1.224646799147353454E-16, -1.000000000000000000 ) ) ;
#75 = CC_DESIGN_PERSON_AND_ORGANIZATION_ASSIGNMENT ( #182, #15, ( #247 ) ) ;
#76 = ORIENTED_EDGE ( 'NONE', *, *, #174, .T. ) ;
#77 = DIRECTION ( 'NONE',  ( -3.491481338843133355E-15, 1.224646799147353454E-16, -1.000000000000000000 ) ) ;
#78 = PERSON_AND_ORGANIZATION ( #238, #109 ) ;
#79 = EDGE_CURVE ( 'NONE', #255, #255, #101, .T. ) ;
#80 = APPROVAL_PERSON_ORGANIZATION ( #132, #241, #186 ) ;
#81 = DIRECTION ( 'NONE',  ( -3.491481338843133355E-15, 1.224646799147353454E-16, -1.000000000000000000 ) ) ;
#82 = ORIENTED_EDGE ( 'NONE', *, *, #174, .F. ) ;
#83 = FACE_BOUND ( 'NONE', #139, .T. ) ;
#84 = CARTESIAN_POINT ( 'NONE',  ( 8.728703347107833388E-14, 1.124999999999996669, 25.00000000000000000 ) ) ;
#85 = CARTESIAN_POINT ( 'NONE',  ( 3.491481338843133355E-14, -1.224646799147353454E-15, 10.00000000000000000 ) ) ;
#86 = VERTEX_POINT ( 'NONE', #249 ) ;
#87 = FACE_OUTER_BOUND ( 'NONE', #105, .T. ) ;
#88 = APPROVAL_STATUS ( 'not_yet_approved' ) ;
#89 = DIRECTION ( 'NONE',  ( 3.491481338843133355E-15, -1.224646799147353454E-16, 1.000000000000000000 ) ) ;
#90 = CIRCLE ( 'NONE', #118, 1.124999999999998224 ) ;
#91 = DIRECTION ( 'NONE',  ( 4.295754522796812586E-31, 1.000000000000000000, 1.209147404258928002E-16 ) ) ;
#92 = DIRECTION ( 'NONE',  ( -4.275831445896959482E-31, -1.000000000000000000, -1.224646799147353454E-16 ) ) ;
#93 = DIRECTION ( 'NONE',  ( -3.491481338843133355E-15, 1.224646799147353454E-16, -1.000000000000000000 ) ) ;
#94 = EDGE_LOOP ( 'NONE', ( #192 ) ) ;
#95 = ADVANCED_FACE ( 'NONE', ( #53, #120 ), #227, .T. ) ;
#96 = APPROVAL_PERSON_ORGANIZATION ( #78, #119, #267 ) ;
#97 = ORIENTED_EDGE ( 'NONE', *, *, #223, .T. ) ;
#98 = FACE_OUTER_BOUND ( 'NONE', #143, .T. ) ;
#99 = ADVANCED_FACE ( 'NONE', ( #71, #133 ), #129, .T. ) ;
#100 = PLANE ( 'NONE',  #33 ) ;
#101 = CIRCLE ( 'NONE', #49, 1.200000000000002842 ) ;
#102 = COORDINATED_UNIVERSAL_TIME_OFFSET ( 1, 0, .AHEAD. ) ;
#103 = DIRECTION ( 'NONE',  ( -3.491481338843133355E-15, 1.224646799147353454E-16, -1.000000000000000000 ) ) ;
#104 = DATE_TIME_ROLE ( 'creation_date' ) ;
#105 = EDGE_LOOP ( 'NONE', ( #113 ) ) ;
#106 = ADVANCED_FACE ( 'NONE', ( #273 ), #38, .F. ) ;
#107 = ORIENTED_EDGE ( 'NONE', *, *, #206, .F. ) ;
#108 = EDGE_LOOP ( 'NONE', ( #107 ) ) ;
#109 = ORGANIZATION ( 'UNSPECIFIED', 'UNSPECIFIED', '' ) ;
#110 = FACE_OUTER_BOUND ( 'NONE', #34, .T. ) ;
#111 = CC_DESIGN_PERSON_AND_ORGANIZATION_ASSIGNMENT ( #35, #70, ( #247 ) ) ;
#112 = CARTESIAN_POINT ( 'NONE',  ( 8.849961221477469775E-14, -3.104148534859897544E-15, 25.34729635533384595 ) ) ;
#113 = ORIENTED_EDGE ( 'NONE', *, *, #140, .F. ) ;
#114 = AXIS2_PLACEMENT_3D ( 'NONE', #4, #74, #28 ) ;
#115 = ORIENTED_EDGE ( 'NONE', *, *, #223, .F. ) ;
#116 = CARTESIAN_POINT ( 'NONE',  ( 3.491481338843133355E-14, -1.224646799147353454E-15, 10.00000000000000000 ) ) ;
#117 = CC_DESIGN_APPROVAL ( #119, ( #184 ) ) ;
#118 = AXIS2_PLACEMENT_3D ( 'NONE', #248, #207, #235 ) ;
#119 = APPROVAL ( #56, 'UNSPECIFIED' ) ;
#120 = FACE_OUTER_BOUND ( 'NONE', #283, .T. ) ;
#121 = FACE_OUTER_BOUND ( 'NONE', #123, .T. ) ;
#122 = AXIS2_PLACEMENT_3D ( 'NONE', #85, #240, #183 ) ;
#123 = EDGE_LOOP ( 'NONE', ( #76 ) ) ;
#124 = APPLICATION_PROTOCOL_DEFINITION ( 'international standard', 'config_control_design', 1994, #178 ) ;
#125 = AXIS2_PLACEMENT_3D ( 'NONE', #210, #297, #91 ) ;
#126 = COORDINATED_UNIVERSAL_TIME_OFFSET ( 1, 0, .AHEAD. ) ;
#127 = EDGE_LOOP ( 'NONE', ( #213 ) ) ;
#128 = VERTEX_POINT ( 'NONE', #63 ) ;
#129 = CYLINDRICAL_SURFACE ( 'NONE', #27, 1.344999999999999307 ) ;
#130 = APPROVAL_PERSON_ORGANIZATION ( #179, #69, #32 ) ;
#131 = CIRCLE ( 'NONE', #125, 1.344999999999998863 ) ;
#132 = PERSON_AND_ORGANIZATION ( #238, #109 ) ;
#133 = FACE_OUTER_BOUND ( 'NONE', #292, .T. ) ;
#134 = VERTEX_POINT ( 'NONE', #37 ) ;
#135 = CARTESIAN_POINT ( 'NONE',  ( 3.491481338843133355E-14, 1.008588453840097709E-32, 10.00000000000000000 ) ) ;
#136 = EDGE_LOOP ( 'NONE', ( #82 ) ) ;
#137 = DATE_AND_TIME ( #298, #193 ) ;
#138 = PLANE ( 'NONE',  #160 ) ;
#139 = EDGE_LOOP ( 'NONE', ( #282 ) ) ;
#140 = EDGE_CURVE ( 'NONE', #236, #236, #90, .T. ) ;
#141 = AXIS2_PLACEMENT_3D ( 'NONE', #10, #103, #289 ) ;
#142 = CARTESIAN_POINT ( 'NONE',  ( 9.532340403339405712E-14, -3.343494932497784210E-15, 27.30170800940854647 ) ) ;
#143 = EDGE_LOOP ( 'NONE', ( #280 ) ) ;
#144 = EDGE_LOOP ( 'NONE', ( #14 ) ) ;
#145 = AXIS2_PLACEMENT_3D ( 'NONE', #180, #81, #60 ) ;
#146 = CARTESIAN_POINT ( 'NONE',  ( 0.0000000000000000000, 0.0000000000000000000, 0.0000000000000000000 ) ) ;
#147 = CARTESIAN_POINT ( 'NONE',  ( 8.728703347107833388E-14, -3.035766082959412415E-15, 25.00000000000000000 ) ) ;
#148 = DATE_AND_TIME ( #262, #218 ) ;
#149 = EDGE_CURVE ( 'NONE', #19, #19, #195, .T. ) ;
#150 = CALENDAR_DATE ( 2021, 2, 12 ) ;
#151 = COORDINATED_UNIVERSAL_TIME_OFFSET ( 1, 0, .AHEAD. ) ;
#152 = FACE_OUTER_BOUND ( 'NONE', #144, .T. ) ;
#153 = AXIS2_PLACEMENT_3D ( 'NONE', #165, #254, #48 ) ;
#154 = DATE_TIME_ROLE ( 'classification_date' ) ;
#155 = VERTEX_POINT ( 'NONE', #42 ) ;
#156 = DIRECTION ( 'NONE',  ( 4.275831445896959482E-31, 1.000000000000000000, 1.224646799147353700E-16 ) ) ;
#157 = CALENDAR_DATE ( 2021, 2, 12 ) ;
#158 = DIRECTION ( 'NONE',  ( -3.491481338843133355E-15, 1.224646799147353454E-16, -1.000000000000000000 ) ) ;
#159 = AXIS2_PLACEMENT_3D ( 'NONE', #146, #7, #243 ) ;
#160 = AXIS2_PLACEMENT_3D ( 'NONE', #23, #161, #92 ) ;
#161 = DIRECTION ( 'NONE',  ( 3.491481338843133355E-15, -1.224646799147353454E-16, 1.000000000000000000 ) ) ;
#162 = PERSON_AND_ORGANIZATION ( #238, #109 ) ;
#163 = CARTESIAN_POINT ( 'NONE',  ( 8.728703347107829444E-16, -3.061616997868382402E-17, 0.2499999999999998890 ) ) ;
#164 = APPLICATION_CONTEXT ( 'configuration controlled 3d designs of mechanical parts and assemblies' ) ;
#165 = CARTESIAN_POINT ( 'NONE',  ( 9.532340403339405712E-14, -3.343494932497784210E-15, 27.30170800940854647 ) ) ;
#166 = EDGE_LOOP ( 'NONE', ( #51 ) ) ;
#167 = CIRCLE ( 'NONE', #170, 1.500000000000002887 ) ;
#168 = AXIS2_PLACEMENT_3D ( 'NONE', #112, #93, #275 ) ;
#169 = ADVANCED_FACE ( 'NONE', ( #294 ), #21, .F. ) ;
#170 = AXIS2_PLACEMENT_3D ( 'NONE', #40, #68, #46 ) ;
#171 = FACE_OUTER_BOUND ( 'NONE', #217, .T. ) ;
#172 = APPROVAL_DATE_TIME ( #245, #119 ) ;
#173 = PERSON_AND_ORGANIZATION_ROLE ( 'creator' ) ;
#174 = EDGE_CURVE ( 'NONE', #296, #296, #257, .T. ) ;
#175 = ORIENTED_EDGE ( 'NONE', *, *, #62, .T. ) ;
#176 = APPROVAL_STATUS ( 'not_yet_approved' ) ;
#177 = CARTESIAN_POINT ( 'NONE',  ( 3.491481338843133355E-14, 1.008588453840097709E-32, 10.00000000000000000 ) ) ;
#178 = APPLICATION_CONTEXT ( 'configuration controlled 3d designs of mechanical parts and assemblies' ) ;
#179 = PERSON_AND_ORGANIZATION ( #238, #109 ) ;
#180 = CARTESIAN_POINT ( 'NONE',  ( 0.0000000000000000000, 0.0000000000000000000, 0.0000000000000000000 ) ) ;
#181 = AXIS2_PLACEMENT_3D ( 'NONE', #147, #77, #259 ) ;
#182 = PERSON_AND_ORGANIZATION ( #238, #109 ) ;
#183 = DIRECTION ( 'NONE',  ( 0.0000000000000000000, 1.000000000000000000, 0.0000000000000000000 ) ) ;
#184 = PRODUCT_DEFINITION ( 'UNKNOWN', '', #247, #216 ) ;
#185 = CARTESIAN_POINT ( 'NONE',  ( 0.0000000000000000000, 0.0000000000000000000, 0.0000000000000000000 ) ) ;
#186 = APPROVAL_ROLE ( '' ) ;
#187 =( LENGTH_UNIT ( ) NAMED_UNIT ( * ) SI_UNIT ( .MILLI., .METRE. ) );
#188 = DIRECTION ( 'NONE',  ( -3.491481338843133355E-15, 1.224646799147353454E-16, -1.000000000000000000 ) ) ;
#189 = FACE_OUTER_BOUND ( 'NONE', #166, .T. ) ;
#190 = ADVANCED_FACE ( 'NONE', ( #87, #26 ), #252, .T. ) ;
#191 = FACE_BOUND ( 'NONE', #136, .T. ) ;
#192 = ORIENTED_EDGE ( 'NONE', *, *, #286, .F. ) ;
#193 = LOCAL_TIME ( 8, 11, 34.00000000000000000, #270 ) ;
#194 = ORIENTED_EDGE ( 'NONE', *, *, #79, .F. ) ;
#195 = CIRCLE ( 'NONE', #13, 1.124999999999999778 ) ;
#196 = ORIENTED_EDGE ( 'NONE', *, *, #149, .T. ) ;
#197 = DIRECTION ( 'NONE',  ( 0.0000000000000000000, 1.000000000000000000, 0.0000000000000000000 ) ) ;
#198 = PERSON_AND_ORGANIZATION_ROLE ( 'design_owner' ) ;
#199 = LOCAL_TIME ( 8, 11, 34.00000000000000000, #204 ) ;
#200 = CLOSED_SHELL ( 'NONE', ( #169, #229, #190, #293, #279, #44, #31, #106 ) ) ;
#201 = CYLINDRICAL_SURFACE ( 'NONE', #145, 1.499999999999999334 ) ;
#202 =( GEOMETRIC_REPRESENTATION_CONTEXT ( 3 ) GLOBAL_UNCERTAINTY_ASSIGNED_CONTEXT ( ( #73 ) ) GLOBAL_UNIT_ASSIGNED_CONTEXT ( ( #187, #256, #54 ) ) REPRESENTATION_CONTEXT ( 'NONE', 'WORKASPACE' ) );
#203 = DATE_AND_TIME ( #220, #39 ) ;
#204 = COORDINATED_UNIVERSAL_TIME_OFFSET ( 1, 0, .AHEAD. ) ;
#205 = EDGE_LOOP ( 'NONE', ( #233 ) ) ;
#206 = EDGE_CURVE ( 'NONE', #208, #208, #131, .T. ) ;
#207 = DIRECTION ( 'NONE',  ( -3.491481338843133355E-15, 1.224646799147353454E-16, -1.000000000000000000 ) ) ;
#208 = VERTEX_POINT ( 'NONE', #277 ) ;
#209 = DIRECTION ( 'NONE',  ( 4.275831445896959482E-31, 1.000000000000000000, 1.224646799147353454E-16 ) ) ;
#210 = CARTESIAN_POINT ( 'NONE',  ( 8.728703347107829444E-16, -3.061616997868382402E-17, 0.2499999999999998890 ) ) ;
#211 = EDGE_LOOP ( 'NONE', ( #175 ) ) ;
#212 = DIRECTION ( 'NONE',  ( 4.275831445896959482E-31, 1.000000000000000000, 1.224646799147353454E-16 ) ) ;
#213 = ORIENTED_EDGE ( 'NONE', *, *, #281, .F. ) ;
#214 = CARTESIAN_POINT ( 'NONE',  ( 3.624524646439344177E-14, 1.124999999999996891, 10.38105117766516017 ) ) ;
#215 = CC_DESIGN_APPROVAL ( #69, ( #247 ) ) ;
#216 = DESIGN_CONTEXT ( 'detailed design', #164, 'design' ) ;
#217 = EDGE_LOOP ( 'NONE', ( #115 ) ) ;
#218 = LOCAL_TIME ( 8, 11, 34.00000000000000000, #102 ) ;
#219 = CC_DESIGN_DATE_AND_TIME_ASSIGNMENT ( #148, #104, ( #184 ) ) ;
#220 = CALENDAR_DATE ( 2021, 2, 12 ) ;
#221 = DIRECTION ( 'NONE',  ( -4.275831445896959482E-31, -1.000000000000000000, -1.224646799147353454E-16 ) ) ;
#222 = PERSON_AND_ORGANIZATION_ROLE ( 'classification_officer' ) ;
#223 = EDGE_CURVE ( 'NONE', #128, #128, #67, .T. ) ;
#224 = DIRECTION ( 'NONE',  ( 0.0000000000000000000, 1.000000000000000000, 0.0000000000000000000 ) ) ;
#225 = APPROVAL_DATE_TIME ( #203, #69 ) ;
#226 = CARTESIAN_POINT ( 'NONE',  ( 0.0000000000000000000, 0.0000000000000000000, 0.0000000000000000000 ) ) ;
#227 = CONICAL_SURFACE ( 'NONE', #291, 1.344999999999998863, 0.7853981633974428389 ) ;
#228 = CARTESIAN_POINT ( 'NONE',  ( 2.129803616694311221E-13, 8.998558695971062171E-33, 61.00000000000000000 ) ) ;
#229 = ADVANCED_FACE ( 'NONE', ( #189, #276 ), #300, .T. ) ;
#230 = DIRECTION ( 'NONE',  ( -4.295754522796812586E-31, -1.000000000000000000, -1.209147404258928002E-16 ) ) ;
#231 = CARTESIAN_POINT ( 'NONE',  ( 8.728703347107833388E-14, -3.061616997868383831E-15, 25.00000000000000000 ) ) ;
#232 = SECURITY_CLASSIFICATION ( '', '', #41 ) ;
#233 = ORIENTED_EDGE ( 'NONE', *, *, #286, .T. ) ;
#234 = TOROIDAL_SURFACE ( 'NONE', #181, 3.124999999999999556, 2.000000000000000000 ) ;
#235 = DIRECTION ( 'NONE',  ( 0.0000000000000000000, 1.000000000000000000, 0.0000000000000000000 ) ) ;
#236 = VERTEX_POINT ( 'NONE', #214 ) ;
#237 = CC_DESIGN_PERSON_AND_ORGANIZATION_ASSIGNMENT ( #290, #198, ( #242 ) ) ;
#238 = PERSON ( 'UNSPECIFIED', 'UNSPECIFIED', 'UNSPECIFIED', ('UNSPECIFIED'), ('UNSPECIFIED'), ('UNSPECIFIED') ) ;
#239 = CC_DESIGN_SECURITY_CLASSIFICATION ( #232, ( #247 ) ) ;
#240 = DIRECTION ( 'NONE',  ( -3.491481338843133355E-15, 1.224646799147353454E-16, -1.000000000000000000 ) ) ;
#241 = APPROVAL ( #88, 'UNSPECIFIED' ) ;
#242 = PRODUCT ( '327095', '327095', '', ( #8 ) ) ;
#243 = DIRECTION ( 'NONE',  ( 1.000000000000000000, 0.0000000000000000000, 0.0000000000000000000 ) ) ;
#244 = CC_DESIGN_PERSON_AND_ORGANIZATION_ASSIGNMENT ( #162, #222, ( #232 ) ) ;
#245 = DATE_AND_TIME ( #150, #287 ) ;
#246 = ORIENTED_EDGE ( 'NONE', *, *, #140, .T. ) ;
#247 = PRODUCT_DEFINITION_FORMATION_WITH_SPECIFIED_SOURCE ( 'ANY', '', #242, .NOT_KNOWN. ) ;
#248 = CARTESIAN_POINT ( 'NONE',  ( 3.624524646439344177E-14, -1.271312109651250272E-15, 10.38105117766516017 ) ) ;
#249 = CARTESIAN_POINT ( 'NONE',  ( 9.532340403339405712E-14, 1.499999999999992673, 27.30170800940854647 ) ) ;
#250 = CC_DESIGN_PERSON_AND_ORGANIZATION_ASSIGNMENT ( #11, #173, ( #184 ) ) ;
#251 = DIRECTION ( 'NONE',  ( -3.491481338843133355E-15, 1.224646799147353454E-16, -1.000000000000000000 ) ) ;
#252 = CYLINDRICAL_SURFACE ( 'NONE', #260, 1.124999999999998890 ) ;
#253 = EDGE_LOOP ( 'NONE', ( #303 ) ) ;
#254 = DIRECTION ( 'NONE',  ( 3.491481338843133355E-15, -1.224646799147353454E-16, 1.000000000000000000 ) ) ;
#255 = VERTEX_POINT ( 'NONE', #50 ) ;
#256 =( NAMED_UNIT ( * ) PLANE_ANGLE_UNIT ( ) SI_UNIT ( $, .RADIAN. ) );
#257 = CIRCLE ( 'NONE', #168, 1.155384493975582405 ) ;
#258 = FACE_OUTER_BOUND ( 'NONE', #253, .T. ) ;
#259 = DIRECTION ( 'NONE',  ( 4.275831445896959482E-31, 1.000000000000000000, 1.224646799147353454E-16 ) ) ;
#260 = AXIS2_PLACEMENT_3D ( 'NONE', #185, #17, #212 ) ;
#261 = EDGE_CURVE ( 'NONE', #155, #155, #167, .T. ) ;
#262 = CALENDAR_DATE ( 2021, 2, 12 ) ;
#263 = MANIFOLD_SOLID_BREP ( 'Corps-Déplacer/Copier1[1]', #200 ) ;
#264 = MANIFOLD_SOLID_BREP ( 'Corps-Déplacer/Copier1[2]', #52 ) ;
#265 = FACE_OUTER_BOUND ( 'NONE', #127, .T. ) ;
#266 = PRODUCT_DEFINITION_SHAPE ( 'NONE', 'NONE',  #184 ) ;
#267 = APPROVAL_ROLE ( '' ) ;
#268 = CIRCLE ( 'NONE', #61, 1.499999999999996003 ) ;
#269 = CARTESIAN_POINT ( 'NONE',  ( 2.129803616694311221E-13, -7.470345474798856659E-15, 61.00000000000000000 ) ) ;
#270 = COORDINATED_UNIVERSAL_TIME_OFFSET ( 1, 0, .AHEAD. ) ;
#271 = CARTESIAN_POINT ( 'NONE',  ( 3.624524646439344177E-14, -1.271312109651250272E-15, 10.38105117766516017 ) ) ;
#272 = ADVANCED_FACE ( 'NONE', ( #301 ), #138, .F. ) ;
#273 = FACE_OUTER_BOUND ( 'NONE', #5, .T. ) ;
#274 = APPROVAL_DATE_TIME ( #18, #241 ) ;
#275 = DIRECTION ( 'NONE',  ( 0.0000000000000000000, 1.000000000000000000, 0.0000000000000000000 ) ) ;
#276 = FACE_BOUND ( 'NONE', #302, .T. ) ;
#277 = CARTESIAN_POINT ( 'NONE',  ( 8.728703347107835360E-16, 1.344999999999998863, 0.2500000000000000555 ) ) ;
#278 = DIRECTION ( 'NONE',  ( 3.491481338843133355E-15, -1.224646799147353454E-16, 1.000000000000000000 ) ) ;
#279 = ADVANCED_FACE ( 'NONE', ( #191, #110 ), #284, .T. ) ;
#280 = ORIENTED_EDGE ( 'NONE', *, *, #149, .F. ) ;
#281 = EDGE_CURVE ( 'NONE', #86, #86, #268, .T. ) ;
#282 = ORIENTED_EDGE ( 'NONE', *, *, #79, .T. ) ;
#283 = EDGE_LOOP ( 'NONE', ( #47 ) ) ;
#284 = CONICAL_SURFACE ( 'NONE', #153, 1.499999999999996003, 0.1745329251994253705 ) ;
#285 = VERTEX_POINT ( 'NONE', #29 ) ;
#286 = EDGE_CURVE ( 'NONE', #134, #134, #24, .T. ) ;
#287 = LOCAL_TIME ( 8, 11, 34.00000000000000000, #151 ) ;
#288 = AXIS2_PLACEMENT_3D ( 'NONE', #271, #158, #64 ) ;
#289 = DIRECTION ( 'NONE',  ( 0.0000000000000000000, 1.000000000000000000, 0.0000000000000000000 ) ) ;
#290 = PERSON_AND_ORGANIZATION ( #238, #109 ) ;
#291 = AXIS2_PLACEMENT_3D ( 'NONE', #163, #89, #230 ) ;
#292 = EDGE_LOOP ( 'NONE', ( #97 ) ) ;
#293 = ADVANCED_FACE ( 'NONE', ( #98, #121 ), #234, .F. ) ;
#294 = FACE_OUTER_BOUND ( 'NONE', #211, .T. ) ;
#295 = SHAPE_DEFINITION_REPRESENTATION ( #266, #58 ) ;
#296 = VERTEX_POINT ( 'NONE', #45 ) ;
#297 = DIRECTION ( 'NONE',  ( -3.491481338843133355E-15, 1.224646799147353454E-16, -1.000000000000000000 ) ) ;
#298 = CALENDAR_DATE ( 2021, 2, 12 ) ;
#299 = DIRECTION ( 'NONE',  ( -3.491481338843133355E-15, 1.224646799147353454E-16, -1.000000000000000000 ) ) ;
#300 = CONICAL_SURFACE ( 'NONE', #288, 1.124999999999998224, 0.5235987755982938197 ) ;
#301 = FACE_OUTER_BOUND ( 'NONE', #205, .T. ) ;
#302 = EDGE_LOOP ( 'NONE', ( #246 ) ) ;
#303 = ORIENTED_EDGE ( 'NONE', *, *, #261, .F. ) ;
ENDSEC;
END-ISO-10303-21;
