ISO-10303-21;
HEADER;
FILE_DESCRIPTION (( 'STEP AP203' ),
    '1' );
FILE_NAME ('327094.step',
    '2021-12-02T07:11:34',
    ( '' ),
    ( '' ),
    'SwSTEP 2.0',
    'SolidWorks 2019',
    '' );
FILE_SCHEMA (( 'CONFIG_CONTROL_DESIGN' ));
ENDSEC;

DATA;
#1 = AXIS2_PLACEMENT_3D ( 'NONE', #170, #168, #50 ) ;
#2 = EDGE_LOOP ( 'NONE', ( #62 ) ) ;
#3 = DIRECTION ( 'NONE',  ( 4.275831445896959482E-31, 1.000000000000000000, 1.224646799147353454E-16 ) ) ;
#4 = VERTEX_POINT ( 'NONE', #115 ) ;
#5 = APPLICATION_CONTEXT ( 'configuration controlled 3d designs of mechanical parts and assemblies' ) ;
#6 = DIRECTION ( 'NONE',  ( -3.491481338843133355E-15, 1.224646799147353454E-16, -1.000000000000000000 ) ) ;
#7 = APPROVAL_DATE_TIME ( #121, #11 ) ;
#8 = SECURITY_CLASSIFICATION ( '', '', #222 ) ;
#9 = DIRECTION ( 'NONE',  ( 4.275831445896959482E-31, 1.000000000000000000, 1.224646799147353454E-16 ) ) ;
#10 = CARTESIAN_POINT ( 'NONE',  ( 3.621500934903067303E-14, -1.270251534412525622E-15, 10.37239092362731796 ) ) ;
#11 = APPROVAL ( #252, 'UNSPECIFIED' ) ;
#12 = PERSON_AND_ORGANIZATION_ROLE ( 'design_supplier' ) ;
#13 = CLOSED_SHELL ( 'NONE', ( #108, #178, #172, #54, #263, #82, #164, #22 ) ) ;
#14 =( GEOMETRIC_REPRESENTATION_CONTEXT ( 3 ) GLOBAL_UNCERTAINTY_ASSIGNED_CONTEXT ( ( #109 ) ) GLOBAL_UNIT_ASSIGNED_CONTEXT ( ( #142, #284, #21 ) ) REPRESENTATION_CONTEXT ( 'NONE', 'WORKASPACE' ) );
#15 = COORDINATED_UNIVERSAL_TIME_OFFSET ( 1, 0, .AHEAD. ) ;
#16 = DIRECTION ( 'NONE',  ( -3.491481338843133355E-15, 1.224646799147353454E-16, -1.000000000000000000 ) ) ;
#17 = ADVANCED_BREP_SHAPE_REPRESENTATION ( '327094', ( #174, #67, #138 ), #14 ) ;
#18 = PLANE ( 'NONE',  #246 ) ;
#19 = DIRECTION ( 'NONE',  ( -4.275831445896959482E-31, -1.000000000000000000, -1.224646799147353454E-16 ) ) ;
#20 = DIRECTION ( 'NONE',  ( 4.275831445896959482E-31, 1.000000000000000000, 1.224646799147353454E-16 ) ) ;
#21 =( NAMED_UNIT ( * ) SI_UNIT ( $, .STERADIAN. ) SOLID_ANGLE_UNIT ( ) );
#22 = ADVANCED_FACE ( 'NONE', ( #254 ), #45, .F. ) ;
#23 = DIRECTION ( 'NONE',  ( -3.491481338843133355E-15, 1.224646799147353454E-16, -1.000000000000000000 ) ) ;
#24 = EDGE_LOOP ( 'NONE', ( #211 ) ) ;
#25 = VERTEX_POINT ( 'NONE', #158 ) ;
#26 = CIRCLE ( 'NONE', #1, 1.200000000000002842 ) ;
#27 = CARTESIAN_POINT ( 'NONE',  ( 1.135641495829896858E-30, 1.090000000000001634, 3.252606517456513302E-16 ) ) ;
#28 = CARTESIAN_POINT ( 'NONE',  ( 8.728703347107833388E-14, -3.061616997868383831E-15, 25.00000000000000000 ) ) ;
#29 = DIRECTION ( 'NONE',  ( -3.491481338843133355E-15, 1.224646799147353454E-16, -1.000000000000000000 ) ) ;
#30 = ADVANCED_FACE ( 'NONE', ( #145 ), #18, .T. ) ;
#31 = DIRECTION ( 'NONE',  ( 0.0000000000000000000, -1.000000000000000000, 0.0000000000000000000 ) ) ;
#32 = EDGE_CURVE ( 'NONE', #212, #212, #277, .T. ) ;
#33 = AXIS2_PLACEMENT_3D ( 'NONE', #197, #152, #242 ) ;
#34 = PERSON_AND_ORGANIZATION ( #269, #243 ) ;
#35 = ADVANCED_FACE ( 'NONE', ( #205, #84 ), #185, .T. ) ;
#36 = ORIENTED_EDGE ( 'NONE', *, *, #302, .T. ) ;
#37 = VERTEX_POINT ( 'NONE', #41 ) ;
#38 = PRODUCT_DEFINITION ( 'UNKNOWN', '', #253, #56 ) ;
#39 = CIRCLE ( 'NONE', #250, 1.339999999999998748 ) ;
#40 = EDGE_LOOP ( 'NONE', ( #64 ) ) ;
#41 = CARTESIAN_POINT ( 'NONE',  ( 9.532340403339405712E-14, 1.499999999999992673, 27.30170800940854647 ) ) ;
#42 = DIRECTION ( 'NONE',  ( 3.491481338843133355E-15, -1.224646799147353454E-16, 1.000000000000000000 ) ) ;
#43 = CARTESIAN_POINT ( 'NONE',  ( 3.621500934903067303E-14, 1.124999999999996891, 10.37239092362731796 ) ) ;
#44 = CARTESIAN_POINT ( 'NONE',  ( 3.347879341135638178E-31, -1.174277998693755677E-32, 9.588707531929480425E-17 ) ) ;
#45 = PLANE ( 'NONE',  #137 ) ;
#46 = DATE_AND_TIME ( #80, #154 ) ;
#47 = DIRECTION ( 'NONE',  ( -4.275831445896959482E-31, -1.000000000000000000, -1.224646799147353454E-16 ) ) ;
#48 = FACE_OUTER_BOUND ( 'NONE', #40, .T. ) ;
#49 = ADVANCED_FACE ( 'NONE', ( #112, #299 ), #297, .T. ) ;
#50 = DIRECTION ( 'NONE',  ( 0.0000000000000000000, 1.000000000000000000, 0.0000000000000000000 ) ) ;
#51 = CARTESIAN_POINT ( 'NONE',  ( 2.129803616694311221E-13, -7.470345474798856659E-15, 61.00000000000000000 ) ) ;
#52 = DATE_AND_TIME ( #71, #133 ) ;
#53 = FACE_OUTER_BOUND ( 'NONE', #24, .T. ) ;
#54 = ADVANCED_FACE ( 'NONE', ( #288, #48 ), #148, .F. ) ;
#55 = EDGE_CURVE ( 'NONE', #4, #4, #189, .T. ) ;
#56 = DESIGN_CONTEXT ( 'detailed design', #245, 'design' ) ;
#57 = CARTESIAN_POINT ( 'NONE',  ( 0.0000000000000000000, 0.0000000000000000000, 0.0000000000000000000 ) ) ;
#58 = FACE_OUTER_BOUND ( 'NONE', #81, .T. ) ;
#59 = DIRECTION ( 'NONE',  ( -3.491481338843133355E-15, 1.224646799147353454E-16, -1.000000000000000000 ) ) ;
#60 = APPLICATION_PROTOCOL_DEFINITION ( 'international standard', 'config_control_design', 1994, #245 ) ;
#61 = CLOSED_SHELL ( 'NONE', ( #296, #49, #35, #30 ) ) ;
#62 = ORIENTED_EDGE ( 'NONE', *, *, #74, .F. ) ;
#63 = CARTESIAN_POINT ( 'NONE',  ( 3.491481338843133355E-14, 1.339999999999998748, 10.00000000000000000 ) ) ;
#64 = ORIENTED_EDGE ( 'NONE', *, *, #74, .T. ) ;
#65 = CARTESIAN_POINT ( 'NONE',  ( 3.491481338843133355E-14, 1.339999999999998748, 10.00000000000000000 ) ) ;
#66 = EDGE_LOOP ( 'NONE', ( #278 ) ) ;
#67 = MANIFOLD_SOLID_BREP ( 'Corps-Déplacer/Copier1[2]', #61 ) ;
#68 = CIRCLE ( 'NONE', #167, 1.340000000000000080 ) ;
#69 = FACE_OUTER_BOUND ( 'NONE', #298, .T. ) ;
#70 = PRODUCT_DEFINITION_SHAPE ( 'NONE', 'NONE',  #38 ) ;
#71 = CALENDAR_DATE ( 2021, 2, 12 ) ;
#72 = DIRECTION ( 'NONE',  ( 0.0000000000000000000, 1.000000000000000000, 0.0000000000000000000 ) ) ;
#73 = DIRECTION ( 'NONE',  ( -3.491481338843133355E-15, 1.224646799147353454E-16, -1.000000000000000000 ) ) ;
#74 = EDGE_CURVE ( 'NONE', #25, #25, #184, .T. ) ;
#75 = APPROVAL_DATE_TIME ( #271, #202 ) ;
#76 = DIRECTION ( 'NONE',  ( 4.311783457583367641E-31, 1.000000000000000000, 1.213659148304670210E-16 ) ) ;
#77 = DATE_TIME_ROLE ( 'classification_date' ) ;
#78 = DIRECTION ( 'NONE',  ( 3.491481338843133355E-15, -1.224646799147353454E-16, 1.000000000000000000 ) ) ;
#79 = CALENDAR_DATE ( 2021, 2, 12 ) ;
#80 = CALENDAR_DATE ( 2021, 2, 12 ) ;
#81 = EDGE_LOOP ( 'NONE', ( #165 ) ) ;
#82 = ADVANCED_FACE ( 'NONE', ( #173, #69 ), #120, .T. ) ;
#83 = AXIS2_PLACEMENT_3D ( 'NONE', #149, #239, #126 ) ;
#84 = FACE_OUTER_BOUND ( 'NONE', #87, .T. ) ;
#85 = ORIENTED_EDGE ( 'NONE', *, *, #97, .T. ) ;
#86 = PERSON_AND_ORGANIZATION ( #269, #243 ) ;
#87 = EDGE_LOOP ( 'NONE', ( #210 ) ) ;
#88 = DIRECTION ( 'NONE',  ( 3.491481338843133355E-15, -1.224646799147353454E-16, 1.000000000000000000 ) ) ;
#89 = AXIS2_PLACEMENT_3D ( 'NONE', #44, #88, #19 ) ;
#90 = EDGE_LOOP ( 'NONE', ( #283 ) ) ;
#91 = COORDINATED_UNIVERSAL_TIME_OFFSET ( 1, 0, .AHEAD. ) ;
#92 = EDGE_CURVE ( 'NONE', #118, #118, #180, .T. ) ;
#93 = EDGE_LOOP ( 'NONE', ( #85 ) ) ;
#94 = CARTESIAN_POINT ( 'NONE',  ( 2.119329172677781757E-13, 1.499999999999995559, 60.69999999999999574 ) ) ;
#95 = DIRECTION ( 'NONE',  ( -4.311783457583367641E-31, -1.000000000000000000, -1.213659148304670210E-16 ) ) ;
#96 = PERSON_AND_ORGANIZATION ( #269, #243 ) ;
#97 = EDGE_CURVE ( 'NONE', #255, #255, #39, .T. ) ;
#98 = CC_DESIGN_APPROVAL ( #11, ( #38 ) ) ;
#99 = DIRECTION ( 'NONE',  ( 3.491481338843133355E-15, -1.224646799147353454E-16, 1.000000000000000000 ) ) ;
#100 = FACE_BOUND ( 'NONE', #251, .T. ) ;
#101 = COORDINATED_UNIVERSAL_TIME_OFFSET ( 1, 0, .AHEAD. ) ;
#102 = PLANE ( 'NONE',  #123 ) ;
#103 = CIRCLE ( 'NONE', #83, 1.499999999999996003 ) ;
#104 = APPROVAL_DATE_TIME ( #46, #256 ) ;
#105 = COORDINATED_UNIVERSAL_TIME_OFFSET ( 1, 0, .AHEAD. ) ;
#106 = AXIS2_PLACEMENT_3D ( 'NONE', #57, #157, #20 ) ;
#107 = LOCAL_TIME ( 8, 11, 34.00000000000000000, #91 ) ;
#108 = ADVANCED_FACE ( 'NONE', ( #285 ), #102, .F. ) ;
#109 = UNCERTAINTY_MEASURE_WITH_UNIT (LENGTH_MEASURE( 1.000000000000000082E-05 ), #142, 'distance_accuracy_value', 'NONE');
#110 = DIRECTION ( 'NONE',  ( 4.275831445896958607E-31, 1.000000000000000000, 1.224646799147353454E-16 ) ) ;
#111 = CONICAL_SURFACE ( 'NONE', #153, 1.499999999999996003, 0.1745329251994253705 ) ;
#112 = FACE_BOUND ( 'NONE', #136, .T. ) ;
#113 = APPLICATION_PROTOCOL_DEFINITION ( 'international standard', 'config_control_design', 1994, #5 ) ;
#114 = CARTESIAN_POINT ( 'NONE',  ( 8.728703347107829444E-16, -3.061616997868382402E-17, 0.2499999999999998890 ) ) ;
#115 = CARTESIAN_POINT ( 'NONE',  ( 8.728703347107833388E-14, 1.124999999999996669, 25.00000000000000000 ) ) ;
#116 = ORIENTED_EDGE ( 'NONE', *, *, #55, .T. ) ;
#117 = CC_DESIGN_PERSON_AND_ORGANIZATION_ASSIGNMENT ( #179, #131, ( #253 ) ) ;
#118 = VERTEX_POINT ( 'NONE', #94 ) ;
#119 = EDGE_LOOP ( 'NONE', ( #229 ) ) ;
#120 = CYLINDRICAL_SURFACE ( 'NONE', #132, 1.499999999999999334 ) ;
#121 = DATE_AND_TIME ( #192, #107 ) ;
#122 = FACE_OUTER_BOUND ( 'NONE', #230, .T. ) ;
#123 = AXIS2_PLACEMENT_3D ( 'NONE', #201, #99, #47 ) ;
#124 = DIRECTION ( 'NONE',  ( -3.491481338843133355E-15, 1.224646799147353454E-16, -1.000000000000000000 ) ) ;
#125 = CC_DESIGN_SECURITY_CLASSIFICATION ( #8, ( #253 ) ) ;
#126 = DIRECTION ( 'NONE',  ( 0.0000000000000000000, 1.000000000000000000, 0.0000000000000000000 ) ) ;
#127 = PERSON_AND_ORGANIZATION ( #269, #243 ) ;
#128 = CARTESIAN_POINT ( 'NONE',  ( 8.849961221477469775E-14, -3.104148534859897544E-15, 25.34729635533384595 ) ) ;
#129 = CC_DESIGN_PERSON_AND_ORGANIZATION_ASSIGNMENT ( #34, #200, ( #38 ) ) ;
#130 = CARTESIAN_POINT ( 'NONE',  ( 3.491481338843133355E-14, -1.224646799147353454E-15, 10.00000000000000000 ) ) ;
#131 = PERSON_AND_ORGANIZATION_ROLE ( 'creator' ) ;
#132 = AXIS2_PLACEMENT_3D ( 'NONE', #217, #171, #267 ) ;
#133 = LOCAL_TIME ( 8, 11, 34.00000000000000000, #262 ) ;
#134 = CC_DESIGN_DATE_AND_TIME_ASSIGNMENT ( #52, #286, ( #38 ) ) ;
#135 = MECHANICAL_CONTEXT ( 'NONE', #5, 'mechanical' ) ;
#136 = EDGE_LOOP ( 'NONE', ( #273 ) ) ;
#137 = AXIS2_PLACEMENT_3D ( 'NONE', #258, #59, #3 ) ;
#138 = AXIS2_PLACEMENT_3D ( 'NONE', #274, #249, #226 ) ;
#139 = CARTESIAN_POINT ( 'NONE',  ( 3.491481338843133355E-14, 1.004839054383443037E-32, 10.00000000000000000 ) ) ;
#140 = VERTEX_POINT ( 'NONE', #43 ) ;
#141 = EDGE_LOOP ( 'NONE', ( #281 ) ) ;
#142 =( LENGTH_UNIT ( ) NAMED_UNIT ( * ) SI_UNIT ( .MILLI., .METRE. ) );
#143 = CARTESIAN_POINT ( 'NONE',  ( 6.695758682271276356E-31, -2.348555997387511354E-32, 1.917741506385896085E-16 ) ) ;
#144 = PLANE ( 'NONE',  #89 ) ;
#145 = FACE_OUTER_BOUND ( 'NONE', #141, .T. ) ;
#146 = CARTESIAN_POINT ( 'NONE',  ( 8.728703347107833388E-14, -3.035766082959412415E-15, 25.00000000000000000 ) ) ;
#147 = DIRECTION ( 'NONE',  ( -3.491481338843133355E-15, 1.224646799147353454E-16, -1.000000000000000000 ) ) ;
#148 = TOROIDAL_SURFACE ( 'NONE', #266, 3.124999999999999556, 2.000000000000000000 ) ;
#149 = CARTESIAN_POINT ( 'NONE',  ( 9.532340403339405712E-14, -3.343494932497784210E-15, 27.30170800940854647 ) ) ;
#150 = EDGE_CURVE ( 'NONE', #163, #163, #26, .T. ) ;
#151 = CALENDAR_DATE ( 2021, 2, 12 ) ;
#152 = DIRECTION ( 'NONE',  ( -3.491481338843133355E-15, 1.224646799147353454E-16, -1.000000000000000000 ) ) ;
#153 = AXIS2_PLACEMENT_3D ( 'NONE', #220, #78, #31 ) ;
#154 = LOCAL_TIME ( 8, 11, 34.00000000000000000, #15 ) ;
#155 = AXIS2_PLACEMENT_3D ( 'NONE', #268, #6, #195 ) ;
#156 = APPROVAL_PERSON_ORGANIZATION ( #96, #202, #221 ) ;
#157 = DIRECTION ( 'NONE',  ( -3.491481338843133355E-15, 1.224646799147353454E-16, -1.000000000000000000 ) ) ;
#158 = CARTESIAN_POINT ( 'NONE',  ( 8.849961221477469775E-14, 1.155384493975579296, 25.34729635533384595 ) ) ;
#159 = EDGE_LOOP ( 'NONE', ( #161 ) ) ;
#160 = LOCAL_TIME ( 8, 11, 34.00000000000000000, #105 ) ;
#161 = ORIENTED_EDGE ( 'NONE', *, *, #92, .F. ) ;
#162 = ORIENTED_EDGE ( 'NONE', *, *, #150, .F. ) ;
#163 = VERTEX_POINT ( 'NONE', #187 ) ;
#164 = ADVANCED_FACE ( 'NONE', ( #264, #100 ), #287, .T. ) ;
#165 = ORIENTED_EDGE ( 'NONE', *, *, #32, .T. ) ;
#166 = AXIS2_PLACEMENT_3D ( 'NONE', #10, #73, #265 ) ;
#167 = AXIS2_PLACEMENT_3D ( 'NONE', #130, #16, #279 ) ;
#168 = DIRECTION ( 'NONE',  ( -3.491481338843133355E-15, 1.224646799147353454E-16, -1.000000000000000000 ) ) ;
#169 = APPROVAL_STATUS ( 'not_yet_approved' ) ;
#170 = CARTESIAN_POINT ( 'NONE',  ( 2.129803616694311221E-13, -7.470345474798856659E-15, 61.00000000000000000 ) ) ;
#171 = DIRECTION ( 'NONE',  ( -3.491481338843133355E-15, 1.224646799147353454E-16, -1.000000000000000000 ) ) ;
#172 = ADVANCED_FACE ( 'NONE', ( #176, #122 ), #214, .T. ) ;
#173 = FACE_OUTER_BOUND ( 'NONE', #66, .T. ) ;
#174 = MANIFOLD_SOLID_BREP ( 'Corps-Déplacer/Copier1[1]', #13 ) ;
#175 = PERSON_AND_ORGANIZATION ( #269, #243 ) ;
#176 = FACE_OUTER_BOUND ( 'NONE', #90, .T. ) ;
#177 = FACE_BOUND ( 'NONE', #2, .T. ) ;
#178 = ADVANCED_FACE ( 'NONE', ( #53, #233 ), #232, .T. ) ;
#179 = PERSON_AND_ORGANIZATION ( #269, #243 ) ;
#180 = CIRCLE ( 'NONE', #155, 1.500000000000002887 ) ;
#181 = CC_DESIGN_APPROVAL ( #256, ( #8 ) ) ;
#182 = PERSON_AND_ORGANIZATION_ROLE ( 'classification_officer' ) ;
#183 = PRODUCT_RELATED_PRODUCT_CATEGORY ( 'detail', '', ( #295 ) ) ;
#184 = CIRCLE ( 'NONE', #270, 1.155384493975582405 ) ;
#185 = CYLINDRICAL_SURFACE ( 'NONE', #106, 1.339999999999999414 ) ;
#186 = ORIENTED_EDGE ( 'NONE', *, *, #231, .T. ) ;
#187 = CARTESIAN_POINT ( 'NONE',  ( 2.129803616694311221E-13, 1.199999999999995515, 61.00000000000000000 ) ) ;
#188 = VERTEX_POINT ( 'NONE', #65 ) ;
#189 = CIRCLE ( 'NONE', #215, 1.124999999999999778 ) ;
#190 = LOCAL_TIME ( 8, 11, 34.00000000000000000, #101 ) ;
#191 = ORIENTED_EDGE ( 'NONE', *, *, #240, .T. ) ;
#192 = CALENDAR_DATE ( 2021, 2, 12 ) ;
#193 = EDGE_LOOP ( 'NONE', ( #275 ) ) ;
#194 = CARTESIAN_POINT ( 'NONE',  ( 8.728703347107835360E-16, 1.339999999999998748, 0.2500000000000000555 ) ) ;
#195 = DIRECTION ( 'NONE',  ( 0.0000000000000000000, 1.000000000000000000, 0.0000000000000000000 ) ) ;
#196 = DIRECTION ( 'NONE',  ( 0.0000000000000000000, 1.000000000000000000, 0.0000000000000000000 ) ) ;
#197 = CARTESIAN_POINT ( 'NONE',  ( 3.491481338843133355E-14, -1.224646799147353454E-15, 10.00000000000000000 ) ) ;
#198 = AXIS2_PLACEMENT_3D ( 'NONE', #237, #29, #9 ) ;
#199 = APPROVAL_PERSON_ORGANIZATION ( #86, #11, #209 ) ;
#200 = PERSON_AND_ORGANIZATION_ROLE ( 'creator' ) ;
#201 = CARTESIAN_POINT ( 'NONE',  ( 3.491481338843133355E-14, 1.004839054383443037E-32, 10.00000000000000000 ) ) ;
#202 = APPROVAL ( #169, 'UNSPECIFIED' ) ;
#203 = FACE_OUTER_BOUND ( 'NONE', #248, .T. ) ;
#204 = DATE_AND_TIME ( #151, #190 ) ;
#205 = FACE_OUTER_BOUND ( 'NONE', #119, .T. ) ;
#206 = EDGE_LOOP ( 'NONE', ( #162 ) ) ;
#207 = PERSON_AND_ORGANIZATION ( #269, #243 ) ;
#208 = EDGE_LOOP ( 'NONE', ( #191 ) ) ;
#209 = APPROVAL_ROLE ( '' ) ;
#210 = ORIENTED_EDGE ( 'NONE', *, *, #280, .T. ) ;
#211 = ORIENTED_EDGE ( 'NONE', *, *, #240, .F. ) ;
#212 = VERTEX_POINT ( 'NONE', #27 ) ;
#213 = DIRECTION ( 'NONE',  ( 4.275831445896959482E-31, 1.000000000000000000, 1.224646799147353454E-16 ) ) ;
#214 = CYLINDRICAL_SURFACE ( 'NONE', #198, 1.124999999999998890 ) ;
#215 = AXIS2_PLACEMENT_3D ( 'NONE', #28, #235, #72 ) ;
#216 = APPROVAL_PERSON_ORGANIZATION ( #175, #256, #241 ) ;
#217 = CARTESIAN_POINT ( 'NONE',  ( 0.0000000000000000000, 0.0000000000000000000, 0.0000000000000000000 ) ) ;
#218 = DIRECTION ( 'NONE',  ( -3.491481338843133355E-15, 1.224646799147353454E-16, -1.000000000000000000 ) ) ;
#219 = AXIS2_PLACEMENT_3D ( 'NONE', #51, #147, #293 ) ;
#220 = CARTESIAN_POINT ( 'NONE',  ( 9.532340403339405712E-14, -3.343494932497784210E-15, 27.30170800940854647 ) ) ;
#221 = APPROVAL_ROLE ( '' ) ;
#222 = SECURITY_CLASSIFICATION_LEVEL ( 'unclassified' ) ;
#223 = ORIENTED_EDGE ( 'NONE', *, *, #150, .T. ) ;
#224 = CC_DESIGN_PERSON_AND_ORGANIZATION_ASSIGNMENT ( #292, #182, ( #8 ) ) ;
#225 = EDGE_LOOP ( 'NONE', ( #36 ) ) ;
#226 = DIRECTION ( 'NONE',  ( 1.000000000000000000, 0.0000000000000000000, 0.0000000000000000000 ) ) ;
#227 = CIRCLE ( 'NONE', #291, 1.124999999999998224 ) ;
#228 = ORIENTED_EDGE ( 'NONE', *, *, #92, .T. ) ;
#229 = ORIENTED_EDGE ( 'NONE', *, *, #97, .F. ) ;
#230 = EDGE_LOOP ( 'NONE', ( #116 ) ) ;
#231 = EDGE_CURVE ( 'NONE', #37, #37, #103, .T. ) ;
#232 = CONICAL_SURFACE ( 'NONE', #166, 1.124999999999998224, 0.5235987755982925984 ) ;
#233 = FACE_BOUND ( 'NONE', #225, .T. ) ;
#234 = SHAPE_DEFINITION_REPRESENTATION ( #70, #17 ) ;
#235 = DIRECTION ( 'NONE',  ( -3.491481338843133355E-15, 1.224646799147353454E-16, -1.000000000000000000 ) ) ;
#236 = CC_DESIGN_DATE_AND_TIME_ASSIGNMENT ( #204, #77, ( #8 ) ) ;
#237 = CARTESIAN_POINT ( 'NONE',  ( 0.0000000000000000000, 0.0000000000000000000, 0.0000000000000000000 ) ) ;
#238 = AXIS2_PLACEMENT_3D ( 'NONE', #143, #23, #110 ) ;
#239 = DIRECTION ( 'NONE',  ( -3.491481338843133355E-15, 1.224646799147353454E-16, -1.000000000000000000 ) ) ;
#240 = EDGE_CURVE ( 'NONE', #259, #259, #260, .T. ) ;
#241 = APPROVAL_ROLE ( '' ) ;
#242 = DIRECTION ( 'NONE',  ( 0.0000000000000000000, 1.000000000000000000, 0.0000000000000000000 ) ) ;
#243 = ORGANIZATION ( 'UNSPECIFIED', 'UNSPECIFIED', '' ) ;
#244 = CC_DESIGN_PERSON_AND_ORGANIZATION_ASSIGNMENT ( #207, #300, ( #295 ) ) ;
#245 = APPLICATION_CONTEXT ( 'configuration controlled 3d designs of mechanical parts and assemblies' ) ;
#246 = AXIS2_PLACEMENT_3D ( 'NONE', #139, #42, #257 ) ;
#247 = CC_DESIGN_APPROVAL ( #202, ( #253 ) ) ;
#248 = EDGE_LOOP ( 'NONE', ( #186 ) ) ;
#249 = DIRECTION ( 'NONE',  ( 0.0000000000000000000, 0.0000000000000000000, 1.000000000000000000 ) ) ;
#250 = AXIS2_PLACEMENT_3D ( 'NONE', #261, #124, #76 ) ;
#251 = EDGE_LOOP ( 'NONE', ( #223 ) ) ;
#252 = APPROVAL_STATUS ( 'not_yet_approved' ) ;
#253 = PRODUCT_DEFINITION_FORMATION_WITH_SPECIFIED_SOURCE ( 'ANY', '', #295, .NOT_KNOWN. ) ;
#254 = FACE_OUTER_BOUND ( 'NONE', #206, .T. ) ;
#255 = VERTEX_POINT ( 'NONE', #194 ) ;
#256 = APPROVAL ( #294, 'UNSPECIFIED' ) ;
#257 = DIRECTION ( 'NONE',  ( -4.275831445896959482E-31, -1.000000000000000000, -1.224646799147353454E-16 ) ) ;
#258 = CARTESIAN_POINT ( 'NONE',  ( 2.129803616694311221E-13, 8.998558695971062171E-33, 61.00000000000000000 ) ) ;
#259 = VERTEX_POINT ( 'NONE', #63 ) ;
#260 = CIRCLE ( 'NONE', #33, 1.340000000000000080 ) ;
#261 = CARTESIAN_POINT ( 'NONE',  ( 8.728703347107829444E-16, -3.061616997868382402E-17, 0.2499999999999998890 ) ) ;
#262 = COORDINATED_UNIVERSAL_TIME_OFFSET ( 1, 0, .AHEAD. ) ;
#263 = ADVANCED_FACE ( 'NONE', ( #177, #203 ), #111, .T. ) ;
#264 = FACE_OUTER_BOUND ( 'NONE', #159, .T. ) ;
#265 = DIRECTION ( 'NONE',  ( 0.0000000000000000000, 1.000000000000000000, 0.0000000000000000000 ) ) ;
#266 = AXIS2_PLACEMENT_3D ( 'NONE', #146, #289, #213 ) ;
#267 = DIRECTION ( 'NONE',  ( 4.275831445896960358E-31, 1.000000000000000000, 1.224646799147353454E-16 ) ) ;
#268 = CARTESIAN_POINT ( 'NONE',  ( 2.119329172677781757E-13, -7.433606070824434221E-15, 60.69999999999999574 ) ) ;
#269 = PERSON ( 'UNSPECIFIED', 'UNSPECIFIED', 'UNSPECIFIED', ('UNSPECIFIED'), ('UNSPECIFIED'), ('UNSPECIFIED') ) ;
#270 = AXIS2_PLACEMENT_3D ( 'NONE', #128, #218, #196 ) ;
#271 = DATE_AND_TIME ( #79, #160 ) ;
#272 = CC_DESIGN_PERSON_AND_ORGANIZATION_ASSIGNMENT ( #127, #12, ( #253 ) ) ;
#273 = ORIENTED_EDGE ( 'NONE', *, *, #32, .F. ) ;
#274 = CARTESIAN_POINT ( 'NONE',  ( 0.0000000000000000000, 0.0000000000000000000, 0.0000000000000000000 ) ) ;
#275 = ORIENTED_EDGE ( 'NONE', *, *, #55, .F. ) ;
#276 = CARTESIAN_POINT ( 'NONE',  ( 3.621500934903067303E-14, -1.270251534412525622E-15, 10.37239092362731796 ) ) ;
#277 = CIRCLE ( 'NONE', #238, 1.090000000000001634 ) ;
#278 = ORIENTED_EDGE ( 'NONE', *, *, #231, .F. ) ;
#279 = DIRECTION ( 'NONE',  ( 0.0000000000000000000, 1.000000000000000000, 0.0000000000000000000 ) ) ;
#280 = EDGE_CURVE ( 'NONE', #188, #188, #68, .T. ) ;
#281 = ORIENTED_EDGE ( 'NONE', *, *, #280, .F. ) ;
#282 = DIRECTION ( 'NONE',  ( 0.0000000000000000000, 1.000000000000000000, 0.0000000000000000000 ) ) ;
#283 = ORIENTED_EDGE ( 'NONE', *, *, #302, .F. ) ;
#284 =( NAMED_UNIT ( * ) PLANE_ANGLE_UNIT ( ) SI_UNIT ( $, .RADIAN. ) );
#285 = FACE_OUTER_BOUND ( 'NONE', #208, .T. ) ;
#286 = DATE_TIME_ROLE ( 'creation_date' ) ;
#287 = CONICAL_SURFACE ( 'NONE', #219, 1.200000000000002842, 0.7853981633974453924 ) ;
#288 = FACE_OUTER_BOUND ( 'NONE', #193, .T. ) ;
#289 = DIRECTION ( 'NONE',  ( -3.491481338843133355E-15, 1.224646799147353454E-16, -1.000000000000000000 ) ) ;
#290 = AXIS2_PLACEMENT_3D ( 'NONE', #114, #301, #95 ) ;
#291 = AXIS2_PLACEMENT_3D ( 'NONE', #276, #303, #282 ) ;
#292 = PERSON_AND_ORGANIZATION ( #269, #243 ) ;
#293 = DIRECTION ( 'NONE',  ( 0.0000000000000000000, 1.000000000000000000, 0.0000000000000000000 ) ) ;
#294 = APPROVAL_STATUS ( 'not_yet_approved' ) ;
#295 = PRODUCT ( '327094', '327094', '', ( #135 ) ) ;
#296 = ADVANCED_FACE ( 'NONE', ( #58 ), #144, .F. ) ;
#297 = CONICAL_SURFACE ( 'NONE', #290, 1.339999999999998748, 0.7853981633974432830 ) ;
#298 = EDGE_LOOP ( 'NONE', ( #228 ) ) ;
#299 = FACE_OUTER_BOUND ( 'NONE', #93, .T. ) ;
#300 = PERSON_AND_ORGANIZATION_ROLE ( 'design_owner' ) ;
#301 = DIRECTION ( 'NONE',  ( 3.491481338843133355E-15, -1.224646799147353454E-16, 1.000000000000000000 ) ) ;
#302 = EDGE_CURVE ( 'NONE', #140, #140, #227, .T. ) ;
#303 = DIRECTION ( 'NONE',  ( -3.491481338843133355E-15, 1.224646799147353454E-16, -1.000000000000000000 ) ) ;
ENDSEC;
END-ISO-10303-21;
