ISO-10303-21;
HEADER;
FILE_DESCRIPTION (( 'STEP AP203' ),
    '1' );
FILE_NAME ('327093.step',
    '2021-12-02T07:11:33',
    ( '' ),
    ( '' ),
    'SwSTEP 2.0',
    'SolidWorks 2019',
    '' );
FILE_SCHEMA (( 'CONFIG_CONTROL_DESIGN' ));
ENDSEC;

DATA;
#1 = CIRCLE ( 'NONE', #220, 1.499999999999996003 ) ;
#2 = EDGE_LOOP ( 'NONE', ( #88 ) ) ;
#3 = DATE_AND_TIME ( #282, #106 ) ;
#4 = DIRECTION ( 'NONE',  ( 3.491481338843133355E-15, -1.224646799147353454E-16, 1.000000000000000000 ) ) ;
#5 = CARTESIAN_POINT ( 'NONE',  ( 2.119329172677781757E-13, 1.499999999999995559, 60.69999999999999574 ) ) ;
#6 = DIRECTION ( 'NONE',  ( -3.491481338843133355E-15, 1.224646799147353454E-16, -1.000000000000000000 ) ) ;
#7 = COORDINATED_UNIVERSAL_TIME_OFFSET ( 1, 0, .AHEAD. ) ;
#8 = CARTESIAN_POINT ( 'NONE',  ( 0.0000000000000000000, 0.0000000000000000000, 0.0000000000000000000 ) ) ;
#9 = DIRECTION ( 'NONE',  ( -3.491481338843133355E-15, 1.224646799147353454E-16, -1.000000000000000000 ) ) ;
#10 = CC_DESIGN_DATE_AND_TIME_ASSIGNMENT ( #154, #228, ( #78 ) ) ;
#11 = CIRCLE ( 'NONE', #183, 1.155384493975582405 ) ;
#12 = CC_DESIGN_APPROVAL ( #230, ( #86 ) ) ;
#13 = CYLINDRICAL_SURFACE ( 'NONE', #24, 1.329999999999999405 ) ;
#14 = ADVANCED_FACE ( 'NONE', ( #274 ), #71, .T. ) ;
#15 = LOCAL_TIME ( 8, 11, 33.00000000000000000, #287 ) ;
#16 = DIRECTION ( 'NONE',  ( -3.491481338843133355E-15, 1.224646799147353454E-16, -1.000000000000000000 ) ) ;
#17 = DIRECTION ( 'NONE',  ( -3.491481338843133355E-15, 1.224646799147353454E-16, -1.000000000000000000 ) ) ;
#18 = ORIENTED_EDGE ( 'NONE', *, *, #35, .F. ) ;
#19 = ADVANCED_FACE ( 'NONE', ( #46, #93 ), #33, .T. ) ;
#20 = CARTESIAN_POINT ( 'NONE',  ( 2.129803616694311221E-13, -7.470345474798856659E-15, 61.00000000000000000 ) ) ;
#21 = PERSON_AND_ORGANIZATION_ROLE ( 'design_owner' ) ;
#22 = ORIENTED_EDGE ( 'NONE', *, *, #213, .F. ) ;
#23 = AXIS2_PLACEMENT_3D ( 'NONE', #76, #201, #130 ) ;
#24 = AXIS2_PLACEMENT_3D ( 'NONE', #203, #42, #25 ) ;
#25 = DIRECTION ( 'NONE',  ( 4.275831445896959482E-31, 1.000000000000000000, 1.224646799147353207E-16 ) ) ;
#26 = DIRECTION ( 'NONE',  ( -3.491481338843133355E-15, 1.224646799147353454E-16, -1.000000000000000000 ) ) ;
#27 = FACE_OUTER_BOUND ( 'NONE', #270, .T. ) ;
#28 = EDGE_CURVE ( 'NONE', #193, #193, #181, .T. ) ;
#29 = DIRECTION ( 'NONE',  ( 4.275831445896959482E-31, 1.000000000000000000, 1.224646799147353454E-16 ) ) ;
#30 = FACE_OUTER_BOUND ( 'NONE', #162, .T. ) ;
#31 = CC_DESIGN_PERSON_AND_ORGANIZATION_ASSIGNMENT ( #81, #32, ( #78 ) ) ;
#32 = PERSON_AND_ORGANIZATION_ROLE ( 'creator' ) ;
#33 = CONICAL_SURFACE ( 'NONE', #259, 1.329999999999998739, 0.7853981633974432830 ) ;
#34 = APPROVAL_PERSON_ORGANIZATION ( #182, #230, #180 ) ;
#35 = EDGE_CURVE ( 'NONE', #232, #232, #150, .T. ) ;
#36 = PERSON ( 'UNSPECIFIED', 'UNSPECIFIED', 'UNSPECIFIED', ('UNSPECIFIED'), ('UNSPECIFIED'), ('UNSPECIFIED') ) ;
#37 = EDGE_LOOP ( 'NONE', ( #147 ) ) ;
#38 = AXIS2_PLACEMENT_3D ( 'NONE', #266, #9, #29 ) ;
#39 = EDGE_LOOP ( 'NONE', ( #142 ) ) ;
#40 = VERTEX_POINT ( 'NONE', #191 ) ;
#41 = ORIENTED_EDGE ( 'NONE', *, *, #62, .F. ) ;
#42 = DIRECTION ( 'NONE',  ( -3.491481338843133355E-15, 1.224646799147353454E-16, -1.000000000000000000 ) ) ;
#43 = ADVANCED_FACE ( 'NONE', ( #256 ), #236, .F. ) ;
#44 = ORIENTED_EDGE ( 'NONE', *, *, #175, .T. ) ;
#45 = FACE_BOUND ( 'NONE', #37, .T. ) ;
#46 = FACE_BOUND ( 'NONE', #145, .T. ) ;
#47 = SHAPE_DEFINITION_REPRESENTATION ( #218, #144 ) ;
#48 = FACE_OUTER_BOUND ( 'NONE', #169, .T. ) ;
#49 = DIRECTION ( 'NONE',  ( 0.0000000000000000000, 1.000000000000000000, 0.0000000000000000000 ) ) ;
#50 = DIRECTION ( 'NONE',  ( -3.491481338843133355E-15, 1.224646799147353454E-16, -1.000000000000000000 ) ) ;
#51 = CIRCLE ( 'NONE', #110, 1.500000000000002887 ) ;
#52 = DIRECTION ( 'NONE',  ( 0.0000000000000000000, 1.000000000000000000, 0.0000000000000000000 ) ) ;
#53 = DATE_TIME_ROLE ( 'classification_date' ) ;
#54 = PLANE ( 'NONE',  #23 ) ;
#55 = CALENDAR_DATE ( 2021, 2, 12 ) ;
#56 = CC_DESIGN_PERSON_AND_ORGANIZATION_ASSIGNMENT ( #83, #227, ( #125 ) ) ;
#57 = EDGE_LOOP ( 'NONE', ( #298 ) ) ;
#58 = CIRCLE ( 'NONE', #115, 1.330000000000000071 ) ;
#59 = APPROVAL_PERSON_ORGANIZATION ( #210, #271, #94 ) ;
#60 = DESIGN_CONTEXT ( 'detailed design', #77, 'design' ) ;
#61 = EDGE_LOOP ( 'NONE', ( #205 ) ) ;
#62 = EDGE_CURVE ( 'NONE', #40, #40, #58, .T. ) ;
#63 = VERTEX_POINT ( 'NONE', #146 ) ;
#64 = CARTESIAN_POINT ( 'NONE',  ( 8.728703347107829444E-16, -3.061616997868382402E-17, 0.2499999999999998890 ) ) ;
#65 = DIRECTION ( 'NONE',  ( 1.000000000000000000, 0.0000000000000000000, 0.0000000000000000000 ) ) ;
#66 = AXIS2_PLACEMENT_3D ( 'NONE', #190, #252, #117 ) ;
#67 = ORGANIZATION ( 'UNSPECIFIED', 'UNSPECIFIED', '' ) ;
#68 = CARTESIAN_POINT ( 'NONE',  ( 3.491481338843133355E-14, 9.973402554701336944E-33, 10.00000000000000000 ) ) ;
#69 = ORIENTED_EDGE ( 'NONE', *, *, #246, .F. ) ;
#70 = APPROVAL_DATE_TIME ( #3, #271 ) ;
#71 = PLANE ( 'NONE',  #291 ) ;
#72 = FACE_OUTER_BOUND ( 'NONE', #184, .T. ) ;
#73 = CALENDAR_DATE ( 2021, 2, 12 ) ;
#74 = FACE_OUTER_BOUND ( 'NONE', #2, .T. ) ;
#75 = ADVANCED_FACE ( 'NONE', ( #300, #135 ), #139, .T. ) ;
#76 = CARTESIAN_POINT ( 'NONE',  ( 3.369258498365122892E-31, -1.181776797607065157E-32, 9.649939871886849183E-17 ) ) ;
#77 = APPLICATION_CONTEXT ( 'configuration controlled 3d designs of mechanical parts and assemblies' ) ;
#78 = PRODUCT_DEFINITION ( 'UNKNOWN', '', #125, #60 ) ;
#79 = APPROVAL_STATUS ( 'not_yet_approved' ) ;
#80 = CYLINDRICAL_SURFACE ( 'NONE', #189, 1.499999999999999334 ) ;
#81 = PERSON_AND_ORGANIZATION ( #36, #67 ) ;
#82 = DIRECTION ( 'NONE',  ( 3.491481338843133355E-15, -1.224646799147353454E-16, 1.000000000000000000 ) ) ;
#83 = PERSON_AND_ORGANIZATION ( #36, #67 ) ;
#84 = CALENDAR_DATE ( 2021, 2, 12 ) ;
#85 = ADVANCED_FACE ( 'NONE', ( #97, #74 ), #238, .F. ) ;
#86 = SECURITY_CLASSIFICATION ( '', '', #134 ) ;
#87 = EDGE_CURVE ( 'NONE', #96, #96, #248, .T. ) ;
#88 = ORIENTED_EDGE ( 'NONE', *, *, #246, .T. ) ;
#89 =( LENGTH_UNIT ( ) NAMED_UNIT ( * ) SI_UNIT ( .MILLI., .METRE. ) );
#90 = EDGE_LOOP ( 'NONE', ( #22 ) ) ;
#91 = CARTESIAN_POINT ( 'NONE',  ( 0.0000000000000000000, 0.0000000000000000000, 0.0000000000000000000 ) ) ;
#92 = EDGE_LOOP ( 'NONE', ( #186 ) ) ;
#93 = FACE_OUTER_BOUND ( 'NONE', #208, .T. ) ;
#94 = APPROVAL_ROLE ( '' ) ;
#95 = CARTESIAN_POINT ( 'NONE',  ( 3.491481338843133355E-14, -1.224646799147353454E-15, 10.00000000000000000 ) ) ;
#96 = VERTEX_POINT ( 'NONE', #170 ) ;
#97 = FACE_OUTER_BOUND ( 'NONE', #209, .T. ) ;
#98 = COORDINATED_UNIVERSAL_TIME_OFFSET ( 1, 0, .AHEAD. ) ;
#99 = AXIS2_PLACEMENT_3D ( 'NONE', #253, #17, #187 ) ;
#100 = DIRECTION ( 'NONE',  ( -3.491481338843133355E-15, 1.224646799147353454E-16, -1.000000000000000000 ) ) ;
#101 = CARTESIAN_POINT ( 'NONE',  ( 2.119329172677781757E-13, -7.433606070824434221E-15, 60.69999999999999574 ) ) ;
#102 = EDGE_CURVE ( 'NONE', #207, #207, #288, .T. ) ;
#103 = DATE_AND_TIME ( #73, #163 ) ;
#104 = FACE_OUTER_BOUND ( 'NONE', #57, .T. ) ;
#105 = AXIS2_PLACEMENT_3D ( 'NONE', #240, #6, #242 ) ;
#106 = LOCAL_TIME ( 8, 11, 33.00000000000000000, #123 ) ;
#107 = APPROVAL_STATUS ( 'not_yet_approved' ) ;
#108 = PERSON_AND_ORGANIZATION_ROLE ( 'classification_officer' ) ;
#109 = PERSON_AND_ORGANIZATION ( #36, #67 ) ;
#110 = AXIS2_PLACEMENT_3D ( 'NONE', #101, #262, #223 ) ;
#111 = ADVANCED_FACE ( 'NONE', ( #194 ), #54, .F. ) ;
#112 = UNCERTAINTY_MEASURE_WITH_UNIT (LENGTH_MEASURE( 1.000000000000000082E-05 ), #89, 'distance_accuracy_value', 'NONE');
#113 = DIRECTION ( 'NONE',  ( 0.0000000000000000000, 1.000000000000000000, 0.0000000000000000000 ) ) ;
#114 = CARTESIAN_POINT ( 'NONE',  ( 8.728703347107833388E-14, 1.124999999999996669, 25.00000000000000000 ) ) ;
#115 = AXIS2_PLACEMENT_3D ( 'NONE', #95, #231, #113 ) ;
#116 = MANIFOLD_SOLID_BREP ( 'Corps-Déplacer/Copier1[1]', #224 ) ;
#117 = DIRECTION ( 'NONE',  ( 0.0000000000000000000, 1.000000000000000000, 0.0000000000000000000 ) ) ;
#118 = MANIFOLD_SOLID_BREP ( 'Corps-Déplacer/Copier1[2]', #124 ) ;
#119 = ORIENTED_EDGE ( 'NONE', *, *, #136, .T. ) ;
#120 = APPLICATION_PROTOCOL_DEFINITION ( 'international standard', 'config_control_design', 1994, #77 ) ;
#121 = ORIENTED_EDGE ( 'NONE', *, *, #229, .F. ) ;
#122 = CC_DESIGN_PERSON_AND_ORGANIZATION_ASSIGNMENT ( #212, #21, ( #290 ) ) ;
#123 = COORDINATED_UNIVERSAL_TIME_OFFSET ( 1, 0, .AHEAD. ) ;
#124 = CLOSED_SHELL ( 'NONE', ( #111, #19, #280, #14 ) ) ;
#125 = PRODUCT_DEFINITION_FORMATION_WITH_SPECIFIED_SOURCE ( 'ANY', '', #290, .NOT_KNOWN. ) ;
#126 = ORIENTED_EDGE ( 'NONE', *, *, #62, .T. ) ;
#127 = CARTESIAN_POINT ( 'NONE',  ( 8.728703347107835360E-16, 1.329999999999998739, 0.2500000000000000555 ) ) ;
#128 = DIRECTION ( 'NONE',  ( -3.491481338843133355E-15, 1.224646799147353454E-16, -1.000000000000000000 ) ) ;
#129 = PERSON_AND_ORGANIZATION ( #36, #67 ) ;
#130 = DIRECTION ( 'NONE',  ( -4.275831445896959482E-31, -1.000000000000000000, -1.224646799147353454E-16 ) ) ;
#131 = AXIS2_PLACEMENT_3D ( 'NONE', #245, #128, #286 ) ;
#132 = PLANE ( 'NONE',  #131 ) ;
#133 = DIRECTION ( 'NONE',  ( -3.491481338843133355E-15, 1.224646799147353454E-16, -1.000000000000000000 ) ) ;
#134 = SECURITY_CLASSIFICATION_LEVEL ( 'unclassified' ) ;
#135 = FACE_BOUND ( 'NONE', #92, .T. ) ;
#136 = EDGE_CURVE ( 'NONE', #216, #216, #51, .T. ) ;
#137 = DIRECTION ( 'NONE',  ( -3.491481338843133355E-15, 1.224646799147353454E-16, -1.000000000000000000 ) ) ;
#138 = APPROVAL_ROLE ( '' ) ;
#139 = CONICAL_SURFACE ( 'NONE', #206, 1.200000000000002842, 0.7853981633974453924 ) ;
#140 = VERTEX_POINT ( 'NONE', #301 ) ;
#141 = EDGE_LOOP ( 'NONE', ( #41 ) ) ;
#142 = ORIENTED_EDGE ( 'NONE', *, *, #102, .F. ) ;
#143 = CARTESIAN_POINT ( 'NONE',  ( 9.532340403339405712E-14, 1.499999999999992673, 27.30170800940854647 ) ) ;
#144 = ADVANCED_BREP_SHAPE_REPRESENTATION ( '327093', ( #116, #118, #296 ), #155 ) ;
#145 = EDGE_LOOP ( 'NONE', ( #121 ) ) ;
#146 = CARTESIAN_POINT ( 'NONE',  ( 3.491481338843133355E-14, 1.329999999999998739, 10.00000000000000000 ) ) ;
#147 = ORIENTED_EDGE ( 'NONE', *, *, #87, .T. ) ;
#148 = CARTESIAN_POINT ( 'NONE',  ( 9.532340403339405712E-14, -3.343494932497784210E-15, 27.30170800940854647 ) ) ;
#149 = DIRECTION ( 'NONE',  ( 4.344202882076475833E-31, 1.000000000000000000, 1.222784405058840709E-16 ) ) ;
#150 = CIRCLE ( 'NONE', #243, 1.200000000000002842 ) ;
#151 = CARTESIAN_POINT ( 'NONE',  ( 3.491481338843133355E-14, -1.224646799147353454E-15, 10.00000000000000000 ) ) ;
#152 = CALENDAR_DATE ( 2021, 2, 12 ) ;
#153 = DIRECTION ( 'NONE',  ( 0.0000000000000000000, 1.000000000000000000, 0.0000000000000000000 ) ) ;
#154 = DATE_AND_TIME ( #55, #15 ) ;
#155 =( GEOMETRIC_REPRESENTATION_CONTEXT ( 3 ) GLOBAL_UNCERTAINTY_ASSIGNED_CONTEXT ( ( #112 ) ) GLOBAL_UNIT_ASSIGNED_CONTEXT ( ( #89, #185, #284 ) ) REPRESENTATION_CONTEXT ( 'NONE', 'WORKASPACE' ) );
#156 = ADVANCED_FACE ( 'NONE', ( #72, #48 ), #197, .T. ) ;
#157 = ORIENTED_EDGE ( 'NONE', *, *, #136, .F. ) ;
#158 = AXIS2_PLACEMENT_3D ( 'NONE', #294, #195, #149 ) ;
#159 = APPROVAL_PERSON_ORGANIZATION ( #129, #261, #138 ) ;
#160 = CARTESIAN_POINT ( 'NONE',  ( 3.491481338843133355E-14, 9.973402554701336944E-33, 10.00000000000000000 ) ) ;
#161 = CARTESIAN_POINT ( 'NONE',  ( 2.129803616694311221E-13, 1.199999999999995515, 61.00000000000000000 ) ) ;
#162 = EDGE_LOOP ( 'NONE', ( #126 ) ) ;
#163 = LOCAL_TIME ( 8, 11, 33.00000000000000000, #204 ) ;
#164 = CC_DESIGN_APPROVAL ( #261, ( #125 ) ) ;
#165 = DIRECTION ( 'NONE',  ( 3.491481338843133355E-15, -1.224646799147353454E-16, 1.000000000000000000 ) ) ;
#166 = DIRECTION ( 'NONE',  ( 0.0000000000000000000, 1.000000000000000000, 0.0000000000000000000 ) ) ;
#167 = APPLICATION_PROTOCOL_DEFINITION ( 'international standard', 'config_control_design', 1994, #295 ) ;
#168 = CC_DESIGN_PERSON_AND_ORGANIZATION_ASSIGNMENT ( #177, #108, ( #86 ) ) ;
#169 = EDGE_LOOP ( 'NONE', ( #233 ) ) ;
#170 = CARTESIAN_POINT ( 'NONE',  ( 3.615453511830512295E-14, 1.124999999999996891, 10.35507041555162822 ) ) ;
#171 = AXIS2_PLACEMENT_3D ( 'NONE', #222, #260, #289 ) ;
#172 = FACE_OUTER_BOUND ( 'NONE', #235, .T. ) ;
#173 = CARTESIAN_POINT ( 'NONE',  ( 9.532340403339405712E-14, -3.343494932497784210E-15, 27.30170800940854647 ) ) ;
#174 = FACE_OUTER_BOUND ( 'NONE', #192, .T. ) ;
#175 = EDGE_CURVE ( 'NONE', #255, #255, #1, .T. ) ;
#176 = CARTESIAN_POINT ( 'NONE',  ( 2.129803616694311221E-13, -7.470345474798856659E-15, 61.00000000000000000 ) ) ;
#177 = PERSON_AND_ORGANIZATION ( #36, #67 ) ;
#178 = CARTESIAN_POINT ( 'NONE',  ( 0.0000000000000000000, 0.0000000000000000000, 0.0000000000000000000 ) ) ;
#179 = DIRECTION ( 'NONE',  ( 0.0000000000000000000, -1.000000000000000000, 0.0000000000000000000 ) ) ;
#180 = APPROVAL_ROLE ( '' ) ;
#181 = CIRCLE ( 'NONE', #66, 1.124999999999999778 ) ;
#182 = PERSON_AND_ORGANIZATION ( #36, #67 ) ;
#183 = AXIS2_PLACEMENT_3D ( 'NONE', #226, #137, #153 ) ;
#184 = EDGE_LOOP ( 'NONE', ( #254 ) ) ;
#185 =( NAMED_UNIT ( * ) PLANE_ANGLE_UNIT ( ) SI_UNIT ( $, .RADIAN. ) );
#186 = ORIENTED_EDGE ( 'NONE', *, *, #35, .T. ) ;
#187 = DIRECTION ( 'NONE',  ( 0.0000000000000000000, 1.000000000000000000, 0.0000000000000000000 ) ) ;
#188 = FACE_OUTER_BOUND ( 'NONE', #90, .T. ) ;
#189 = AXIS2_PLACEMENT_3D ( 'NONE', #178, #50, #219 ) ;
#190 = CARTESIAN_POINT ( 'NONE',  ( 8.728703347107833388E-14, -3.061616997868383831E-15, 25.00000000000000000 ) ) ;
#191 = CARTESIAN_POINT ( 'NONE',  ( 3.491481338843133355E-14, 1.329999999999998739, 10.00000000000000000 ) ) ;
#192 = EDGE_LOOP ( 'NONE', ( #119 ) ) ;
#193 = VERTEX_POINT ( 'NONE', #114 ) ;
#194 = FACE_OUTER_BOUND ( 'NONE', #283, .T. ) ;
#195 = DIRECTION ( 'NONE',  ( -3.491481338843133355E-15, 1.224646799147353454E-16, -1.000000000000000000 ) ) ;
#196 = PRODUCT_RELATED_PRODUCT_CATEGORY ( 'detail', '', ( #290 ) ) ;
#197 = CYLINDRICAL_SURFACE ( 'NONE', #268, 1.124999999999998890 ) ;
#198 = CIRCLE ( 'NONE', #105, 1.080000000000001625 ) ;
#199 = CONICAL_SURFACE ( 'NONE', #99, 1.124999999999998224, 0.5235987755982921543 ) ;
#200 = DATE_AND_TIME ( #84, #225 ) ;
#201 = DIRECTION ( 'NONE',  ( 3.491481338843133355E-15, -1.224646799147353454E-16, 1.000000000000000000 ) ) ;
#202 = ADVANCED_FACE ( 'NONE', ( #104, #174 ), #80, .T. ) ;
#203 = CARTESIAN_POINT ( 'NONE',  ( 0.0000000000000000000, 0.0000000000000000000, 0.0000000000000000000 ) ) ;
#204 = COORDINATED_UNIVERSAL_TIME_OFFSET ( 1, 0, .AHEAD. ) ;
#205 = ORIENTED_EDGE ( 'NONE', *, *, #213, .T. ) ;
#206 = AXIS2_PLACEMENT_3D ( 'NONE', #176, #265, #52 ) ;
#207 = VERTEX_POINT ( 'NONE', #127 ) ;
#208 = EDGE_LOOP ( 'NONE', ( #302 ) ) ;
#209 = EDGE_LOOP ( 'NONE', ( #281 ) ) ;
#210 = PERSON_AND_ORGANIZATION ( #36, #67 ) ;
#211 = DIRECTION ( 'NONE',  ( -4.275831445896959482E-31, -1.000000000000000000, -1.224646799147353454E-16 ) ) ;
#212 = PERSON_AND_ORGANIZATION ( #36, #67 ) ;
#213 = EDGE_CURVE ( 'NONE', #63, #63, #251, .T. ) ;
#214 = AXIS2_PLACEMENT_3D ( 'NONE', #151, #26, #49 ) ;
#215 = DIRECTION ( 'NONE',  ( 3.491481338843133355E-15, -1.224646799147353454E-16, 1.000000000000000000 ) ) ;
#216 = VERTEX_POINT ( 'NONE', #5 ) ;
#217 = FACE_BOUND ( 'NONE', #275, .T. ) ;
#218 = PRODUCT_DEFINITION_SHAPE ( 'NONE', 'NONE',  #78 ) ;
#219 = DIRECTION ( 'NONE',  ( 4.275831445896960358E-31, 1.000000000000000000, 1.224646799147353454E-16 ) ) ;
#220 = AXIS2_PLACEMENT_3D ( 'NONE', #173, #100, #239 ) ;
#221 = CC_DESIGN_DATE_AND_TIME_ASSIGNMENT ( #200, #53, ( #86 ) ) ;
#222 = CARTESIAN_POINT ( 'NONE',  ( 3.615453511830512295E-14, -1.268130383935075731E-15, 10.35507041555162822 ) ) ;
#223 = DIRECTION ( 'NONE',  ( 0.0000000000000000000, 1.000000000000000000, 0.0000000000000000000 ) ) ;
#224 = CLOSED_SHELL ( 'NONE', ( #43, #299, #156, #85, #241, #202, #75, #237 ) ) ;
#225 = LOCAL_TIME ( 8, 11, 33.00000000000000000, #7 ) ;
#226 = CARTESIAN_POINT ( 'NONE',  ( 8.849961221477469775E-14, -3.104148534859897544E-15, 25.34729635533384595 ) ) ;
#227 = PERSON_AND_ORGANIZATION_ROLE ( 'design_supplier' ) ;
#228 = DATE_TIME_ROLE ( 'creation_date' ) ;
#229 = EDGE_CURVE ( 'NONE', #258, #258, #198, .T. ) ;
#230 = APPROVAL ( #107, 'UNSPECIFIED' ) ;
#231 = DIRECTION ( 'NONE',  ( -3.491481338843133355E-15, 1.224646799147353454E-16, -1.000000000000000000 ) ) ;
#232 = VERTEX_POINT ( 'NONE', #161 ) ;
#233 = ORIENTED_EDGE ( 'NONE', *, *, #28, .T. ) ;
#234 = MECHANICAL_CONTEXT ( 'NONE', #295, 'mechanical' ) ;
#235 = EDGE_LOOP ( 'NONE', ( #44 ) ) ;
#236 = PLANE ( 'NONE',  #264 ) ;
#237 = ADVANCED_FACE ( 'NONE', ( #27 ), #132, .F. ) ;
#238 = TOROIDAL_SURFACE ( 'NONE', #38, 3.124999999999999556, 2.000000000000000000 ) ;
#239 = DIRECTION ( 'NONE',  ( 0.0000000000000000000, 1.000000000000000000, 0.0000000000000000000 ) ) ;
#240 = CARTESIAN_POINT ( 'NONE',  ( 6.738516996730245784E-31, -2.363553595214130313E-32, 1.929987974377369837E-16 ) ) ;
#241 = ADVANCED_FACE ( 'NONE', ( #217, #172 ), #272, .T. ) ;
#242 = DIRECTION ( 'NONE',  ( 4.275831445896959482E-31, 1.000000000000000000, 1.224646799147353207E-16 ) ) ;
#243 = AXIS2_PLACEMENT_3D ( 'NONE', #20, #16, #166 ) ;
#244 = CC_DESIGN_APPROVAL ( #271, ( #78 ) ) ;
#245 = CARTESIAN_POINT ( 'NONE',  ( 2.129803616694311221E-13, 8.998558695971062171E-33, 61.00000000000000000 ) ) ;
#246 = EDGE_CURVE ( 'NONE', #140, #140, #11, .T. ) ;
#247 = FACE_OUTER_BOUND ( 'NONE', #39, .T. ) ;
#248 = CIRCLE ( 'NONE', #171, 1.124999999999998224 ) ;
#249 = DIRECTION ( 'NONE',  ( -4.344202882076475833E-31, -1.000000000000000000, -1.222784405058840709E-16 ) ) ;
#250 = CARTESIAN_POINT ( 'NONE',  ( 1.135641495829896858E-30, 1.080000000000001625, 3.252606517456513302E-16 ) ) ;
#251 = CIRCLE ( 'NONE', #214, 1.330000000000000071 ) ;
#252 = DIRECTION ( 'NONE',  ( -3.491481338843133355E-15, 1.224646799147353454E-16, -1.000000000000000000 ) ) ;
#253 = CARTESIAN_POINT ( 'NONE',  ( 3.615453511830512295E-14, -1.268130383935075731E-15, 10.35507041555162822 ) ) ;
#254 = ORIENTED_EDGE ( 'NONE', *, *, #87, .F. ) ;
#255 = VERTEX_POINT ( 'NONE', #143 ) ;
#256 = FACE_OUTER_BOUND ( 'NONE', #61, .T. ) ;
#257 = DIRECTION ( 'NONE',  ( -4.275831445896959482E-31, -1.000000000000000000, -1.224646799147353454E-16 ) ) ;
#258 = VERTEX_POINT ( 'NONE', #250 ) ;
#259 = AXIS2_PLACEMENT_3D ( 'NONE', #64, #215, #249 ) ;
#260 = DIRECTION ( 'NONE',  ( -3.491481338843133355E-15, 1.224646799147353454E-16, -1.000000000000000000 ) ) ;
#261 = APPROVAL ( #79, 'UNSPECIFIED' ) ;
#262 = DIRECTION ( 'NONE',  ( -3.491481338843133355E-15, 1.224646799147353454E-16, -1.000000000000000000 ) ) ;
#263 = DIRECTION ( 'NONE',  ( 4.275831445896959482E-31, 1.000000000000000000, 1.224646799147353454E-16 ) ) ;
#264 = AXIS2_PLACEMENT_3D ( 'NONE', #160, #4, #257 ) ;
#265 = DIRECTION ( 'NONE',  ( -3.491481338843133355E-15, 1.224646799147353454E-16, -1.000000000000000000 ) ) ;
#266 = CARTESIAN_POINT ( 'NONE',  ( 8.728703347107833388E-14, -3.035766082959412415E-15, 25.00000000000000000 ) ) ;
#267 = PERSON_AND_ORGANIZATION_ROLE ( 'creator' ) ;
#268 = AXIS2_PLACEMENT_3D ( 'NONE', #8, #133, #263 ) ;
#269 = DATE_AND_TIME ( #152, #273 ) ;
#270 = EDGE_LOOP ( 'NONE', ( #18 ) ) ;
#271 = APPROVAL ( #279, 'UNSPECIFIED' ) ;
#272 = CONICAL_SURFACE ( 'NONE', #277, 1.499999999999996003, 0.1745329251994253705 ) ;
#273 = LOCAL_TIME ( 8, 11, 33.00000000000000000, #98 ) ;
#274 = FACE_OUTER_BOUND ( 'NONE', #141, .T. ) ;
#275 = EDGE_LOOP ( 'NONE', ( #69 ) ) ;
#276 = DIRECTION ( 'NONE',  ( 0.0000000000000000000, 0.0000000000000000000, 1.000000000000000000 ) ) ;
#277 = AXIS2_PLACEMENT_3D ( 'NONE', #148, #82, #179 ) ;
#278 = EDGE_LOOP ( 'NONE', ( #157 ) ) ;
#279 = APPROVAL_STATUS ( 'not_yet_approved' ) ;
#280 = ADVANCED_FACE ( 'NONE', ( #247, #30 ), #13, .T. ) ;
#281 = ORIENTED_EDGE ( 'NONE', *, *, #28, .F. ) ;
#282 = CALENDAR_DATE ( 2021, 2, 12 ) ;
#283 = EDGE_LOOP ( 'NONE', ( #303 ) ) ;
#284 =( NAMED_UNIT ( * ) SI_UNIT ( $, .STERADIAN. ) SOLID_ANGLE_UNIT ( ) );
#285 = CC_DESIGN_PERSON_AND_ORGANIZATION_ASSIGNMENT ( #109, #267, ( #125 ) ) ;
#286 = DIRECTION ( 'NONE',  ( 4.275831445896959482E-31, 1.000000000000000000, 1.224646799147353454E-16 ) ) ;
#287 = COORDINATED_UNIVERSAL_TIME_OFFSET ( 1, 0, .AHEAD. ) ;
#288 = CIRCLE ( 'NONE', #158, 1.329999999999998739 ) ;
#289 = DIRECTION ( 'NONE',  ( 0.0000000000000000000, 1.000000000000000000, 0.0000000000000000000 ) ) ;
#290 = PRODUCT ( '327093', '327093', '', ( #234 ) ) ;
#291 = AXIS2_PLACEMENT_3D ( 'NONE', #68, #165, #211 ) ;
#292 = CC_DESIGN_SECURITY_CLASSIFICATION ( #86, ( #125 ) ) ;
#293 = APPROVAL_DATE_TIME ( #269, #230 ) ;
#294 = CARTESIAN_POINT ( 'NONE',  ( 8.728703347107829444E-16, -3.061616997868382402E-17, 0.2499999999999998890 ) ) ;
#295 = APPLICATION_CONTEXT ( 'configuration controlled 3d designs of mechanical parts and assemblies' ) ;
#296 = AXIS2_PLACEMENT_3D ( 'NONE', #91, #276, #65 ) ;
#297 = APPROVAL_DATE_TIME ( #103, #261 ) ;
#298 = ORIENTED_EDGE ( 'NONE', *, *, #175, .F. ) ;
#299 = ADVANCED_FACE ( 'NONE', ( #188, #45 ), #199, .T. ) ;
#300 = FACE_OUTER_BOUND ( 'NONE', #278, .T. ) ;
#301 = CARTESIAN_POINT ( 'NONE',  ( 8.849961221477469775E-14, 1.155384493975579296, 25.34729635533384595 ) ) ;
#302 = ORIENTED_EDGE ( 'NONE', *, *, #102, .T. ) ;
#303 = ORIENTED_EDGE ( 'NONE', *, *, #229, .T. ) ;
ENDSEC;
END-ISO-10303-21;
