ISO-10303-21;
HEADER;
FILE_DESCRIPTION (( 'STEP AP203' ),
    '1' );
FILE_NAME ('327092.step',
    '2021-12-02T07:11:32',
    ( '' ),
    ( '' ),
    'SwSTEP 2.0',
    'SolidWorks 2019',
    '' );
FILE_SCHEMA (( 'CONFIG_CONTROL_DESIGN' ));
ENDSEC;

DATA;
#1 = CONICAL_SURFACE ( 'NONE', #190, 1.499999999999996003, 0.1745329251994257591 ) ;
#2 = CARTESIAN_POINT ( 'NONE',  ( 0.0000000000000000000, 0.0000000000000000000, 0.0000000000000000000 ) ) ;
#3 =( GEOMETRIC_REPRESENTATION_CONTEXT ( 3 ) GLOBAL_UNCERTAINTY_ASSIGNED_CONTEXT ( ( #67 ) ) GLOBAL_UNIT_ASSIGNED_CONTEXT ( ( #274, #168, #77 ) ) REPRESENTATION_CONTEXT ( 'NONE', 'WORKASPACE' ) );
#4 = EDGE_LOOP ( 'NONE', ( #68 ) ) ;
#5 = CARTESIAN_POINT ( 'NONE',  ( 3.390637655594607606E-31, -1.189275596520374362E-32, 9.711172211844216707E-17 ) ) ;
#6 = SECURITY_CLASSIFICATION_LEVEL ( 'unclassified' ) ;
#7 = APPROVAL ( #140, 'UNSPECIFIED' ) ;
#8 = CONICAL_SURFACE ( 'NONE', #65, 1.200000000000002842, 0.7853981633974453924 ) ;
#9 = CYLINDRICAL_SURFACE ( 'NONE', #256, 1.099999999999998979 ) ;
#10 = FACE_OUTER_BOUND ( 'NONE', #119, .T. ) ;
#11 = PRODUCT ( '327092', '327092', '', ( #172 ) ) ;
#12 = PERSON_AND_ORGANIZATION ( #15, #179 ) ;
#13 = PERSON_AND_ORGANIZATION_ROLE ( 'creator' ) ;
#14 = CARTESIAN_POINT ( 'NONE',  ( 8.849961221477469775E-14, -3.104148534859897544E-15, 25.34729635533384595 ) ) ;
#15 = PERSON ( 'UNSPECIFIED', 'UNSPECIFIED', 'UNSPECIFIED', ('UNSPECIFIED'), ('UNSPECIFIED'), ('UNSPECIFIED') ) ;
#16 = CC_DESIGN_DATE_AND_TIME_ASSIGNMENT ( #203, #159, ( #224 ) ) ;
#17 = ADVANCED_FACE ( 'NONE', ( #72, #232 ), #266, .T. ) ;
#18 = APPLICATION_CONTEXT ( 'configuration controlled 3d designs of mechanical parts and assemblies' ) ;
#19 = DIRECTION ( 'NONE',  ( -3.491481338843133355E-15, 1.224646799147353454E-16, -1.000000000000000000 ) ) ;
#20 = DIRECTION ( 'NONE',  ( 3.491481338843133355E-15, -1.224646799147353454E-16, 1.000000000000000000 ) ) ;
#21 = VERTEX_POINT ( 'NONE', #120 ) ;
#22 = ADVANCED_FACE ( 'NONE', ( #25, #125 ), #212, .T. ) ;
#23 = ORIENTED_EDGE ( 'NONE', *, *, #289, .T. ) ;
#24 = FACE_OUTER_BOUND ( 'NONE', #97, .T. ) ;
#25 = FACE_OUTER_BOUND ( 'NONE', #171, .T. ) ;
#26 = VERTEX_POINT ( 'NONE', #300 ) ;
#27 = CIRCLE ( 'NONE', #223, 1.099999999999999867 ) ;
#28 = LOCAL_TIME ( 8, 11, 32.00000000000000000, #115 ) ;
#29 = CARTESIAN_POINT ( 'NONE',  ( 3.491481338843133355E-14, 1.319999999999998730, 10.00000000000000000 ) ) ;
#30 = DIRECTION ( 'NONE',  ( -3.491481338843133355E-15, 1.224646799147353454E-16, -1.000000000000000000 ) ) ;
#31 = FACE_BOUND ( 'NONE', #250, .T. ) ;
#32 = DIRECTION ( 'NONE',  ( 0.0000000000000000000, 1.000000000000000000, 0.0000000000000000000 ) ) ;
#33 = DIRECTION ( 'NONE',  ( -3.491481338843133355E-15, 1.224646799147353454E-16, -1.000000000000000000 ) ) ;
#34 = AXIS2_PLACEMENT_3D ( 'NONE', #109, #30, #196 ) ;
#35 = DATE_AND_TIME ( #228, #285 ) ;
#36 = CC_DESIGN_PERSON_AND_ORGANIZATION_ASSIGNMENT ( #258, #241, ( #80 ) ) ;
#37 = PERSON_AND_ORGANIZATION ( #15, #179 ) ;
#38 = SHAPE_DEFINITION_REPRESENTATION ( #202, #197 ) ;
#39 = AXIS2_PLACEMENT_3D ( 'NONE', #146, #19, #43 ) ;
#40 = EDGE_CURVE ( 'NONE', #298, #298, #290, .T. ) ;
#41 = DESIGN_CONTEXT ( 'detailed design', #18, 'design' ) ;
#42 = ORIENTED_EDGE ( 'NONE', *, *, #270, .T. ) ;
#43 = DIRECTION ( 'NONE',  ( 4.275831445896959482E-31, 1.000000000000000000, 1.224646799147353454E-16 ) ) ;
#44 = AXIS2_PLACEMENT_3D ( 'NONE', #259, #243, #54 ) ;
#45 = ORIENTED_EDGE ( 'NONE', *, *, #92, .T. ) ;
#46 = CARTESIAN_POINT ( 'NONE',  ( 8.728703347107833388E-14, 1.099999999999996758, 25.00000000000000000 ) ) ;
#47 = ORIENTED_EDGE ( 'NONE', *, *, #268, .F. ) ;
#48 = EDGE_LOOP ( 'NONE', ( #70 ) ) ;
#49 = APPLICATION_PROTOCOL_DEFINITION ( 'international standard', 'config_control_design', 1994, #278 ) ;
#50 = CC_DESIGN_PERSON_AND_ORGANIZATION_ASSIGNMENT ( #176, #13, ( #121 ) ) ;
#51 = LOCAL_TIME ( 8, 11, 32.00000000000000000, #295 ) ;
#52 = CALENDAR_DATE ( 2021, 2, 12 ) ;
#53 = FACE_OUTER_BOUND ( 'NONE', #281, .T. ) ;
#54 = DIRECTION ( 'NONE',  ( 4.275831445896959482E-31, 1.000000000000000000, 1.224646799147353454E-16 ) ) ;
#55 = ADVANCED_FACE ( 'NONE', ( #79, #31 ), #8, .T. ) ;
#56 = DIRECTION ( 'NONE',  ( 4.275831445896959482E-31, 1.000000000000000000, 1.224646799147353454E-16 ) ) ;
#57 = CIRCLE ( 'NONE', #113, 1.070000000000001616 ) ;
#58 = APPROVAL ( #246, 'UNSPECIFIED' ) ;
#59 = DIRECTION ( 'NONE',  ( 0.0000000000000000000, 1.000000000000000000, 0.0000000000000000000 ) ) ;
#60 = CALENDAR_DATE ( 2021, 2, 12 ) ;
#61 = CARTESIAN_POINT ( 'NONE',  ( 0.0000000000000000000, 0.0000000000000000000, 0.0000000000000000000 ) ) ;
#62 = CALENDAR_DATE ( 2021, 2, 12 ) ;
#63 = ADVANCED_FACE ( 'NONE', ( #10 ), #221, .T. ) ;
#64 = CIRCLE ( 'NONE', #261, 1.200000000000002842 ) ;
#65 = AXIS2_PLACEMENT_3D ( 'NONE', #287, #180, #282 ) ;
#66 = APPROVAL_PERSON_ORGANIZATION ( #114, #58, #265 ) ;
#67 = UNCERTAINTY_MEASURE_WITH_UNIT (LENGTH_MEASURE( 1.000000000000000082E-05 ), #274, 'distance_accuracy_value', 'NONE');
#68 = ORIENTED_EDGE ( 'NONE', *, *, #40, .T. ) ;
#69 = CARTESIAN_POINT ( 'NONE',  ( 2.119329172677781757E-13, -7.433606070824434221E-15, 60.69999999999999574 ) ) ;
#70 = ORIENTED_EDGE ( 'NONE', *, *, #219, .T. ) ;
#71 = DIRECTION ( 'NONE',  ( 0.0000000000000000000, 1.000000000000000000, 0.0000000000000000000 ) ) ;
#72 = FACE_BOUND ( 'NONE', #148, .T. ) ;
#73 = VERTEX_POINT ( 'NONE', #46 ) ;
#74 = ORIENTED_EDGE ( 'NONE', *, *, #289, .F. ) ;
#75 = DIRECTION ( 'NONE',  ( 1.000000000000000000, 0.0000000000000000000, 0.0000000000000000000 ) ) ;
#76 = EDGE_LOOP ( 'NONE', ( #205 ) ) ;
#77 =( NAMED_UNIT ( * ) SI_UNIT ( $, .STERADIAN. ) SOLID_ANGLE_UNIT ( ) );
#78 = CIRCLE ( 'NONE', #162, 1.500000000000002887 ) ;
#79 = FACE_OUTER_BOUND ( 'NONE', #142, .T. ) ;
#80 = PRODUCT_DEFINITION_FORMATION_WITH_SPECIFIED_SOURCE ( 'ANY', '', #11, .NOT_KNOWN. ) ;
#81 = APPROVAL_ROLE ( '' ) ;
#82 = EDGE_CURVE ( 'NONE', #73, #73, #27, .T. ) ;
#83 = FACE_OUTER_BOUND ( 'NONE', #192, .T. ) ;
#84 = DIRECTION ( 'NONE',  ( -4.275831445896959482E-31, -1.000000000000000000, -1.224646799147353454E-16 ) ) ;
#85 = PERSON_AND_ORGANIZATION_ROLE ( 'classification_officer' ) ;
#86 = CARTESIAN_POINT ( 'NONE',  ( 6.781275311189215213E-31, -2.378551193040748725E-32, 1.942234442368843341E-16 ) ) ;
#87 = DATE_AND_TIME ( #52, #220 ) ;
#88 = PLANE ( 'NONE',  #248 ) ;
#89 = PERSON_AND_ORGANIZATION_ROLE ( 'design_owner' ) ;
#90 = CC_DESIGN_APPROVAL ( #108, ( #121 ) ) ;
#91 = DATE_AND_TIME ( #183, #28 ) ;
#92 = EDGE_CURVE ( 'NONE', #21, #21, #186, .T. ) ;
#93 = AXIS2_PLACEMENT_3D ( 'NONE', #175, #182, #59 ) ;
#94 = ORIENTED_EDGE ( 'NONE', *, *, #40, .F. ) ;
#95 = VERTEX_POINT ( 'NONE', #236 ) ;
#96 = ADVANCED_FACE ( 'NONE', ( #106, #83 ), #198, .F. ) ;
#97 = EDGE_LOOP ( 'NONE', ( #94 ) ) ;
#98 = VERTEX_POINT ( 'NONE', #152 ) ;
#99 = ORIENTED_EDGE ( 'NONE', *, *, #164, .T. ) ;
#100 = AXIS2_PLACEMENT_3D ( 'NONE', #149, #103, #75 ) ;
#101 = DIRECTION ( 'NONE',  ( -3.491481338843133355E-15, 1.224646799147353454E-16, -1.000000000000000000 ) ) ;
#102 = ADVANCED_FACE ( 'NONE', ( #110, #264 ), #1, .T. ) ;
#103 = DIRECTION ( 'NONE',  ( 0.0000000000000000000, 0.0000000000000000000, 1.000000000000000000 ) ) ;
#104 = EDGE_LOOP ( 'NONE', ( #189 ) ) ;
#105 = CARTESIAN_POINT ( 'NONE',  ( 1.135641495829896858E-30, 1.070000000000001616, 3.252606517456513302E-16 ) ) ;
#106 = FACE_OUTER_BOUND ( 'NONE', #210, .T. ) ;
#107 = COORDINATED_UNIVERSAL_TIME_OFFSET ( 1, 0, .AHEAD. ) ;
#108 = APPROVAL ( #111, 'UNSPECIFIED' ) ;
#109 = CARTESIAN_POINT ( 'NONE',  ( 9.581843339940696616E-14, -3.360858225316428154E-15, 27.44349005489899440 ) ) ;
#110 = FACE_BOUND ( 'NONE', #273, .T. ) ;
#111 = APPROVAL_STATUS ( 'not_yet_approved' ) ;
#112 = CARTESIAN_POINT ( 'NONE',  ( 9.581843339940696616E-14, -3.360858225316428154E-15, 27.44349005489899440 ) ) ;
#113 = AXIS2_PLACEMENT_3D ( 'NONE', #86, #195, #262 ) ;
#114 = PERSON_AND_ORGANIZATION ( #15, #179 ) ;
#115 = COORDINATED_UNIVERSAL_TIME_OFFSET ( 1, 0, .AHEAD. ) ;
#116 = PERSON_AND_ORGANIZATION_ROLE ( 'design_supplier' ) ;
#117 = AXIS2_PLACEMENT_3D ( 'NONE', #217, #134, #84 ) ;
#118 = MANIFOLD_SOLID_BREP ( 'Corps-Déplacer/Copier1[2]', #173 ) ;
#119 = EDGE_LOOP ( 'NONE', ( #145 ) ) ;
#120 = CARTESIAN_POINT ( 'NONE',  ( 3.491481338843133355E-14, 1.319999999999998730, 10.00000000000000000 ) ) ;
#121 = PRODUCT_DEFINITION ( 'UNKNOWN', '', #80, #41 ) ;
#122 = EDGE_LOOP ( 'NONE', ( #42 ) ) ;
#123 = DIRECTION ( 'NONE',  ( -3.491481338843133355E-15, 1.224646799147353454E-16, -1.000000000000000000 ) ) ;
#124 = CARTESIAN_POINT ( 'NONE',  ( 3.624524646439344177E-14, 1.099999999999996980, 10.38105117766516017 ) ) ;
#125 = FACE_OUTER_BOUND ( 'NONE', #215, .T. ) ;
#126 = DIRECTION ( 'NONE',  ( -3.491481338843133355E-15, 1.224646799147353454E-16, -1.000000000000000000 ) ) ;
#127 = AXIS2_PLACEMENT_3D ( 'NONE', #14, #33, #247 ) ;
#128 = EDGE_LOOP ( 'NONE', ( #99 ) ) ;
#129 = VERTEX_POINT ( 'NONE', #29 ) ;
#130 = PLANE ( 'NONE',  #269 ) ;
#131 = PERSON_AND_ORGANIZATION ( #15, #179 ) ;
#132 = CARTESIAN_POINT ( 'NONE',  ( 8.728703347107833388E-14, -3.061616997868383831E-15, 25.00000000000000000 ) ) ;
#133 = CC_DESIGN_PERSON_AND_ORGANIZATION_ASSIGNMENT ( #227, #85, ( #224 ) ) ;
#134 = DIRECTION ( 'NONE',  ( 3.491481338843133355E-15, -1.224646799147353454E-16, 1.000000000000000000 ) ) ;
#135 = CC_DESIGN_APPROVAL ( #7, ( #80 ) ) ;
#136 = PLANE ( 'NONE',  #44 ) ;
#137 = ADVANCED_FACE ( 'NONE', ( #53 ), #136, .F. ) ;
#138 = CARTESIAN_POINT ( 'NONE',  ( 8.728703347107833388E-14, -3.035766082959412415E-15, 25.00000000000000000 ) ) ;
#139 = CARTESIAN_POINT ( 'NONE',  ( 3.491481338843133355E-14, 9.898414565568244885E-33, 10.00000000000000000 ) ) ;
#140 = APPROVAL_STATUS ( 'not_yet_approved' ) ;
#141 = DIRECTION ( 'NONE',  ( 0.0000000000000000000, 1.000000000000000000, 0.0000000000000000000 ) ) ;
#142 = EDGE_LOOP ( 'NONE', ( #165 ) ) ;
#143 = CARTESIAN_POINT ( 'NONE',  ( 2.129803616694311221E-13, -7.470345474798856659E-15, 61.00000000000000000 ) ) ;
#144 = AXIS2_PLACEMENT_3D ( 'NONE', #169, #20, #235 ) ;
#145 = ORIENTED_EDGE ( 'NONE', *, *, #92, .F. ) ;
#146 = CARTESIAN_POINT ( 'NONE',  ( 0.0000000000000000000, 0.0000000000000000000, 0.0000000000000000000 ) ) ;
#147 = ADVANCED_FACE ( 'NONE', ( #288, #154 ), #9, .T. ) ;
#148 = EDGE_LOOP ( 'NONE', ( #167 ) ) ;
#149 = CARTESIAN_POINT ( 'NONE',  ( 0.0000000000000000000, 0.0000000000000000000, 0.0000000000000000000 ) ) ;
#150 = PRODUCT_RELATED_PRODUCT_CATEGORY ( 'detail', '', ( #11 ) ) ;
#151 = DIRECTION ( 'NONE',  ( -3.491481338843133355E-15, 1.224646799147353454E-16, -1.000000000000000000 ) ) ;
#152 = CARTESIAN_POINT ( 'NONE',  ( 2.119329172677781757E-13, 1.499999999999995559, 60.69999999999999574 ) ) ;
#153 = ORIENTED_EDGE ( 'NONE', *, *, #164, .F. ) ;
#154 = FACE_OUTER_BOUND ( 'NONE', #299, .T. ) ;
#155 = DIRECTION ( 'NONE',  ( 3.491481338843133355E-15, -1.224646799147353454E-16, 1.000000000000000000 ) ) ;
#156 = AXIS2_PLACEMENT_3D ( 'NONE', #260, #158, #242 ) ;
#157 = APPROVAL_PERSON_ORGANIZATION ( #12, #108, #81 ) ;
#158 = DIRECTION ( 'NONE',  ( -3.491481338843133355E-15, 1.224646799147353454E-16, -1.000000000000000000 ) ) ;
#159 = DATE_TIME_ROLE ( 'classification_date' ) ;
#160 = DIRECTION ( 'NONE',  ( -4.275831445896959482E-31, -1.000000000000000000, -1.224646799147353454E-16 ) ) ;
#161 = DATE_TIME_ROLE ( 'creation_date' ) ;
#162 = AXIS2_PLACEMENT_3D ( 'NONE', #69, #170, #193 ) ;
#163 = CIRCLE ( 'NONE', #244, 1.099999999999998312 ) ;
#164 = EDGE_CURVE ( 'NONE', #26, #26, #275, .T. ) ;
#165 = ORIENTED_EDGE ( 'NONE', *, *, #277, .F. ) ;
#166 = CARTESIAN_POINT ( 'NONE',  ( 3.624524646439344177E-14, -1.271312109651250272E-15, 10.38105117766516017 ) ) ;
#167 = ORIENTED_EDGE ( 'NONE', *, *, #219, .F. ) ;
#168 =( NAMED_UNIT ( * ) PLANE_ANGLE_UNIT ( ) SI_UNIT ( $, .RADIAN. ) );
#169 = CARTESIAN_POINT ( 'NONE',  ( 8.728703347107829444E-16, -3.061616997868382402E-17, 0.2499999999999998890 ) ) ;
#170 = DIRECTION ( 'NONE',  ( -3.491481338843133355E-15, 1.224646799147353454E-16, -1.000000000000000000 ) ) ;
#171 = EDGE_LOOP ( 'NONE', ( #153 ) ) ;
#172 = MECHANICAL_CONTEXT ( 'NONE', #278, 'mechanical' ) ;
#173 = CLOSED_SHELL ( 'NONE', ( #229, #17, #301, #63 ) ) ;
#174 = CIRCLE ( 'NONE', #231, 1.320000000000000062 ) ;
#175 = CARTESIAN_POINT ( 'NONE',  ( 3.491481338843133355E-14, -1.224646799147353454E-15, 10.00000000000000000 ) ) ;
#176 = PERSON_AND_ORGANIZATION ( #15, #179 ) ;
#177 = DIRECTION ( 'NONE',  ( 4.275831445896960358E-31, 1.000000000000000000, 1.224646799147353454E-16 ) ) ;
#178 = FACE_OUTER_BOUND ( 'NONE', #271, .T. ) ;
#179 = ORGANIZATION ( 'UNSPECIFIED', 'UNSPECIFIED', '' ) ;
#180 = DIRECTION ( 'NONE',  ( -3.491481338843133355E-15, 1.224646799147353454E-16, -1.000000000000000000 ) ) ;
#181 = APPROVAL_DATE_TIME ( #35, #7 ) ;
#182 = DIRECTION ( 'NONE',  ( -3.491481338843133355E-15, 1.224646799147353454E-16, -1.000000000000000000 ) ) ;
#183 = CALENDAR_DATE ( 2021, 2, 12 ) ;
#184 = DIRECTION ( 'NONE',  ( 3.491481338843133355E-15, -1.224646799147353454E-16, 1.000000000000000000 ) ) ;
#185 = APPROVAL_ROLE ( '' ) ;
#186 = CIRCLE ( 'NONE', #93, 1.320000000000000062 ) ;
#187 = COORDINATED_UNIVERSAL_TIME_OFFSET ( 1, 0, .AHEAD. ) ;
#188 = AXIS2_PLACEMENT_3D ( 'NONE', #2, #101, #191 ) ;
#189 = ORIENTED_EDGE ( 'NONE', *, *, #286, .T. ) ;
#190 = AXIS2_PLACEMENT_3D ( 'NONE', #112, #155, #200 ) ;
#191 = DIRECTION ( 'NONE',  ( 4.275831445896960358E-31, 1.000000000000000000, 1.224646799147353454E-16 ) ) ;
#192 = EDGE_LOOP ( 'NONE', ( #255 ) ) ;
#193 = DIRECTION ( 'NONE',  ( 0.0000000000000000000, 1.000000000000000000, 0.0000000000000000000 ) ) ;
#194 = DIRECTION ( 'NONE',  ( 3.491481338843133355E-15, -1.224646799147353454E-16, 1.000000000000000000 ) ) ;
#195 = DIRECTION ( 'NONE',  ( -3.491481338843133355E-15, 1.224646799147353454E-16, -1.000000000000000000 ) ) ;
#196 = DIRECTION ( 'NONE',  ( 0.0000000000000000000, 1.000000000000000000, 0.0000000000000000000 ) ) ;
#197 = ADVANCED_BREP_SHAPE_REPRESENTATION ( '327092', ( #204, #118, #100 ), #3 ) ;
#198 = TOROIDAL_SURFACE ( 'NONE', #239, 3.100000000000000089, 2.000000000000000000 ) ;
#199 = APPLICATION_PROTOCOL_DEFINITION ( 'international standard', 'config_control_design', 1994, #18 ) ;
#200 = DIRECTION ( 'NONE',  ( 0.0000000000000000000, -1.000000000000000000, 0.0000000000000000000 ) ) ;
#201 = DIRECTION ( 'NONE',  ( -4.275831445896959482E-31, -1.000000000000000000, -1.224646799147353454E-16 ) ) ;
#202 = PRODUCT_DEFINITION_SHAPE ( 'NONE', 'NONE',  #121 ) ;
#203 = DATE_AND_TIME ( #60, #293 ) ;
#204 = MANIFOLD_SOLID_BREP ( 'Corps-Déplacer/Copier1[1]', #252 ) ;
#205 = ORIENTED_EDGE ( 'NONE', *, *, #270, .F. ) ;
#206 = CONICAL_SURFACE ( 'NONE', #156, 1.099999999999998312, 0.5235987755982934866 ) ;
#207 = DIRECTION ( 'NONE',  ( 0.0000000000000000000, 1.000000000000000000, 0.0000000000000000000 ) ) ;
#208 = EDGE_LOOP ( 'NONE', ( #45 ) ) ;
#209 = VERTEX_POINT ( 'NONE', #124 ) ;
#210 = EDGE_LOOP ( 'NONE', ( #279 ) ) ;
#211 = CYLINDRICAL_SURFACE ( 'NONE', #39, 1.319999999999999396 ) ;
#212 = CYLINDRICAL_SURFACE ( 'NONE', #188, 1.499999999999999334 ) ;
#213 = CARTESIAN_POINT ( 'NONE',  ( 2.129803616694311221E-13, 1.199999999999995515, 61.00000000000000000 ) ) ;
#214 = CC_DESIGN_SECURITY_CLASSIFICATION ( #224, ( #80 ) ) ;
#215 = EDGE_LOOP ( 'NONE', ( #302 ) ) ;
#216 = VERTEX_POINT ( 'NONE', #105 ) ;
#217 = CARTESIAN_POINT ( 'NONE',  ( 3.491481338843133355E-14, 9.898414565568244885E-33, 10.00000000000000000 ) ) ;
#218 = AXIS2_PLACEMENT_3D ( 'NONE', #254, #151, #238 ) ;
#219 = EDGE_CURVE ( 'NONE', #216, #216, #57, .T. ) ;
#220 = LOCAL_TIME ( 8, 11, 32.00000000000000000, #291 ) ;
#221 = PLANE ( 'NONE',  #117 ) ;
#222 = DIRECTION ( 'NONE',  ( -3.491481338843133355E-15, 1.224646799147353454E-16, -1.000000000000000000 ) ) ;
#223 = AXIS2_PLACEMENT_3D ( 'NONE', #132, #222, #32 ) ;
#224 = SECURITY_CLASSIFICATION ( '', '', #6 ) ;
#225 = FACE_OUTER_BOUND ( 'NONE', #104, .T. ) ;
#226 = ADVANCED_FACE ( 'NONE', ( #178, #240 ), #206, .T. ) ;
#227 = PERSON_AND_ORGANIZATION ( #15, #179 ) ;
#228 = CALENDAR_DATE ( 2021, 2, 12 ) ;
#229 = ADVANCED_FACE ( 'NONE', ( #245 ), #130, .F. ) ;
#230 = DATE_AND_TIME ( #62, #51 ) ;
#231 = AXIS2_PLACEMENT_3D ( 'NONE', #303, #251, #207 ) ;
#232 = FACE_OUTER_BOUND ( 'NONE', #4, .T. ) ;
#233 = CARTESIAN_POINT ( 'NONE',  ( 8.728703347107835360E-16, 1.319999999999998730, 0.2500000000000000555 ) ) ;
#234 = CC_DESIGN_PERSON_AND_ORGANIZATION_ASSIGNMENT ( #131, #116, ( #80 ) ) ;
#235 = DIRECTION ( 'NONE',  ( -4.377113509970994556E-31, -1.000000000000000000, -1.232047923278983432E-16 ) ) ;
#236 = CARTESIAN_POINT ( 'NONE',  ( 8.849961221477469775E-14, 1.130384493975578719, 25.34729635533384595 ) ) ;
#237 = ADVANCED_FACE ( 'NONE', ( #225 ), #88, .F. ) ;
#238 = DIRECTION ( 'NONE',  ( 4.377113509970994556E-31, 1.000000000000000000, 1.232047923278983432E-16 ) ) ;
#239 = AXIS2_PLACEMENT_3D ( 'NONE', #138, #257, #177 ) ;
#240 = FACE_BOUND ( 'NONE', #122, .T. ) ;
#241 = PERSON_AND_ORGANIZATION_ROLE ( 'creator' ) ;
#242 = DIRECTION ( 'NONE',  ( 0.0000000000000000000, 1.000000000000000000, 0.0000000000000000000 ) ) ;
#243 = DIRECTION ( 'NONE',  ( -3.491481338843133355E-15, 1.224646799147353454E-16, -1.000000000000000000 ) ) ;
#244 = AXIS2_PLACEMENT_3D ( 'NONE', #166, #123, #141 ) ;
#245 = FACE_OUTER_BOUND ( 'NONE', #48, .T. ) ;
#246 = APPROVAL_STATUS ( 'not_yet_approved' ) ;
#247 = DIRECTION ( 'NONE',  ( 0.0000000000000000000, 1.000000000000000000, 0.0000000000000000000 ) ) ;
#248 = AXIS2_PLACEMENT_3D ( 'NONE', #139, #184, #160 ) ;
#249 = CC_DESIGN_DATE_AND_TIME_ASSIGNMENT ( #91, #161, ( #121 ) ) ;
#250 = EDGE_LOOP ( 'NONE', ( #23 ) ) ;
#251 = DIRECTION ( 'NONE',  ( -3.491481338843133355E-15, 1.224646799147353454E-16, -1.000000000000000000 ) ) ;
#252 = CLOSED_SHELL ( 'NONE', ( #237, #226, #147, #96, #102, #22, #55, #137 ) ) ;
#253 = APPROVAL_PERSON_ORGANIZATION ( #283, #7, #185 ) ;
#254 = CARTESIAN_POINT ( 'NONE',  ( 8.728703347107829444E-16, -3.061616997868382402E-17, 0.2499999999999998890 ) ) ;
#255 = ORIENTED_EDGE ( 'NONE', *, *, #268, .T. ) ;
#256 = AXIS2_PLACEMENT_3D ( 'NONE', #61, #292, #56 ) ;
#257 = DIRECTION ( 'NONE',  ( -3.491481338843133355E-15, 1.224646799147353454E-16, -1.000000000000000000 ) ) ;
#258 = PERSON_AND_ORGANIZATION ( #15, #179 ) ;
#259 = CARTESIAN_POINT ( 'NONE',  ( 2.129803616694311221E-13, 8.998558695971062171E-33, 61.00000000000000000 ) ) ;
#260 = CARTESIAN_POINT ( 'NONE',  ( 3.624524646439344177E-14, -1.271312109651250272E-15, 10.38105117766516017 ) ) ;
#261 = AXIS2_PLACEMENT_3D ( 'NONE', #143, #126, #71 ) ;
#262 = DIRECTION ( 'NONE',  ( 4.275831445896959482E-31, 1.000000000000000000, 1.224646799147353207E-16 ) ) ;
#263 = CC_DESIGN_PERSON_AND_ORGANIZATION_ASSIGNMENT ( #37, #89, ( #11 ) ) ;
#264 = FACE_OUTER_BOUND ( 'NONE', #128, .T. ) ;
#265 = APPROVAL_ROLE ( '' ) ;
#266 = CONICAL_SURFACE ( 'NONE', #144, 1.319999999999998730, 0.7853981633974432830 ) ;
#267 = APPROVAL_DATE_TIME ( #87, #108 ) ;
#268 = EDGE_CURVE ( 'NONE', #95, #95, #284, .T. ) ;
#269 = AXIS2_PLACEMENT_3D ( 'NONE', #5, #194, #201 ) ;
#270 = EDGE_CURVE ( 'NONE', #209, #209, #163, .T. ) ;
#271 = EDGE_LOOP ( 'NONE', ( #276 ) ) ;
#272 = VERTEX_POINT ( 'NONE', #213 ) ;
#273 = EDGE_LOOP ( 'NONE', ( #47 ) ) ;
#274 =( LENGTH_UNIT ( ) NAMED_UNIT ( * ) SI_UNIT ( .MILLI., .METRE. ) );
#275 = CIRCLE ( 'NONE', #34, 1.499999999999996003 ) ;
#276 = ORIENTED_EDGE ( 'NONE', *, *, #286, .F. ) ;
#277 = EDGE_CURVE ( 'NONE', #98, #98, #78, .T. ) ;
#278 = APPLICATION_CONTEXT ( 'configuration controlled 3d designs of mechanical parts and assemblies' ) ;
#279 = ORIENTED_EDGE ( 'NONE', *, *, #82, .F. ) ;
#280 = FACE_OUTER_BOUND ( 'NONE', #208, .T. ) ;
#281 = EDGE_LOOP ( 'NONE', ( #74 ) ) ;
#282 = DIRECTION ( 'NONE',  ( 0.0000000000000000000, 1.000000000000000000, 0.0000000000000000000 ) ) ;
#283 = PERSON_AND_ORGANIZATION ( #15, #179 ) ;
#284 = CIRCLE ( 'NONE', #127, 1.130384493975581606 ) ;
#285 = LOCAL_TIME ( 8, 11, 32.00000000000000000, #187 ) ;
#286 = EDGE_CURVE ( 'NONE', #129, #129, #174, .T. ) ;
#287 = CARTESIAN_POINT ( 'NONE',  ( 2.129803616694311221E-13, -7.470345474798856659E-15, 61.00000000000000000 ) ) ;
#288 = FACE_OUTER_BOUND ( 'NONE', #76, .T. ) ;
#289 = EDGE_CURVE ( 'NONE', #272, #272, #64, .T. ) ;
#290 = CIRCLE ( 'NONE', #218, 1.319999999999998730 ) ;
#291 = COORDINATED_UNIVERSAL_TIME_OFFSET ( 1, 0, .AHEAD. ) ;
#292 = DIRECTION ( 'NONE',  ( -3.491481338843133355E-15, 1.224646799147353454E-16, -1.000000000000000000 ) ) ;
#293 = LOCAL_TIME ( 8, 11, 32.00000000000000000, #107 ) ;
#294 = CC_DESIGN_APPROVAL ( #58, ( #224 ) ) ;
#295 = COORDINATED_UNIVERSAL_TIME_OFFSET ( 1, 0, .AHEAD. ) ;
#296 = APPROVAL_DATE_TIME ( #230, #58 ) ;
#297 = ORIENTED_EDGE ( 'NONE', *, *, #82, .T. ) ;
#298 = VERTEX_POINT ( 'NONE', #233 ) ;
#299 = EDGE_LOOP ( 'NONE', ( #297 ) ) ;
#300 = CARTESIAN_POINT ( 'NONE',  ( 9.581843339940696616E-14, 1.499999999999992673, 27.44349005489899440 ) ) ;
#301 = ADVANCED_FACE ( 'NONE', ( #24, #280 ), #211, .T. ) ;
#302 = ORIENTED_EDGE ( 'NONE', *, *, #277, .T. ) ;
#303 = CARTESIAN_POINT ( 'NONE',  ( 3.491481338843133355E-14, -1.224646799147353454E-15, 10.00000000000000000 ) ) ;
ENDSEC;
END-ISO-10303-21;
