ISO-10303-21;
HEADER;
FILE_DESCRIPTION (( 'STEP AP203' ),
    '1' );
FILE_NAME ('327091.step',
    '2021-12-02T07:11:32',
    ( '' ),
    ( '' ),
    'SwSTEP 2.0',
    'SolidWorks 2019',
    '' );
FILE_SCHEMA (( 'CONFIG_CONTROL_DESIGN' ));
ENDSEC;

DATA;
#1 = AXIS2_PLACEMENT_3D ( 'NONE', #262, #25, #57 ) ;
#2 =( NAMED_UNIT ( * ) PLANE_ANGLE_UNIT ( ) SI_UNIT ( $, .RADIAN. ) );
#3 = ORIENTED_EDGE ( 'NONE', *, *, #79, .T. ) ;
#4 = FACE_OUTER_BOUND ( 'NONE', #213, .T. ) ;
#5 = DATE_TIME_ROLE ( 'creation_date' ) ;
#6 = CARTESIAN_POINT ( 'NONE',  ( 0.0000000000000000000, 0.0000000000000000000, 0.0000000000000000000 ) ) ;
#7 = CARTESIAN_POINT ( 'NONE',  ( 3.621500934903067303E-14, -1.270251534412525622E-15, 10.37239092362731796 ) ) ;
#8 = PERSON_AND_ORGANIZATION ( #136, #117 ) ;
#9 = EDGE_CURVE ( 'NONE', #114, #114, #39, .T. ) ;
#10 = ADVANCED_FACE ( 'NONE', ( #187, #289 ), #250, .T. ) ;
#11 = AXIS2_PLACEMENT_3D ( 'NONE', #224, #52, #240 ) ;
#12 = COORDINATED_UNIVERSAL_TIME_OFFSET ( 1, 0, .AHEAD. ) ;
#13 = PLANE ( 'NONE',  #75 ) ;
#14 = CALENDAR_DATE ( 2021, 2, 12 ) ;
#15 = EDGE_LOOP ( 'NONE', ( #158 ) ) ;
#16 = EDGE_CURVE ( 'NONE', #90, #90, #70, .T. ) ;
#17 = FACE_OUTER_BOUND ( 'NONE', #281, .T. ) ;
#18 = DATE_AND_TIME ( #64, #80 ) ;
#19 = DIRECTION ( 'NONE',  ( -3.491481338843133355E-15, 1.224646799147353454E-16, -1.000000000000000000 ) ) ;
#20 = ORIENTED_EDGE ( 'NONE', *, *, #205, .T. ) ;
#21 = CYLINDRICAL_SURFACE ( 'NONE', #258, 1.314999999999999281 ) ;
#22 = AXIS2_PLACEMENT_3D ( 'NONE', #279, #214, #212 ) ;
#23 = CC_DESIGN_APPROVAL ( #157, ( #31 ) ) ;
#24 = FACE_OUTER_BOUND ( 'NONE', #119, .T. ) ;
#25 = DIRECTION ( 'NONE',  ( 3.491481338843133355E-15, -1.224646799147353454E-16, 1.000000000000000000 ) ) ;
#26 = DIRECTION ( 'NONE',  ( 4.275831445896960358E-31, 1.000000000000000000, 1.224646799147353454E-16 ) ) ;
#27 = DIRECTION ( 'NONE',  ( -4.275831445896959482E-31, -1.000000000000000000, -1.224646799147353454E-16 ) ) ;
#28 = APPROVAL ( #58, 'UNSPECIFIED' ) ;
#29 = DIRECTION ( 'NONE',  ( 0.0000000000000000000, 1.000000000000000000, 0.0000000000000000000 ) ) ;
#30 = AXIS2_PLACEMENT_3D ( 'NONE', #6, #261, #26 ) ;
#31 = SECURITY_CLASSIFICATION ( '', '', #227 ) ;
#32 = PERSON_AND_ORGANIZATION_ROLE ( 'design_supplier' ) ;
#33 = PERSON_AND_ORGANIZATION ( #136, #117 ) ;
#34 = AXIS2_PLACEMENT_3D ( 'NONE', #130, #226, #275 ) ;
#35 = EDGE_CURVE ( 'NONE', #160, #160, #271, .T. ) ;
#36 = APPROVAL_STATUS ( 'not_yet_approved' ) ;
#37 = ORIENTED_EDGE ( 'NONE', *, *, #63, .F. ) ;
#38 = CARTESIAN_POINT ( 'NONE',  ( 3.491481338843133355E-14, 1.314999999999998614, 10.00000000000000000 ) ) ;
#39 = CIRCLE ( 'NONE', #222, 1.200000000000002842 ) ;
#40 = DIRECTION ( 'NONE',  ( -3.491481338843133355E-15, 1.224646799147353454E-16, -1.000000000000000000 ) ) ;
#41 = CC_DESIGN_PERSON_AND_ORGANIZATION_ASSIGNMENT ( #85, #150, ( #217 ) ) ;
#42 = CARTESIAN_POINT ( 'NONE',  ( 1.135641495829896858E-30, 1.065000000000001723, 3.252606517456513302E-16 ) ) ;
#43 = PRODUCT_DEFINITION_SHAPE ( 'NONE', 'NONE',  #269 ) ;
#44 = EDGE_LOOP ( 'NONE', ( #299 ) ) ;
#45 = VERTEX_POINT ( 'NONE', #38 ) ;
#46 = ORIENTED_EDGE ( 'NONE', *, *, #133, .T. ) ;
#47 = CONICAL_SURFACE ( 'NONE', #290, 1.314999999999998614, 0.7853981633974428389 ) ;
#48 = MECHANICAL_CONTEXT ( 'NONE', #49, 'mechanical' ) ;
#49 = APPLICATION_CONTEXT ( 'configuration controlled 3d designs of mechanical parts and assemblies' ) ;
#50 = CC_DESIGN_DATE_AND_TIME_ASSIGNMENT ( #270, #293, ( #31 ) ) ;
#51 = FACE_OUTER_BOUND ( 'NONE', #44, .T. ) ;
#52 = DIRECTION ( 'NONE',  ( -3.491481338843133355E-15, 1.224646799147353454E-16, -1.000000000000000000 ) ) ;
#53 = FACE_OUTER_BOUND ( 'NONE', #256, .T. ) ;
#54 = AXIS2_PLACEMENT_3D ( 'NONE', #221, #77, #78 ) ;
#55 = DIRECTION ( 'NONE',  ( -3.491481338843133355E-15, 1.224646799147353454E-16, -1.000000000000000000 ) ) ;
#56 = APPROVAL_DATE_TIME ( #260, #28 ) ;
#57 = DIRECTION ( 'NONE',  ( -4.275831445896959482E-31, -1.000000000000000000, -1.224646799147353454E-16 ) ) ;
#58 = APPROVAL_STATUS ( 'not_yet_approved' ) ;
#59 = APPROVAL_DATE_TIME ( #18, #157 ) ;
#60 = ADVANCED_FACE ( 'NONE', ( #242, #53 ), #237, .T. ) ;
#61 = CIRCLE ( 'NONE', #111, 1.314999999999999947 ) ;
#62 = CONICAL_SURFACE ( 'NONE', #87, 1.200000000000002842, 0.7853981633974453924 ) ;
#63 = EDGE_CURVE ( 'NONE', #257, #257, #166, .T. ) ;
#64 = CALENDAR_DATE ( 2021, 2, 12 ) ;
#65 = ORIENTED_EDGE ( 'NONE', *, *, #229, .F. ) ;
#66 = MANIFOLD_SOLID_BREP ( 'Corps-Déplacer/Copier1[1]', #276 ) ;
#67 = VERTEX_POINT ( 'NONE', #142 ) ;
#68 = ORIENTED_EDGE ( 'NONE', *, *, #100, .T. ) ;
#69 = FACE_OUTER_BOUND ( 'NONE', #208, .T. ) ;
#70 = CIRCLE ( 'NONE', #241, 1.130384493975581606 ) ;
#71 = CARTESIAN_POINT ( 'NONE',  ( 3.621500934903067303E-14, 1.099999999999996980, 10.37239092362731796 ) ) ;
#72 = EDGE_LOOP ( 'NONE', ( #65 ) ) ;
#73 = DIRECTION ( 'NONE',  ( 4.275831445896960358E-31, 1.000000000000000000, 1.224646799147353454E-16 ) ) ;
#74 = VERTEX_POINT ( 'NONE', #273 ) ;
#75 = AXIS2_PLACEMENT_3D ( 'NONE', #179, #203, #84 ) ;
#76 = DIRECTION ( 'NONE',  ( -3.491481338843133355E-15, 1.224646799147353454E-16, -1.000000000000000000 ) ) ;
#77 = DIRECTION ( 'NONE',  ( -3.491481338843133355E-15, 1.224646799147353454E-16, -1.000000000000000000 ) ) ;
#78 = DIRECTION ( 'NONE',  ( 0.0000000000000000000, 1.000000000000000000, 0.0000000000000000000 ) ) ;
#79 = EDGE_CURVE ( 'NONE', #45, #45, #61, .T. ) ;
#80 = LOCAL_TIME ( 8, 11, 32.00000000000000000, #204 ) ;
#81 = PERSON_AND_ORGANIZATION_ROLE ( 'creator' ) ;
#82 = DIRECTION ( 'NONE',  ( 4.275831445896959482E-31, 1.000000000000000000, 1.224646799147353454E-16 ) ) ;
#83 = DIRECTION ( 'NONE',  ( 1.000000000000000000, 0.0000000000000000000, 0.0000000000000000000 ) ) ;
#84 = DIRECTION ( 'NONE',  ( 4.275831445896959482E-31, 1.000000000000000000, 1.224646799147353454E-16 ) ) ;
#85 = PERSON_AND_ORGANIZATION ( #136, #117 ) ;
#86 = PERSON_AND_ORGANIZATION ( #136, #117 ) ;
#87 = AXIS2_PLACEMENT_3D ( 'NONE', #300, #40, #164 ) ;
#88 = PERSON_AND_ORGANIZATION_ROLE ( 'classification_officer' ) ;
#89 = ORIENTED_EDGE ( 'NONE', *, *, #229, .T. ) ;
#90 = VERTEX_POINT ( 'NONE', #190 ) ;
#91 = COORDINATED_UNIVERSAL_TIME_OFFSET ( 1, 0, .AHEAD. ) ;
#92 = EDGE_LOOP ( 'NONE', ( #3 ) ) ;
#93 = CARTESIAN_POINT ( 'NONE',  ( 3.491481338843133355E-14, 1.314999999999998614, 10.00000000000000000 ) ) ;
#94 = ORIENTED_EDGE ( 'NONE', *, *, #35, .F. ) ;
#95 = CARTESIAN_POINT ( 'NONE',  ( 8.728703347107829444E-16, -3.061616997868382402E-17, 0.2499999999999998890 ) ) ;
#96 = ORIENTED_EDGE ( 'NONE', *, *, #205, .F. ) ;
#97 = ADVANCED_FACE ( 'NONE', ( #172, #223 ), #174, .T. ) ;
#98 = CARTESIAN_POINT ( 'NONE',  ( 3.491481338843133355E-14, 9.860920571001698171E-33, 10.00000000000000000 ) ) ;
#99 = APPROVAL_ROLE ( '' ) ;
#100 = EDGE_CURVE ( 'NONE', #138, #138, #108, .T. ) ;
#101 = FACE_OUTER_BOUND ( 'NONE', #92, .T. ) ;
#102 = DIRECTION ( 'NONE',  ( -3.491481338843133355E-15, 1.224646799147353454E-16, -1.000000000000000000 ) ) ;
#103 = CARTESIAN_POINT ( 'NONE',  ( 0.0000000000000000000, 0.0000000000000000000, 0.0000000000000000000 ) ) ;
#104 = AXIS2_PLACEMENT_3D ( 'NONE', #188, #140, #73 ) ;
#105 = PRODUCT_DEFINITION_FORMATION_WITH_SPECIFIED_SOURCE ( 'ANY', '', #217, .NOT_KNOWN. ) ;
#106 = PERSON_AND_ORGANIZATION ( #136, #117 ) ;
#107 = COORDINATED_UNIVERSAL_TIME_OFFSET ( 1, 0, .AHEAD. ) ;
#108 = CIRCLE ( 'NONE', #191, 1.314999999999998614 ) ;
#109 = DESIGN_CONTEXT ( 'detailed design', #301, 'design' ) ;
#110 = DIRECTION ( 'NONE',  ( -4.393756527119174115E-31, -1.000000000000000000, -1.236732516143162322E-16 ) ) ;
#111 = AXIS2_PLACEMENT_3D ( 'NONE', #146, #102, #148 ) ;
#112 = DIRECTION ( 'NONE',  ( -3.491481338843133355E-15, 1.224646799147353454E-16, -1.000000000000000000 ) ) ;
#113 = EDGE_LOOP ( 'NONE', ( #234 ) ) ;
#114 = VERTEX_POINT ( 'NONE', #253 ) ;
#115 = ORIENTED_EDGE ( 'NONE', *, *, #100, .F. ) ;
#116 = TOROIDAL_SURFACE ( 'NONE', #104, 3.100000000000000089, 2.000000000000000000 ) ;
#117 = ORGANIZATION ( 'UNSPECIFIED', 'UNSPECIFIED', '' ) ;
#118 = ADVANCED_FACE ( 'NONE', ( #101 ), #197, .F. ) ;
#119 = EDGE_LOOP ( 'NONE', ( #94 ) ) ;
#120 = EDGE_CURVE ( 'NONE', #282, #282, #235, .T. ) ;
#121 = FACE_OUTER_BOUND ( 'NONE', #274, .T. ) ;
#122 = DIRECTION ( 'NONE',  ( -3.491481338843133355E-15, 1.224646799147353454E-16, -1.000000000000000000 ) ) ;
#123 = CARTESIAN_POINT ( 'NONE',  ( 0.0000000000000000000, 0.0000000000000000000, 0.0000000000000000000 ) ) ;
#124 = CARTESIAN_POINT ( 'NONE',  ( 8.849961221477469775E-14, -3.104148534859897544E-15, 25.34729635533384595 ) ) ;
#125 = AXIS2_PLACEMENT_3D ( 'NONE', #7, #129, #239 ) ;
#126 = DIRECTION ( 'NONE',  ( -3.491481338843133355E-15, 1.224646799147353454E-16, -1.000000000000000000 ) ) ;
#127 = DIRECTION ( 'NONE',  ( 0.0000000000000000000, 1.000000000000000000, 0.0000000000000000000 ) ) ;
#128 = CALENDAR_DATE ( 2021, 2, 12 ) ;
#129 = DIRECTION ( 'NONE',  ( -3.491481338843133355E-15, 1.224646799147353454E-16, -1.000000000000000000 ) ) ;
#130 = CARTESIAN_POINT ( 'NONE',  ( 9.581843339940696616E-14, -3.360858225316428154E-15, 27.44349005489899440 ) ) ;
#131 = CC_DESIGN_DATE_AND_TIME_ASSIGNMENT ( #288, #5, ( #269 ) ) ;
#132 = DIRECTION ( 'NONE',  ( 0.0000000000000000000, 0.0000000000000000000, 1.000000000000000000 ) ) ;
#133 = EDGE_CURVE ( 'NONE', #186, #186, #263, .T. ) ;
#134 = AXIS2_PLACEMENT_3D ( 'NONE', #265, #55, #202 ) ;
#135 = FACE_BOUND ( 'NONE', #302, .T. ) ;
#136 = PERSON ( 'UNSPECIFIED', 'UNSPECIFIED', 'UNSPECIFIED', ('UNSPECIFIED'), ('UNSPECIFIED'), ('UNSPECIFIED') ) ;
#137 = CC_DESIGN_PERSON_AND_ORGANIZATION_ASSIGNMENT ( #33, #88, ( #31 ) ) ;
#138 = VERTEX_POINT ( 'NONE', #277 ) ;
#139 = EDGE_LOOP ( 'NONE', ( #115 ) ) ;
#140 = DIRECTION ( 'NONE',  ( -3.491481338843133355E-15, 1.224646799147353454E-16, -1.000000000000000000 ) ) ;
#141 = ORIENTED_EDGE ( 'NONE', *, *, #35, .T. ) ;
#142 = CARTESIAN_POINT ( 'NONE',  ( 9.581843339940696616E-14, 1.499999999999992673, 27.44349005489899440 ) ) ;
#143 = EDGE_LOOP ( 'NONE', ( #252 ) ) ;
#144 = DIRECTION ( 'NONE',  ( 4.275831445896959482E-31, 1.000000000000000000, 1.224646799147353454E-16 ) ) ;
#145 = ORIENTED_EDGE ( 'NONE', *, *, #120, .T. ) ;
#146 = CARTESIAN_POINT ( 'NONE',  ( 3.491481338843133355E-14, -1.224646799147353454E-15, 10.00000000000000000 ) ) ;
#147 = FACE_OUTER_BOUND ( 'NONE', #163, .T. ) ;
#148 = DIRECTION ( 'NONE',  ( 0.0000000000000000000, 1.000000000000000000, 0.0000000000000000000 ) ) ;
#149 = ADVANCED_FACE ( 'NONE', ( #147 ), #286, .F. ) ;
#150 = PERSON_AND_ORGANIZATION_ROLE ( 'design_owner' ) ;
#151 = CARTESIAN_POINT ( 'NONE',  ( 8.728703347107833388E-14, -3.061616997868383831E-15, 25.00000000000000000 ) ) ;
#152 = APPLICATION_PROTOCOL_DEFINITION ( 'international standard', 'config_control_design', 1994, #49 ) ;
#153 = AXIS2_PLACEMENT_3D ( 'NONE', #151, #244, #29 ) ;
#154 = CIRCLE ( 'NONE', #34, 1.499999999999996003 ) ;
#155 = AXIS2_PLACEMENT_3D ( 'NONE', #123, #132, #83 ) ;
#156 = SHAPE_DEFINITION_REPRESENTATION ( #43, #298 ) ;
#157 = APPROVAL ( #36, 'UNSPECIFIED' ) ;
#158 = ORIENTED_EDGE ( 'NONE', *, *, #133, .F. ) ;
#159 = EDGE_LOOP ( 'NONE', ( #141 ) ) ;
#160 = VERTEX_POINT ( 'NONE', #218 ) ;
#161 = EDGE_LOOP ( 'NONE', ( #145 ) ) ;
#162 = FACE_OUTER_BOUND ( 'NONE', #139, .T. ) ;
#163 = EDGE_LOOP ( 'NONE', ( #46 ) ) ;
#164 = DIRECTION ( 'NONE',  ( 0.0000000000000000000, 1.000000000000000000, 0.0000000000000000000 ) ) ;
#165 = DIRECTION ( 'NONE',  ( 3.491481338843133355E-15, -1.224646799147353454E-16, 1.000000000000000000 ) ) ;
#166 = CIRCLE ( 'NONE', #54, 1.314999999999999947 ) ;
#167 = LOCAL_TIME ( 8, 11, 32.00000000000000000, #169 ) ;
#168 = DIRECTION ( 'NONE',  ( 3.491481338843133355E-15, -1.224646799147353454E-16, 1.000000000000000000 ) ) ;
#169 = COORDINATED_UNIVERSAL_TIME_OFFSET ( 1, 0, .AHEAD. ) ;
#170 = MANIFOLD_SOLID_BREP ( 'Corps-Déplacer/Copier1[2]', #181 ) ;
#171 = DIRECTION ( 'NONE',  ( -3.491481338843133355E-15, 1.224646799147353454E-16, -1.000000000000000000 ) ) ;
#172 = FACE_OUTER_BOUND ( 'NONE', #72, .T. ) ;
#173 =( GEOMETRIC_REPRESENTATION_CONTEXT ( 3 ) GLOBAL_UNCERTAINTY_ASSIGNED_CONTEXT ( ( #248 ) ) GLOBAL_UNIT_ASSIGNED_CONTEXT ( ( #215, #2, #192 ) ) REPRESENTATION_CONTEXT ( 'NONE', 'WORKASPACE' ) );
#174 = CYLINDRICAL_SURFACE ( 'NONE', #30, 1.499999999999999334 ) ;
#175 = ADVANCED_FACE ( 'NONE', ( #4 ), #195, .T. ) ;
#176 = CALENDAR_DATE ( 2021, 2, 12 ) ;
#177 = DIRECTION ( 'NONE',  ( 0.0000000000000000000, 1.000000000000000000, 0.0000000000000000000 ) ) ;
#178 = PERSON_AND_ORGANIZATION ( #136, #117 ) ;
#179 = CARTESIAN_POINT ( 'NONE',  ( 2.129803616694311221E-13, 8.998558695971062171E-33, 61.00000000000000000 ) ) ;
#180 = APPROVAL_DATE_TIME ( #238, #246 ) ;
#181 = CLOSED_SHELL ( 'NONE', ( #149, #292, #297, #175 ) ) ;
#182 = CC_DESIGN_APPROVAL ( #28, ( #105 ) ) ;
#183 = APPROVAL_STATUS ( 'not_yet_approved' ) ;
#184 = LOCAL_TIME ( 8, 11, 32.00000000000000000, #91 ) ;
#185 = ORIENTED_EDGE ( 'NONE', *, *, #16, .F. ) ;
#186 = VERTEX_POINT ( 'NONE', #42 ) ;
#187 = FACE_OUTER_BOUND ( 'NONE', #113, .T. ) ;
#188 = CARTESIAN_POINT ( 'NONE',  ( 8.728703347107833388E-14, -3.035766082959412415E-15, 25.00000000000000000 ) ) ;
#189 = ADVANCED_FACE ( 'NONE', ( #51 ), #13, .F. ) ;
#190 = CARTESIAN_POINT ( 'NONE',  ( 8.849961221477469775E-14, 1.130384493975578719, 25.34729635533384595 ) ) ;
#191 = AXIS2_PLACEMENT_3D ( 'NONE', #264, #76, #285 ) ;
#192 =( NAMED_UNIT ( * ) SI_UNIT ( $, .STERADIAN. ) SOLID_ANGLE_UNIT ( ) );
#193 = ORIENTED_EDGE ( 'NONE', *, *, #63, .T. ) ;
#194 = FACE_BOUND ( 'NONE', #295, .T. ) ;
#195 = PLANE ( 'NONE',  #287 ) ;
#196 = LOCAL_TIME ( 8, 11, 32.00000000000000000, #12 ) ;
#197 = PLANE ( 'NONE',  #209 ) ;
#198 = CARTESIAN_POINT ( 'NONE',  ( 2.119329172677781757E-13, -7.433606070824434221E-15, 60.69999999999999574 ) ) ;
#199 = AXIS2_PLACEMENT_3D ( 'NONE', #103, #171, #82 ) ;
#200 = CC_DESIGN_SECURITY_CLASSIFICATION ( #31, ( #105 ) ) ;
#201 = PERSON_AND_ORGANIZATION_ROLE ( 'creator' ) ;
#202 = DIRECTION ( 'NONE',  ( 4.275831445896959482E-31, 1.000000000000000000, 1.224646799147353454E-16 ) ) ;
#203 = DIRECTION ( 'NONE',  ( -3.491481338843133355E-15, 1.224646799147353454E-16, -1.000000000000000000 ) ) ;
#204 = COORDINATED_UNIVERSAL_TIME_OFFSET ( 1, 0, .AHEAD. ) ;
#205 = EDGE_CURVE ( 'NONE', #74, #74, #225, .T. ) ;
#206 = PRODUCT_RELATED_PRODUCT_CATEGORY ( 'detail', '', ( #217 ) ) ;
#207 = PERSON_AND_ORGANIZATION ( #136, #117 ) ;
#208 = EDGE_LOOP ( 'NONE', ( #193 ) ) ;
#209 = AXIS2_PLACEMENT_3D ( 'NONE', #98, #219, #27 ) ;
#210 = FACE_OUTER_BOUND ( 'NONE', #249, .T. ) ;
#211 = DIRECTION ( 'NONE',  ( 0.0000000000000000000, 1.000000000000000000, 0.0000000000000000000 ) ) ;
#212 = DIRECTION ( 'NONE',  ( 0.0000000000000000000, -1.000000000000000000, 0.0000000000000000000 ) ) ;
#213 = EDGE_LOOP ( 'NONE', ( #37 ) ) ;
#214 = DIRECTION ( 'NONE',  ( 3.491481338843133355E-15, -1.224646799147353454E-16, 1.000000000000000000 ) ) ;
#215 =( LENGTH_UNIT ( ) NAMED_UNIT ( * ) SI_UNIT ( .MILLI., .METRE. ) );
#216 = AXIS2_PLACEMENT_3D ( 'NONE', #198, #126, #127 ) ;
#217 = PRODUCT ( '327091', '327091', '', ( #48 ) ) ;
#218 = CARTESIAN_POINT ( 'NONE',  ( 2.119329172677781757E-13, 1.499999999999995559, 60.69999999999999574 ) ) ;
#219 = DIRECTION ( 'NONE',  ( 3.491481338843133355E-15, -1.224646799147353454E-16, 1.000000000000000000 ) ) ;
#220 = CC_DESIGN_PERSON_AND_ORGANIZATION_ASSIGNMENT ( #106, #32, ( #105 ) ) ;
#221 = CARTESIAN_POINT ( 'NONE',  ( 3.491481338843133355E-14, -1.224646799147353454E-15, 10.00000000000000000 ) ) ;
#222 = AXIS2_PLACEMENT_3D ( 'NONE', #230, #112, #211 ) ;
#223 = FACE_OUTER_BOUND ( 'NONE', #159, .T. ) ;
#224 = CARTESIAN_POINT ( 'NONE',  ( 3.621500934903067303E-14, -1.270251534412525622E-15, 10.37239092362731796 ) ) ;
#225 = CIRCLE ( 'NONE', #153, 1.099999999999999867 ) ;
#226 = DIRECTION ( 'NONE',  ( -3.491481338843133355E-15, 1.224646799147353454E-16, -1.000000000000000000 ) ) ;
#227 = SECURITY_CLASSIFICATION_LEVEL ( 'unclassified' ) ;
#228 = LOCAL_TIME ( 8, 11, 32.00000000000000000, #107 ) ;
#229 = EDGE_CURVE ( 'NONE', #67, #67, #154, .T. ) ;
#230 = CARTESIAN_POINT ( 'NONE',  ( 2.129803616694311221E-13, -7.470345474798856659E-15, 61.00000000000000000 ) ) ;
#231 = APPROVAL_PERSON_ORGANIZATION ( #86, #28, #99 ) ;
#232 = EDGE_LOOP ( 'NONE', ( #254 ) ) ;
#233 = FACE_BOUND ( 'NONE', #15, .T. ) ;
#234 = ORIENTED_EDGE ( 'NONE', *, *, #79, .F. ) ;
#235 = CIRCLE ( 'NONE', #11, 1.099999999999998312 ) ;
#236 = CC_DESIGN_PERSON_AND_ORGANIZATION_ASSIGNMENT ( #8, #201, ( #269 ) ) ;
#237 = CYLINDRICAL_SURFACE ( 'NONE', #199, 1.099999999999998979 ) ;
#238 = DATE_AND_TIME ( #128, #196 ) ;
#239 = DIRECTION ( 'NONE',  ( 0.0000000000000000000, 1.000000000000000000, 0.0000000000000000000 ) ) ;
#240 = DIRECTION ( 'NONE',  ( 0.0000000000000000000, 1.000000000000000000, 0.0000000000000000000 ) ) ;
#241 = AXIS2_PLACEMENT_3D ( 'NONE', #124, #122, #177 ) ;
#242 = FACE_OUTER_BOUND ( 'NONE', #143, .T. ) ;
#243 = CALENDAR_DATE ( 2021, 2, 12 ) ;
#244 = DIRECTION ( 'NONE',  ( -3.491481338843133355E-15, 1.224646799147353454E-16, -1.000000000000000000 ) ) ;
#245 = ADVANCED_FACE ( 'NONE', ( #194, #210 ), #294, .T. ) ;
#246 = APPROVAL ( #183, 'UNSPECIFIED' ) ;
#247 = APPROVAL_ROLE ( '' ) ;
#248 = UNCERTAINTY_MEASURE_WITH_UNIT (LENGTH_MEASURE( 1.000000000000000082E-05 ), #215, 'distance_accuracy_value', 'NONE');
#249 = EDGE_LOOP ( 'NONE', ( #89 ) ) ;
#250 = CONICAL_SURFACE ( 'NONE', #125, 1.099999999999998312, 0.5235987755982921543 ) ;
#251 = APPROVAL_PERSON_ORGANIZATION ( #207, #157, #247 ) ;
#252 = ORIENTED_EDGE ( 'NONE', *, *, #120, .F. ) ;
#253 = CARTESIAN_POINT ( 'NONE',  ( 2.129803616694311221E-13, 1.199999999999995515, 61.00000000000000000 ) ) ;
#254 = ORIENTED_EDGE ( 'NONE', *, *, #16, .T. ) ;
#255 = ADVANCED_FACE ( 'NONE', ( #17, #303 ), #116, .F. ) ;
#256 = EDGE_LOOP ( 'NONE', ( #20 ) ) ;
#257 = VERTEX_POINT ( 'NONE', #93 ) ;
#258 = AXIS2_PLACEMENT_3D ( 'NONE', #296, #19, #144 ) ;
#259 = DIRECTION ( 'NONE',  ( -4.275831445896959482E-31, -1.000000000000000000, -1.224646799147353454E-16 ) ) ;
#260 = DATE_AND_TIME ( #176, #167 ) ;
#261 = DIRECTION ( 'NONE',  ( -3.491481338843133355E-15, 1.224646799147353454E-16, -1.000000000000000000 ) ) ;
#262 = CARTESIAN_POINT ( 'NONE',  ( 3.401327234209349526E-31, -1.193024995977028760E-32, 9.741788381822898621E-17 ) ) ;
#263 = CIRCLE ( 'NONE', #134, 1.065000000000001723 ) ;
#264 = CARTESIAN_POINT ( 'NONE',  ( 8.728703347107829444E-16, -3.061616997868382402E-17, 0.2499999999999998890 ) ) ;
#265 = CARTESIAN_POINT ( 'NONE',  ( 6.802654468418699051E-31, -2.386049991954057520E-32, 1.948357676364579724E-16 ) ) ;
#266 = CC_DESIGN_PERSON_AND_ORGANIZATION_ASSIGNMENT ( #178, #81, ( #105 ) ) ;
#267 = APPROVAL_PERSON_ORGANIZATION ( #268, #246, #284 ) ;
#268 = PERSON_AND_ORGANIZATION ( #136, #117 ) ;
#269 = PRODUCT_DEFINITION ( 'UNKNOWN', '', #105, #109 ) ;
#270 = DATE_AND_TIME ( #14, #184 ) ;
#271 = CIRCLE ( 'NONE', #216, 1.500000000000002887 ) ;
#272 = CC_DESIGN_APPROVAL ( #246, ( #269 ) ) ;
#273 = CARTESIAN_POINT ( 'NONE',  ( 8.728703347107833388E-14, 1.099999999999996758, 25.00000000000000000 ) ) ;
#274 = EDGE_LOOP ( 'NONE', ( #68 ) ) ;
#275 = DIRECTION ( 'NONE',  ( 0.0000000000000000000, 1.000000000000000000, 0.0000000000000000000 ) ) ;
#276 = CLOSED_SHELL ( 'NONE', ( #118, #10, #60, #255, #245, #97, #280, #189 ) ) ;
#277 = CARTESIAN_POINT ( 'NONE',  ( 8.728703347107835360E-16, 1.314999999999998614, 0.2500000000000000555 ) ) ;
#278 = ORIENTED_EDGE ( 'NONE', *, *, #9, .T. ) ;
#279 = CARTESIAN_POINT ( 'NONE',  ( 9.581843339940696616E-14, -3.360858225316428154E-15, 27.44349005489899440 ) ) ;
#280 = ADVANCED_FACE ( 'NONE', ( #24, #135 ), #62, .T. ) ;
#281 = EDGE_LOOP ( 'NONE', ( #96 ) ) ;
#282 = VERTEX_POINT ( 'NONE', #71 ) ;
#283 = CARTESIAN_POINT ( 'NONE',  ( 3.491481338843133355E-14, 9.860920571001698171E-33, 10.00000000000000000 ) ) ;
#284 = APPROVAL_ROLE ( '' ) ;
#285 = DIRECTION ( 'NONE',  ( 4.393756527119174115E-31, 1.000000000000000000, 1.236732516143162322E-16 ) ) ;
#286 = PLANE ( 'NONE',  #1 ) ;
#287 = AXIS2_PLACEMENT_3D ( 'NONE', #283, #168, #259 ) ;
#288 = DATE_AND_TIME ( #243, #228 ) ;
#289 = FACE_BOUND ( 'NONE', #161, .T. ) ;
#290 = AXIS2_PLACEMENT_3D ( 'NONE', #95, #165, #110 ) ;
#291 = APPLICATION_PROTOCOL_DEFINITION ( 'international standard', 'config_control_design', 1994, #301 ) ;
#292 = ADVANCED_FACE ( 'NONE', ( #233, #121 ), #47, .T. ) ;
#293 = DATE_TIME_ROLE ( 'classification_date' ) ;
#294 = CONICAL_SURFACE ( 'NONE', #22, 1.499999999999996003, 0.1745329251994257591 ) ;
#295 = EDGE_LOOP ( 'NONE', ( #185 ) ) ;
#296 = CARTESIAN_POINT ( 'NONE',  ( 0.0000000000000000000, 0.0000000000000000000, 0.0000000000000000000 ) ) ;
#297 = ADVANCED_FACE ( 'NONE', ( #162, #69 ), #21, .T. ) ;
#298 = ADVANCED_BREP_SHAPE_REPRESENTATION ( '327091', ( #66, #170, #155 ), #173 ) ;
#299 = ORIENTED_EDGE ( 'NONE', *, *, #9, .F. ) ;
#300 = CARTESIAN_POINT ( 'NONE',  ( 2.129803616694311221E-13, -7.470345474798856659E-15, 61.00000000000000000 ) ) ;
#301 = APPLICATION_CONTEXT ( 'configuration controlled 3d designs of mechanical parts and assemblies' ) ;
#302 = EDGE_LOOP ( 'NONE', ( #278 ) ) ;
#303 = FACE_OUTER_BOUND ( 'NONE', #232, .T. ) ;
ENDSEC;
END-ISO-10303-21;
