ISO-10303-21;
HEADER;
FILE_DESCRIPTION (( 'STEP AP203' ),
    '1' );
FILE_NAME ('327090.step',
    '2021-12-02T07:11:31',
    ( '' ),
    ( '' ),
    'SwSTEP 2.0',
    'SolidWorks 2019',
    '' );
FILE_SCHEMA (( 'CONFIG_CONTROL_DESIGN' ));
ENDSEC;

DATA;
#1 = DIRECTION ( 'NONE',  ( -3.491481338843133355E-15, 1.224646799147353454E-16, -1.000000000000000000 ) ) ;
#2 = FACE_OUTER_BOUND ( 'NONE', #193, .T. ) ;
#3 = ORIENTED_EDGE ( 'NONE', *, *, #224, .F. ) ;
#4 = CARTESIAN_POINT ( 'NONE',  ( 8.728703347107829444E-16, -3.061616997868382402E-17, 0.2499999999999998890 ) ) ;
#5 = PRODUCT_DEFINITION_FORMATION_WITH_SPECIFIED_SOURCE ( 'ANY', '', #165, .NOT_KNOWN. ) ;
#6 = AXIS2_PLACEMENT_3D ( 'NONE', #220, #299, #57 ) ;
#7 = CALENDAR_DATE ( 2021, 2, 12 ) ;
#8 = EDGE_LOOP ( 'NONE', ( #55 ) ) ;
#9 = DIRECTION ( 'NONE',  ( 4.410526590199781296E-31, 1.000000000000000000, 1.241452869258212460E-16 ) ) ;
#10 = FACE_OUTER_BOUND ( 'NONE', #214, .T. ) ;
#11 = APPROVAL ( #100, 'UNSPECIFIED' ) ;
#12 = CARTESIAN_POINT ( 'NONE',  ( 3.491481338843133355E-14, -1.224646799147353454E-15, 10.00000000000000000 ) ) ;
#13 = DIRECTION ( 'NONE',  ( 4.275831445896960358E-31, 1.000000000000000000, 1.224646799147353454E-16 ) ) ;
#14 = ADVANCED_FACE ( 'NONE', ( #54, #25 ), #118, .F. ) ;
#15 = CONICAL_SURFACE ( 'NONE', #203, 1.309999999999998721, 0.7853981633974430610 ) ;
#16 = CARTESIAN_POINT ( 'NONE',  ( 3.618477223366789168E-14, -1.269190959173800578E-15, 10.36373066958947220 ) ) ;
#17 = CARTESIAN_POINT ( 'NONE',  ( 2.129803616694311221E-13, -7.470345474798856659E-15, 61.00000000000000000 ) ) ;
#18 = AXIS2_PLACEMENT_3D ( 'NONE', #16, #109, #246 ) ;
#19 = CARTESIAN_POINT ( 'NONE',  ( 8.728703347107833388E-14, 1.099999999999996758, 25.00000000000000000 ) ) ;
#20 = EDGE_LOOP ( 'NONE', ( #267 ) ) ;
#21 = CARTESIAN_POINT ( 'NONE',  ( 7.570943305532645426E-31, 1.060000000000001386, 2.168404344971008868E-16 ) ) ;
#22 =( LENGTH_UNIT ( ) NAMED_UNIT ( * ) SI_UNIT ( .MILLI., .METRE. ) );
#23 = APPROVAL_PERSON_ORGANIZATION ( #158, #71, #259 ) ;
#24 = EDGE_CURVE ( 'NONE', #301, #301, #231, .T. ) ;
#25 = FACE_OUTER_BOUND ( 'NONE', #51, .T. ) ;
#26 = CALENDAR_DATE ( 2021, 2, 12 ) ;
#27 = LOCAL_TIME ( 8, 11, 31.00000000000000000, #170 ) ;
#28 = FACE_OUTER_BOUND ( 'NONE', #251, .T. ) ;
#29 = AXIS2_PLACEMENT_3D ( 'NONE', #61, #34, #89 ) ;
#30 = DATE_AND_TIME ( #7, #116 ) ;
#31 = EDGE_LOOP ( 'NONE', ( #209 ) ) ;
#32 = EDGE_LOOP ( 'NONE', ( #73 ) ) ;
#33 = CARTESIAN_POINT ( 'NONE',  ( 0.0000000000000000000, 0.0000000000000000000, 0.0000000000000000000 ) ) ;
#34 = DIRECTION ( 'NONE',  ( -3.491481338843133355E-15, 1.224646799147353454E-16, -1.000000000000000000 ) ) ;
#35 = FACE_BOUND ( 'NONE', #48, .T. ) ;
#36 = DESIGN_CONTEXT ( 'detailed design', #135, 'design' ) ;
#37 = FACE_OUTER_BOUND ( 'NONE', #227, .T. ) ;
#38 = CARTESIAN_POINT ( 'NONE',  ( 8.728703347107835360E-16, 1.309999999999998721, 0.2500000000000000555 ) ) ;
#39 = VERTEX_POINT ( 'NONE', #256 ) ;
#40 = AXIS2_PLACEMENT_3D ( 'NONE', #12, #106, #62 ) ;
#41 = DIRECTION ( 'NONE',  ( -3.491481338843133355E-15, 1.224646799147353454E-16, -1.000000000000000000 ) ) ;
#42 = ADVANCED_FACE ( 'NONE', ( #10 ), #197, .T. ) ;
#43 = CARTESIAN_POINT ( 'NONE',  ( 3.038561972881861928E-31, -1.065784070704387409E-32, 8.702787378748122892E-17 ) ) ;
#44 = AXIS2_PLACEMENT_3D ( 'NONE', #159, #41, #117 ) ;
#45 = DIRECTION ( 'NONE',  ( 1.000000000000000000, 0.0000000000000000000, 0.0000000000000000000 ) ) ;
#46 = PERSON_AND_ORGANIZATION ( #111, #245 ) ;
#47 = ADVANCED_FACE ( 'NONE', ( #28, #237 ), #81, .T. ) ;
#48 = EDGE_LOOP ( 'NONE', ( #166 ) ) ;
#49 = APPROVAL_ROLE ( '' ) ;
#50 = ORIENTED_EDGE ( 'NONE', *, *, #207, .T. ) ;
#51 = EDGE_LOOP ( 'NONE', ( #235 ) ) ;
#52 = CIRCLE ( 'NONE', #29, 1.130384493975581606 ) ;
#53 = PERSON_AND_ORGANIZATION ( #111, #245 ) ;
#54 = FACE_OUTER_BOUND ( 'NONE', #260, .T. ) ;
#55 = ORIENTED_EDGE ( 'NONE', *, *, #233, .T. ) ;
#56 = MANIFOLD_SOLID_BREP ( 'Corps-Déplacer/Copier1[2]', #247 ) ;
#57 = DIRECTION ( 'NONE',  ( 0.0000000000000000000, 1.000000000000000000, 0.0000000000000000000 ) ) ;
#58 = AXIS2_PLACEMENT_3D ( 'NONE', #298, #249, #181 ) ;
#59 = PLANE ( 'NONE',  #58 ) ;
#60 = DIRECTION ( 'NONE',  ( 4.275831445896959482E-31, 1.000000000000000000, 1.224646799147353454E-16 ) ) ;
#61 = CARTESIAN_POINT ( 'NONE',  ( 8.849961221477469775E-14, -3.104148534859897544E-15, 25.34729635533384595 ) ) ;
#62 = DIRECTION ( 'NONE',  ( 0.0000000000000000000, 1.000000000000000000, 0.0000000000000000000 ) ) ;
#63 = UNCERTAINTY_MEASURE_WITH_UNIT (LENGTH_MEASURE( 1.000000000000000082E-05 ), #22, 'distance_accuracy_value', 'NONE');
#64 = CC_DESIGN_PERSON_AND_ORGANIZATION_ASSIGNMENT ( #65, #279, ( #165 ) ) ;
#65 = PERSON_AND_ORGANIZATION ( #111, #245 ) ;
#66 = APPLICATION_PROTOCOL_DEFINITION ( 'international standard', 'config_control_design', 1994, #135 ) ;
#67 = CARTESIAN_POINT ( 'NONE',  ( 3.491481338843133355E-14, 1.309999999999998721, 10.00000000000000000 ) ) ;
#68 = CONICAL_SURFACE ( 'NONE', #295, 1.499999999999996003, 0.1745329251994257591 ) ;
#69 = ADVANCED_FACE ( 'NONE', ( #87 ), #59, .F. ) ;
#70 = DIRECTION ( 'NONE',  ( 0.0000000000000000000, 0.0000000000000000000, 1.000000000000000000 ) ) ;
#71 = APPROVAL ( #173, 'UNSPECIFIED' ) ;
#72 = AXIS2_PLACEMENT_3D ( 'NONE', #303, #94, #253 ) ;
#73 = ORIENTED_EDGE ( 'NONE', *, *, #254, .T. ) ;
#74 = APPLICATION_CONTEXT ( 'configuration controlled 3d designs of mechanical parts and assemblies' ) ;
#75 = PERSON_AND_ORGANIZATION_ROLE ( 'design_supplier' ) ;
#76 = EDGE_LOOP ( 'NONE', ( #131 ) ) ;
#77 = PERSON_AND_ORGANIZATION_ROLE ( 'classification_officer' ) ;
#78 = ORIENTED_EDGE ( 'NONE', *, *, #254, .F. ) ;
#79 = CC_DESIGN_PERSON_AND_ORGANIZATION_ASSIGNMENT ( #80, #261, ( #188 ) ) ;
#80 = PERSON_AND_ORGANIZATION ( #111, #245 ) ;
#81 = CYLINDRICAL_SURFACE ( 'NONE', #141, 1.309999999999999387 ) ;
#82 = DIRECTION ( 'NONE',  ( 0.0000000000000000000, 1.000000000000000000, 0.0000000000000000000 ) ) ;
#83 = ADVANCED_BREP_SHAPE_REPRESENTATION ( '327090', ( #257, #56, #226 ), #300 ) ;
#84 = PRODUCT_RELATED_PRODUCT_CATEGORY ( 'detail', '', ( #165 ) ) ;
#85 = CIRCLE ( 'NONE', #252, 1.310000000000000053 ) ;
#86 = AXIS2_PLACEMENT_3D ( 'NONE', #105, #201, #88 ) ;
#87 = FACE_OUTER_BOUND ( 'NONE', #20, .T. ) ;
#88 = DIRECTION ( 'NONE',  ( 0.0000000000000000000, 1.000000000000000000, 0.0000000000000000000 ) ) ;
#89 = DIRECTION ( 'NONE',  ( 0.0000000000000000000, 1.000000000000000000, 0.0000000000000000000 ) ) ;
#90 = CC_DESIGN_APPROVAL ( #11, ( #5 ) ) ;
#91 = VERTEX_POINT ( 'NONE', #282 ) ;
#92 = CARTESIAN_POINT ( 'NONE',  ( 0.0000000000000000000, 0.0000000000000000000, 0.0000000000000000000 ) ) ;
#93 = ADVANCED_FACE ( 'NONE', ( #37, #205 ), #108, .T. ) ;
#94 = DIRECTION ( 'NONE',  ( 3.491481338843133355E-15, -1.224646799147353454E-16, 1.000000000000000000 ) ) ;
#95 = VERTEX_POINT ( 'NONE', #67 ) ;
#96 = APPROVAL_PERSON_ORGANIZATION ( #120, #126, #49 ) ;
#97 = CIRCLE ( 'NONE', #40, 1.310000000000000053 ) ;
#98 = PERSON_AND_ORGANIZATION ( #111, #245 ) ;
#99 = ORIENTED_EDGE ( 'NONE', *, *, #207, .F. ) ;
#100 = APPROVAL_STATUS ( 'not_yet_approved' ) ;
#101 = EDGE_LOOP ( 'NONE', ( #78 ) ) ;
#102 = SECURITY_CLASSIFICATION_LEVEL ( 'unclassified' ) ;
#103 = DIRECTION ( 'NONE',  ( 4.275831445896960358E-31, 1.000000000000000000, 1.224646799147353454E-16 ) ) ;
#104 = AXIS2_PLACEMENT_3D ( 'NONE', #4, #169, #9 ) ;
#105 = CARTESIAN_POINT ( 'NONE',  ( 8.728703347107833388E-14, -3.061616997868383831E-15, 25.00000000000000000 ) ) ;
#106 = DIRECTION ( 'NONE',  ( -3.491481338843133355E-15, 1.224646799147353454E-16, -1.000000000000000000 ) ) ;
#107 = PLANE ( 'NONE',  #161 ) ;
#108 = CONICAL_SURFACE ( 'NONE', #281, 1.200000000000002842, 0.7853981633974453924 ) ;
#109 = DIRECTION ( 'NONE',  ( -3.491481338843133355E-15, 1.224646799147353454E-16, -1.000000000000000000 ) ) ;
#110 = DIRECTION ( 'NONE',  ( 4.275831445896959482E-31, 1.000000000000000000, 1.224646799147353454E-16 ) ) ;
#111 = PERSON ( 'UNSPECIFIED', 'UNSPECIFIED', 'UNSPECIFIED', ('UNSPECIFIED'), ('UNSPECIFIED'), ('UNSPECIFIED') ) ;
#112 = FACE_OUTER_BOUND ( 'NONE', #32, .T. ) ;
#113 = ORIENTED_EDGE ( 'NONE', *, *, #168, .F. ) ;
#114 = EDGE_CURVE ( 'NONE', #163, #163, #297, .T. ) ;
#115 = CARTESIAN_POINT ( 'NONE',  ( 9.581843339940696616E-14, 1.499999999999992673, 27.44349005489899440 ) ) ;
#116 = LOCAL_TIME ( 8, 11, 31.00000000000000000, #213 ) ;
#117 = DIRECTION ( 'NONE',  ( 4.275831445896959482E-31, 1.000000000000000000, 1.224646799147353454E-16 ) ) ;
#118 = TOROIDAL_SURFACE ( 'NONE', #199, 3.100000000000000089, 2.000000000000000000 ) ;
#119 = ADVANCED_FACE ( 'NONE', ( #151, #136 ), #15, .T. ) ;
#120 = PERSON_AND_ORGANIZATION ( #111, #245 ) ;
#121 = EDGE_LOOP ( 'NONE', ( #174 ) ) ;
#122 = LOCAL_TIME ( 8, 11, 31.00000000000000000, #146 ) ;
#123 = CALENDAR_DATE ( 2021, 2, 12 ) ;
#124 = AXIS2_PLACEMENT_3D ( 'NONE', #275, #177, #296 ) ;
#125 = EDGE_LOOP ( 'NONE', ( #288 ) ) ;
#126 = APPROVAL ( #263, 'UNSPECIFIED' ) ;
#127 = SHAPE_DEFINITION_REPRESENTATION ( #129, #83 ) ;
#128 = EDGE_LOOP ( 'NONE', ( #264 ) ) ;
#129 = PRODUCT_DEFINITION_SHAPE ( 'NONE', 'NONE',  #188 ) ;
#130 = APPROVAL_ROLE ( '' ) ;
#131 = ORIENTED_EDGE ( 'NONE', *, *, #224, .T. ) ;
#132 = CC_DESIGN_DATE_AND_TIME_ASSIGNMENT ( #30, #167, ( #188 ) ) ;
#133 = FACE_OUTER_BOUND ( 'NONE', #191, .T. ) ;
#134 = CARTESIAN_POINT ( 'NONE',  ( 8.728703347107829444E-16, -3.061616997868382402E-17, 0.2499999999999998890 ) ) ;
#135 = APPLICATION_CONTEXT ( 'configuration controlled 3d designs of mechanical parts and assemblies' ) ;
#136 = FACE_OUTER_BOUND ( 'NONE', #194, .T. ) ;
#137 = EDGE_CURVE ( 'NONE', #39, #39, #178, .T. ) ;
#138 = DIRECTION ( 'NONE',  ( 3.491481338843133355E-15, -1.224646799147353454E-16, 1.000000000000000000 ) ) ;
#139 = CARTESIAN_POINT ( 'NONE',  ( 2.119329172677781757E-13, 1.499999999999995559, 60.69999999999999574 ) ) ;
#140 = DIRECTION ( 'NONE',  ( 4.275831445896960358E-31, 1.000000000000000000, 1.224646799147353700E-16 ) ) ;
#141 = AXIS2_PLACEMENT_3D ( 'NONE', #269, #150, #110 ) ;
#142 = PLANE ( 'NONE',  #72 ) ;
#143 = APPLICATION_PROTOCOL_DEFINITION ( 'international standard', 'config_control_design', 1994, #74 ) ;
#144 = PERSON_AND_ORGANIZATION_ROLE ( 'creator' ) ;
#145 = EDGE_LOOP ( 'NONE', ( #113 ) ) ;
#146 = COORDINATED_UNIVERSAL_TIME_OFFSET ( 1, 0, .AHEAD. ) ;
#147 = CIRCLE ( 'NONE', #160, 1.060000000000001386 ) ;
#148 = ORIENTED_EDGE ( 'NONE', *, *, #24, .T. ) ;
#149 = ORIENTED_EDGE ( 'NONE', *, *, #198, .F. ) ;
#150 = DIRECTION ( 'NONE',  ( -3.491481338843133355E-15, 1.224646799147353454E-16, -1.000000000000000000 ) ) ;
#151 = FACE_BOUND ( 'NONE', #101, .T. ) ;
#152 = DIRECTION ( 'NONE',  ( -3.491481338843133355E-15, 1.224646799147353454E-16, -1.000000000000000000 ) ) ;
#153 = FACE_OUTER_BOUND ( 'NONE', #238, .T. ) ;
#154 = DIRECTION ( 'NONE',  ( 0.0000000000000000000, 1.000000000000000000, 0.0000000000000000000 ) ) ;
#155 = CC_DESIGN_SECURITY_CLASSIFICATION ( #164, ( #5 ) ) ;
#156 = FACE_OUTER_BOUND ( 'NONE', #121, .T. ) ;
#157 = ADVANCED_FACE ( 'NONE', ( #292, #219 ), #68, .T. ) ;
#158 = PERSON_AND_ORGANIZATION ( #111, #245 ) ;
#159 = CARTESIAN_POINT ( 'NONE',  ( 0.0000000000000000000, 0.0000000000000000000, 0.0000000000000000000 ) ) ;
#160 = AXIS2_PLACEMENT_3D ( 'NONE', #43, #1, #140 ) ;
#161 = AXIS2_PLACEMENT_3D ( 'NONE', #278, #200, #60 ) ;
#162 =( NAMED_UNIT ( * ) PLANE_ANGLE_UNIT ( ) SI_UNIT ( $, .RADIAN. ) );
#163 = VERTEX_POINT ( 'NONE', #139 ) ;
#164 = SECURITY_CLASSIFICATION ( '', '', #102 ) ;
#165 = PRODUCT ( '327090', '327090', '', ( #185 ) ) ;
#166 = ORIENTED_EDGE ( 'NONE', *, *, #137, .T. ) ;
#167 = DATE_TIME_ROLE ( 'creation_date' ) ;
#168 = EDGE_CURVE ( 'NONE', #225, #225, #52, .T. ) ;
#169 = DIRECTION ( 'NONE',  ( -3.491481338843133355E-15, 1.224646799147353454E-16, -1.000000000000000000 ) ) ;
#170 = COORDINATED_UNIVERSAL_TIME_OFFSET ( 1, 0, .AHEAD. ) ;
#171 = ORIENTED_EDGE ( 'NONE', *, *, #114, .F. ) ;
#172 = DATE_AND_TIME ( #192, #265 ) ;
#173 = APPROVAL_STATUS ( 'not_yet_approved' ) ;
#174 = ORIENTED_EDGE ( 'NONE', *, *, #180, .F. ) ;
#175 = ADVANCED_FACE ( 'NONE', ( #156, #240 ), #218, .T. ) ;
#176 = DIRECTION ( 'NONE',  ( 3.491481338843133355E-15, -1.224646799147353454E-16, 1.000000000000000000 ) ) ;
#177 = DIRECTION ( 'NONE',  ( -3.491481338843133355E-15, 1.224646799147353454E-16, -1.000000000000000000 ) ) ;
#178 = CIRCLE ( 'NONE', #6, 1.099999999999998312 ) ;
#179 = DIRECTION ( 'NONE',  ( -4.410526590199781296E-31, -1.000000000000000000, -1.241452869258212460E-16 ) ) ;
#180 = EDGE_CURVE ( 'NONE', #208, #208, #236, .T. ) ;
#181 = DIRECTION ( 'NONE',  ( -4.275831445896959482E-31, -1.000000000000000000, -1.224646799147353454E-16 ) ) ;
#182 = DIRECTION ( 'NONE',  ( -3.491481338843133355E-15, 1.224646799147353454E-16, -1.000000000000000000 ) ) ;
#183 = ADVANCED_FACE ( 'NONE', ( #133 ), #107, .F. ) ;
#184 =( NAMED_UNIT ( * ) SI_UNIT ( $, .STERADIAN. ) SOLID_ANGLE_UNIT ( ) );
#185 = MECHANICAL_CONTEXT ( 'NONE', #74, 'mechanical' ) ;
#186 = AXIS2_PLACEMENT_3D ( 'NONE', #33, #223, #13 ) ;
#187 = CYLINDRICAL_SURFACE ( 'NONE', #44, 1.099999999999998979 ) ;
#188 = PRODUCT_DEFINITION ( 'UNKNOWN', '', #5, #36 ) ;
#189 = COORDINATED_UNIVERSAL_TIME_OFFSET ( 1, 0, .AHEAD. ) ;
#190 = CC_DESIGN_APPROVAL ( #126, ( #164 ) ) ;
#191 = EDGE_LOOP ( 'NONE', ( #3 ) ) ;
#192 = CALENDAR_DATE ( 2021, 2, 12 ) ;
#193 = EDGE_LOOP ( 'NONE', ( #50 ) ) ;
#194 = EDGE_LOOP ( 'NONE', ( #148 ) ) ;
#195 = LOCAL_TIME ( 8, 11, 31.00000000000000000, #266 ) ;
#196 = CALENDAR_DATE ( 2021, 2, 12 ) ;
#197 = PLANE ( 'NONE',  #242 ) ;
#198 = EDGE_CURVE ( 'NONE', #91, #91, #97, .T. ) ;
#199 = AXIS2_PLACEMENT_3D ( 'NONE', #217, #287, #103 ) ;
#200 = DIRECTION ( 'NONE',  ( -3.491481338843133355E-15, 1.224646799147353454E-16, -1.000000000000000000 ) ) ;
#201 = DIRECTION ( 'NONE',  ( -3.491481338843133355E-15, 1.224646799147353454E-16, -1.000000000000000000 ) ) ;
#202 = DIRECTION ( 'NONE',  ( -3.491481338843133355E-15, 1.224646799147353454E-16, -1.000000000000000000 ) ) ;
#203 = AXIS2_PLACEMENT_3D ( 'NONE', #134, #176, #179 ) ;
#204 = DIRECTION ( 'NONE',  ( -3.491481338843133355E-15, 1.224646799147353454E-16, -1.000000000000000000 ) ) ;
#205 = FACE_BOUND ( 'NONE', #76, .T. ) ;
#206 = CARTESIAN_POINT ( 'NONE',  ( 2.129803616694311221E-13, 1.199999999999995515, 61.00000000000000000 ) ) ;
#207 = EDGE_CURVE ( 'NONE', #228, #228, #212, .T. ) ;
#208 = VERTEX_POINT ( 'NONE', #115 ) ;
#209 = ORIENTED_EDGE ( 'NONE', *, *, #137, .F. ) ;
#210 = CC_DESIGN_PERSON_AND_ORGANIZATION_ASSIGNMENT ( #53, #77, ( #164 ) ) ;
#211 = DATE_AND_TIME ( #26, #27 ) ;
#212 = CIRCLE ( 'NONE', #86, 1.099999999999999867 ) ;
#213 = COORDINATED_UNIVERSAL_TIME_OFFSET ( 1, 0, .AHEAD. ) ;
#214 = EDGE_LOOP ( 'NONE', ( #285 ) ) ;
#215 = CLOSED_SHELL ( 'NONE', ( #69, #241, #248, #14, #157, #175, #93, #183 ) ) ;
#216 = PERSON_AND_ORGANIZATION ( #111, #245 ) ;
#217 = CARTESIAN_POINT ( 'NONE',  ( 8.728703347107833388E-14, -3.035766082959412415E-15, 25.00000000000000000 ) ) ;
#218 = CYLINDRICAL_SURFACE ( 'NONE', #186, 1.499999999999999334 ) ;
#219 = FACE_OUTER_BOUND ( 'NONE', #125, .T. ) ;
#220 = CARTESIAN_POINT ( 'NONE',  ( 3.618477223366789168E-14, -1.269190959173800578E-15, 10.36373066958947220 ) ) ;
#221 = AXIS2_PLACEMENT_3D ( 'NONE', #244, #182, #222 ) ;
#222 = DIRECTION ( 'NONE',  ( 0.0000000000000000000, 1.000000000000000000, 0.0000000000000000000 ) ) ;
#223 = DIRECTION ( 'NONE',  ( -3.491481338843133355E-15, 1.224646799147353454E-16, -1.000000000000000000 ) ) ;
#224 = EDGE_CURVE ( 'NONE', #250, #250, #255, .T. ) ;
#225 = VERTEX_POINT ( 'NONE', #280 ) ;
#226 = AXIS2_PLACEMENT_3D ( 'NONE', #92, #70, #45 ) ;
#227 = EDGE_LOOP ( 'NONE', ( #171 ) ) ;
#228 = VERTEX_POINT ( 'NONE', #19 ) ;
#229 = VERTEX_POINT ( 'NONE', #21 ) ;
#230 = FACE_OUTER_BOUND ( 'NONE', #31, .T. ) ;
#231 = CIRCLE ( 'NONE', #104, 1.309999999999998721 ) ;
#232 = DATE_AND_TIME ( #123, #195 ) ;
#233 = EDGE_CURVE ( 'NONE', #95, #95, #85, .T. ) ;
#234 = DATE_TIME_ROLE ( 'classification_date' ) ;
#235 = ORIENTED_EDGE ( 'NONE', *, *, #168, .T. ) ;
#236 = CIRCLE ( 'NONE', #221, 1.499999999999996003 ) ;
#237 = FACE_OUTER_BOUND ( 'NONE', #8, .T. ) ;
#238 = EDGE_LOOP ( 'NONE', ( #149 ) ) ;
#239 = ORIENTED_EDGE ( 'NONE', *, *, #24, .F. ) ;
#240 = FACE_OUTER_BOUND ( 'NONE', #128, .T. ) ;
#241 = ADVANCED_FACE ( 'NONE', ( #153, #35 ), #272, .T. ) ;
#242 = AXIS2_PLACEMENT_3D ( 'NONE', #283, #262, #291 ) ;
#243 = CARTESIAN_POINT ( 'NONE',  ( 9.581843339940696616E-14, -3.360858225316428154E-15, 27.44349005489899440 ) ) ;
#244 = CARTESIAN_POINT ( 'NONE',  ( 9.581843339940696616E-14, -3.360858225316428154E-15, 27.44349005489899440 ) ) ;
#245 = ORGANIZATION ( 'UNSPECIFIED', 'UNSPECIFIED', '' ) ;
#246 = DIRECTION ( 'NONE',  ( 0.0000000000000000000, 1.000000000000000000, 0.0000000000000000000 ) ) ;
#247 = CLOSED_SHELL ( 'NONE', ( #277, #119, #47, #42 ) ) ;
#248 = ADVANCED_FACE ( 'NONE', ( #230, #2 ), #187, .T. ) ;
#249 = DIRECTION ( 'NONE',  ( 3.491481338843133355E-15, -1.224646799147353454E-16, 1.000000000000000000 ) ) ;
#250 = VERTEX_POINT ( 'NONE', #206 ) ;
#251 = EDGE_LOOP ( 'NONE', ( #239 ) ) ;
#252 = AXIS2_PLACEMENT_3D ( 'NONE', #274, #152, #154 ) ;
#253 = DIRECTION ( 'NONE',  ( -4.275831445896959482E-31, -1.000000000000000000, -1.224646799147353454E-16 ) ) ;
#254 = EDGE_CURVE ( 'NONE', #229, #229, #147, .T. ) ;
#255 = CIRCLE ( 'NONE', #124, 1.200000000000002842 ) ;
#256 = CARTESIAN_POINT ( 'NONE',  ( 3.618477223366789168E-14, 1.099999999999996980, 10.36373066958947220 ) ) ;
#257 = MANIFOLD_SOLID_BREP ( 'Corps-Déplacer/Copier1[1]', #215 ) ;
#258 = CC_DESIGN_DATE_AND_TIME_ASSIGNMENT ( #211, #234, ( #164 ) ) ;
#259 = APPROVAL_ROLE ( '' ) ;
#260 = EDGE_LOOP ( 'NONE', ( #99 ) ) ;
#261 = PERSON_AND_ORGANIZATION_ROLE ( 'creator' ) ;
#262 = DIRECTION ( 'NONE',  ( 3.491481338843133355E-15, -1.224646799147353454E-16, 1.000000000000000000 ) ) ;
#263 = APPROVAL_STATUS ( 'not_yet_approved' ) ;
#264 = ORIENTED_EDGE ( 'NONE', *, *, #114, .T. ) ;
#265 = LOCAL_TIME ( 8, 11, 31.00000000000000000, #189 ) ;
#266 = COORDINATED_UNIVERSAL_TIME_OFFSET ( 1, 0, .AHEAD. ) ;
#267 = ORIENTED_EDGE ( 'NONE', *, *, #198, .T. ) ;
#268 = APPROVAL_DATE_TIME ( #290, #126 ) ;
#269 = CARTESIAN_POINT ( 'NONE',  ( 0.0000000000000000000, 0.0000000000000000000, 0.0000000000000000000 ) ) ;
#270 = CC_DESIGN_PERSON_AND_ORGANIZATION_ASSIGNMENT ( #46, #144, ( #5 ) ) ;
#271 = CARTESIAN_POINT ( 'NONE',  ( 2.119329172677781757E-13, -7.433606070824434221E-15, 60.69999999999999574 ) ) ;
#272 = CONICAL_SURFACE ( 'NONE', #18, 1.099999999999998312, 0.5235987755982929315 ) ;
#273 = AXIS2_PLACEMENT_3D ( 'NONE', #271, #202, #276 ) ;
#274 = CARTESIAN_POINT ( 'NONE',  ( 3.491481338843133355E-14, -1.224646799147353454E-15, 10.00000000000000000 ) ) ;
#275 = CARTESIAN_POINT ( 'NONE',  ( 2.129803616694311221E-13, -7.470345474798856659E-15, 61.00000000000000000 ) ) ;
#276 = DIRECTION ( 'NONE',  ( 0.0000000000000000000, 1.000000000000000000, 0.0000000000000000000 ) ) ;
#277 = ADVANCED_FACE ( 'NONE', ( #112 ), #142, .F. ) ;
#278 = CARTESIAN_POINT ( 'NONE',  ( 2.129803616694311221E-13, 8.998558695971062171E-33, 61.00000000000000000 ) ) ;
#279 = PERSON_AND_ORGANIZATION_ROLE ( 'design_owner' ) ;
#280 = CARTESIAN_POINT ( 'NONE',  ( 8.849961221477469775E-14, 1.130384493975578719, 25.34729635533384595 ) ) ;
#281 = AXIS2_PLACEMENT_3D ( 'NONE', #17, #204, #82 ) ;
#282 = CARTESIAN_POINT ( 'NONE',  ( 3.491481338843133355E-14, 1.309999999999998721, 10.00000000000000000 ) ) ;
#283 = CARTESIAN_POINT ( 'NONE',  ( 3.491481338843133355E-14, 9.823426576435151457E-33, 10.00000000000000000 ) ) ;
#284 = APPROVAL_DATE_TIME ( #232, #71 ) ;
#285 = ORIENTED_EDGE ( 'NONE', *, *, #233, .F. ) ;
#286 = APPROVAL_DATE_TIME ( #172, #11 ) ;
#287 = DIRECTION ( 'NONE',  ( -3.491481338843133355E-15, 1.224646799147353454E-16, -1.000000000000000000 ) ) ;
#288 = ORIENTED_EDGE ( 'NONE', *, *, #180, .T. ) ;
#289 = APPROVAL_PERSON_ORGANIZATION ( #98, #11, #130 ) ;
#290 = DATE_AND_TIME ( #196, #122 ) ;
#291 = DIRECTION ( 'NONE',  ( -4.275831445896959482E-31, -1.000000000000000000, -1.224646799147353454E-16 ) ) ;
#292 = FACE_BOUND ( 'NONE', #145, .T. ) ;
#293 = DIRECTION ( 'NONE',  ( 0.0000000000000000000, -1.000000000000000000, 0.0000000000000000000 ) ) ;
#294 = CC_DESIGN_APPROVAL ( #71, ( #188 ) ) ;
#295 = AXIS2_PLACEMENT_3D ( 'NONE', #243, #138, #293 ) ;
#296 = DIRECTION ( 'NONE',  ( 0.0000000000000000000, 1.000000000000000000, 0.0000000000000000000 ) ) ;
#297 = CIRCLE ( 'NONE', #273, 1.500000000000002887 ) ;
#298 = CARTESIAN_POINT ( 'NONE',  ( 3.491481338843133355E-14, 9.823426576435151457E-33, 10.00000000000000000 ) ) ;
#299 = DIRECTION ( 'NONE',  ( -3.491481338843133355E-15, 1.224646799147353454E-16, -1.000000000000000000 ) ) ;
#300 =( GEOMETRIC_REPRESENTATION_CONTEXT ( 3 ) GLOBAL_UNCERTAINTY_ASSIGNED_CONTEXT ( ( #63 ) ) GLOBAL_UNIT_ASSIGNED_CONTEXT ( ( #22, #162, #184 ) ) REPRESENTATION_CONTEXT ( 'NONE', 'WORKASPACE' ) );
#301 = VERTEX_POINT ( 'NONE', #38 ) ;
#302 = CC_DESIGN_PERSON_AND_ORGANIZATION_ASSIGNMENT ( #216, #75, ( #5 ) ) ;
#303 = CARTESIAN_POINT ( 'NONE',  ( 1.519280986440930964E-31, -5.328920353521937043E-33, 4.351393689374061446E-17 ) ) ;
ENDSEC;
END-ISO-10303-21;
