ISO-10303-21;
HEADER;
FILE_DESCRIPTION (( 'STEP AP203' ),
    '1' );
FILE_NAME ('327089.step',
    '2021-12-02T07:11:31',
    ( '' ),
    ( '' ),
    'SwSTEP 2.0',
    'SolidWorks 2019',
    '' );
FILE_SCHEMA (( 'CONFIG_CONTROL_DESIGN' ));
ENDSEC;

DATA;
#1 = DIRECTION ( 'NONE',  ( 0.0000000000000000000, 1.000000000000000000, 0.0000000000000000000 ) ) ;
#2 = CONICAL_SURFACE ( 'NONE', #109, 1.499999999999996003, 0.1745329251994257591 ) ;
#3 = CARTESIAN_POINT ( 'NONE',  ( 8.728703347107829444E-16, -3.061616997868382402E-17, 0.2499999999999998890 ) ) ;
#4 = DIRECTION ( 'NONE',  ( -4.275831445896959482E-31, -1.000000000000000000, -1.224646799147353454E-16 ) ) ;
#5 = ADVANCED_FACE ( 'NONE', ( #151, #271 ), #128, .T. ) ;
#6 = CARTESIAN_POINT ( 'NONE',  ( 1.135641495829896858E-30, 1.055000000000001270, 3.252606517456513302E-16 ) ) ;
#7 = CC_DESIGN_APPROVAL ( #259, ( #97 ) ) ;
#8 = DIRECTION ( 'NONE',  ( 0.0000000000000000000, 1.000000000000000000, 0.0000000000000000000 ) ) ;
#9 = ORIENTED_EDGE ( 'NONE', *, *, #220, .F. ) ;
#10 = DIRECTION ( 'NONE',  ( -3.491481338843133355E-15, 1.224646799147353454E-16, -1.000000000000000000 ) ) ;
#11 = EDGE_LOOP ( 'NONE', ( #280 ) ) ;
#12 = AXIS2_PLACEMENT_3D ( 'NONE', #78, #146, #240 ) ;
#13 = CARTESIAN_POINT ( 'NONE',  ( 3.615453511830511664E-14, 1.099999999999996980, 10.35507041555162644 ) ) ;
#14 = CALENDAR_DATE ( 2021, 2, 12 ) ;
#15 = EDGE_CURVE ( 'NONE', #166, #166, #249, .T. ) ;
#16 = DATE_TIME_ROLE ( 'classification_date' ) ;
#17 = LOCAL_TIME ( 8, 11, 31.00000000000000000, #298 ) ;
#18 = SHAPE_DEFINITION_REPRESENTATION ( #162, #289 ) ;
#19 = AXIS2_PLACEMENT_3D ( 'NONE', #155, #112, #23 ) ;
#20 = CC_DESIGN_DATE_AND_TIME_ASSIGNMENT ( #38, #150, ( #232 ) ) ;
#21 = APPROVAL_STATUS ( 'not_yet_approved' ) ;
#22 = UNCERTAINTY_MEASURE_WITH_UNIT (LENGTH_MEASURE( 1.000000000000000082E-05 ), #189, 'distance_accuracy_value', 'NONE');
#23 = DIRECTION ( 'NONE',  ( -4.275831445896959482E-31, -1.000000000000000000, -1.224646799147353454E-16 ) ) ;
#24 = ADVANCED_FACE ( 'NONE', ( #126, #293 ), #216, .T. ) ;
#25 = AXIS2_PLACEMENT_3D ( 'NONE', #110, #26, #253 ) ;
#26 = DIRECTION ( 'NONE',  ( -3.491481338843133355E-15, 1.224646799147353454E-16, -1.000000000000000000 ) ) ;
#27 = DIRECTION ( 'NONE',  ( -3.491481338843133355E-15, 1.224646799147353454E-16, -1.000000000000000000 ) ) ;
#28 = DIRECTION ( 'NONE',  ( -3.491481338843133355E-15, 1.224646799147353454E-16, -1.000000000000000000 ) ) ;
#29 = CIRCLE ( 'NONE', #25, 1.130384493975581606 ) ;
#30 = PLANE ( 'NONE',  #101 ) ;
#31 = DIRECTION ( 'NONE',  ( 3.491481338843133355E-15, -1.224646799147353454E-16, 1.000000000000000000 ) ) ;
#32 = EDGE_LOOP ( 'NONE', ( #290 ) ) ;
#33 = VERTEX_POINT ( 'NONE', #141 ) ;
#34 = AXIS2_PLACEMENT_3D ( 'NONE', #197, #245, #202 ) ;
#35 = ORIENTED_EDGE ( 'NONE', *, *, #15, .F. ) ;
#36 = VERTEX_POINT ( 'NONE', #258 ) ;
#37 = CIRCLE ( 'NONE', #138, 1.499999999999996003 ) ;
#38 = DATE_AND_TIME ( #14, #228 ) ;
#39 = ADVANCED_FACE ( 'NONE', ( #184, #154 ), #143, .T. ) ;
#40 = PERSON_AND_ORGANIZATION ( #300, #243 ) ;
#41 = DATE_AND_TIME ( #63, #46 ) ;
#42 = ADVANCED_FACE ( 'NONE', ( #230, #203 ), #124, .F. ) ;
#43 = CIRCLE ( 'NONE', #176, 1.055000000000001270 ) ;
#44 = FACE_OUTER_BOUND ( 'NONE', #59, .T. ) ;
#45 = DIRECTION ( 'NONE',  ( 4.275831445896960358E-31, 1.000000000000000000, 1.224646799147353454E-16 ) ) ;
#46 = LOCAL_TIME ( 8, 11, 31.00000000000000000, #294 ) ;
#47 = DIRECTION ( 'NONE',  ( 4.275831445896960358E-31, 1.000000000000000000, 1.224646799147353454E-16 ) ) ;
#48 = DIRECTION ( 'NONE',  ( -3.491481338843133355E-15, 1.224646799147353454E-16, -1.000000000000000000 ) ) ;
#49 = ADVANCED_FACE ( 'NONE', ( #281, #159 ), #182, .T. ) ;
#50 = CARTESIAN_POINT ( 'NONE',  ( 3.491481338843133355E-14, -1.224646799147353454E-15, 10.00000000000000000 ) ) ;
#51 =( GEOMETRIC_REPRESENTATION_CONTEXT ( 3 ) GLOBAL_UNCERTAINTY_ASSIGNED_CONTEXT ( ( #22 ) ) GLOBAL_UNIT_ASSIGNED_CONTEXT ( ( #189, #83, #144 ) ) REPRESENTATION_CONTEXT ( 'NONE', 'WORKASPACE' ) );
#52 = EDGE_LOOP ( 'NONE', ( #194 ) ) ;
#53 = CARTESIAN_POINT ( 'NONE',  ( 8.728703347107833388E-14, 1.099999999999996758, 25.00000000000000000 ) ) ;
#54 = EDGE_CURVE ( 'NONE', #256, #256, #296, .T. ) ;
#55 = ORIENTED_EDGE ( 'NONE', *, *, #90, .F. ) ;
#56 = DIRECTION ( 'NONE',  ( 4.275831445896959482E-31, 1.000000000000000000, 1.224646799147353454E-16 ) ) ;
#57 = CIRCLE ( 'NONE', #187, 1.099999999999998312 ) ;
#58 = APPROVAL_PERSON_ORGANIZATION ( #105, #131, #201 ) ;
#59 = EDGE_LOOP ( 'NONE', ( #219 ) ) ;
#60 = PLANE ( 'NONE',  #12 ) ;
#61 = EDGE_LOOP ( 'NONE', ( #262 ) ) ;
#62 = CC_DESIGN_PERSON_AND_ORGANIZATION_ASSIGNMENT ( #241, #125, ( #97 ) ) ;
#63 = CALENDAR_DATE ( 2021, 2, 12 ) ;
#64 = EDGE_LOOP ( 'NONE', ( #145 ) ) ;
#65 = CC_DESIGN_APPROVAL ( #95, ( #232 ) ) ;
#66 = COORDINATED_UNIVERSAL_TIME_OFFSET ( 1, 0, .AHEAD. ) ;
#67 = DATE_AND_TIME ( #267, #17 ) ;
#68 = CALENDAR_DATE ( 2021, 2, 12 ) ;
#69 = PRODUCT_RELATED_PRODUCT_CATEGORY ( 'detail', '', ( #269 ) ) ;
#70 = AXIS2_PLACEMENT_3D ( 'NONE', #275, #28, #45 ) ;
#71 = FACE_OUTER_BOUND ( 'NONE', #147, .T. ) ;
#72 = CARTESIAN_POINT ( 'NONE',  ( 0.0000000000000000000, 0.0000000000000000000, 0.0000000000000000000 ) ) ;
#73 = DIRECTION ( 'NONE',  ( -3.491481338843133355E-15, 1.224646799147353454E-16, -1.000000000000000000 ) ) ;
#74 = AXIS2_PLACEMENT_3D ( 'NONE', #50, #137, #251 ) ;
#75 = FACE_OUTER_BOUND ( 'NONE', #64, .T. ) ;
#76 = ORIENTED_EDGE ( 'NONE', *, *, #108, .T. ) ;
#77 = CARTESIAN_POINT ( 'NONE',  ( 3.491481338843133355E-14, -1.224646799147353454E-15, 10.00000000000000000 ) ) ;
#78 = CARTESIAN_POINT ( 'NONE',  ( 3.491481338843133355E-14, 9.785932581868604743E-33, 10.00000000000000000 ) ) ;
#79 = AXIS2_PLACEMENT_3D ( 'NONE', #224, #225, #85 ) ;
#80 = EDGE_CURVE ( 'NONE', #33, #33, #206, .T. ) ;
#81 = FACE_OUTER_BOUND ( 'NONE', #61, .T. ) ;
#82 = EDGE_LOOP ( 'NONE', ( #84 ) ) ;
#83 =( NAMED_UNIT ( * ) PLANE_ANGLE_UNIT ( ) SI_UNIT ( $, .RADIAN. ) );
#84 = ORIENTED_EDGE ( 'NONE', *, *, #93, .T. ) ;
#85 = DIRECTION ( 'NONE',  ( 1.000000000000000000, 0.0000000000000000000, 0.0000000000000000000 ) ) ;
#86 = ADVANCED_FACE ( 'NONE', ( #44 ), #226, .F. ) ;
#87 = APPLICATION_PROTOCOL_DEFINITION ( 'international standard', 'config_control_design', 1994, #157 ) ;
#88 = EDGE_LOOP ( 'NONE', ( #113 ) ) ;
#89 = CLOSED_SHELL ( 'NONE', ( #215, #39, #5, #42, #264, #49, #24, #118 ) ) ;
#90 = EDGE_CURVE ( 'NONE', #237, #237, #29, .T. ) ;
#91 = CARTESIAN_POINT ( 'NONE',  ( 8.728703347107833388E-14, -3.035766082959412415E-15, 25.00000000000000000 ) ) ;
#92 = CARTESIAN_POINT ( 'NONE',  ( 3.491481338843133355E-14, 9.785932581868604743E-33, 10.00000000000000000 ) ) ;
#93 = EDGE_CURVE ( 'NONE', #164, #164, #142, .T. ) ;
#94 = DIRECTION ( 'NONE',  ( -3.491481338843133355E-15, 1.224646799147353454E-16, -1.000000000000000000 ) ) ;
#95 = APPROVAL ( #21, 'UNSPECIFIED' ) ;
#96 = CC_DESIGN_APPROVAL ( #131, ( #212 ) ) ;
#97 = PRODUCT_DEFINITION_FORMATION_WITH_SPECIFIED_SOURCE ( 'ANY', '', #269, .NOT_KNOWN. ) ;
#98 = CARTESIAN_POINT ( 'NONE',  ( 8.728703347107833388E-14, -3.061616997868383831E-15, 25.00000000000000000 ) ) ;
#99 = VERTEX_POINT ( 'NONE', #100 ) ;
#100 = CARTESIAN_POINT ( 'NONE',  ( 9.581843339940696616E-14, 1.499999999999992673, 27.44349005489899440 ) ) ;
#101 = AXIS2_PLACEMENT_3D ( 'NONE', #92, #116, #4 ) ;
#102 = MECHANICAL_CONTEXT ( 'NONE', #140, 'mechanical' ) ;
#103 = EDGE_LOOP ( 'NONE', ( #286 ) ) ;
#104 = COORDINATED_UNIVERSAL_TIME_OFFSET ( 1, 0, .AHEAD. ) ;
#105 = PERSON_AND_ORGANIZATION ( #300, #243 ) ;
#106 = AXIS2_PLACEMENT_3D ( 'NONE', #200, #48, #250 ) ;
#107 = PERSON_AND_ORGANIZATION ( #300, #243 ) ;
#108 = EDGE_CURVE ( 'NONE', #36, #36, #238, .T. ) ;
#109 = AXIS2_PLACEMENT_3D ( 'NONE', #285, #31, #282 ) ;
#110 = CARTESIAN_POINT ( 'NONE',  ( 8.849961221477469775E-14, -3.104148534859897544E-15, 25.34729635533384595 ) ) ;
#111 = CARTESIAN_POINT ( 'NONE',  ( 2.129803616694311221E-13, -7.470345474798856659E-15, 61.00000000000000000 ) ) ;
#112 = DIRECTION ( 'NONE',  ( 3.491481338843133355E-15, -1.224646799147353454E-16, 1.000000000000000000 ) ) ;
#113 = ORIENTED_EDGE ( 'NONE', *, *, #15, .T. ) ;
#114 = FACE_OUTER_BOUND ( 'NONE', #88, .T. ) ;
#115 = EDGE_LOOP ( 'NONE', ( #35 ) ) ;
#116 = DIRECTION ( 'NONE',  ( 3.491481338843133355E-15, -1.224646799147353454E-16, 1.000000000000000000 ) ) ;
#117 = DIRECTION ( 'NONE',  ( 0.0000000000000000000, 1.000000000000000000, 0.0000000000000000000 ) ) ;
#118 = ADVANCED_FACE ( 'NONE', ( #75 ), #247, .F. ) ;
#119 = CARTESIAN_POINT ( 'NONE',  ( 8.849961221477469775E-14, 1.130384493975578719, 25.34729635533384595 ) ) ;
#120 = AXIS2_PLACEMENT_3D ( 'NONE', #295, #222, #242 ) ;
#121 = CARTESIAN_POINT ( 'NONE',  ( 3.491481338843133355E-14, 1.304999999999998606, 10.00000000000000000 ) ) ;
#122 = CC_DESIGN_PERSON_AND_ORGANIZATION_ASSIGNMENT ( #263, #297, ( #232 ) ) ;
#123 = CARTESIAN_POINT ( 'NONE',  ( 8.728703347107835360E-16, 1.304999999999998606, 0.2500000000000000555 ) ) ;
#124 = TOROIDAL_SURFACE ( 'NONE', #153, 3.100000000000000089, 2.000000000000000000 ) ;
#125 = PERSON_AND_ORGANIZATION_ROLE ( 'design_supplier' ) ;
#126 = FACE_OUTER_BOUND ( 'NONE', #52, .T. ) ;
#127 = PERSON_AND_ORGANIZATION_ROLE ( 'classification_officer' ) ;
#128 = CYLINDRICAL_SURFACE ( 'NONE', #34, 1.099999999999998979 ) ;
#129 = APPROVAL_DATE_TIME ( #265, #95 ) ;
#130 = DATE_AND_TIME ( #68, #211 ) ;
#131 = APPROVAL ( #195, 'UNSPECIFIED' ) ;
#132 = DIRECTION ( 'NONE',  ( 4.275831445896959482E-31, 1.000000000000000000, 1.224646799147353454E-16 ) ) ;
#133 = DIRECTION ( 'NONE',  ( 0.0000000000000000000, 1.000000000000000000, 0.0000000000000000000 ) ) ;
#134 = ADVANCED_FACE ( 'NONE', ( #209, #71 ), #136, .T. ) ;
#135 = DIRECTION ( 'NONE',  ( 0.0000000000000000000, 1.000000000000000000, 0.0000000000000000000 ) ) ;
#136 = CYLINDRICAL_SURFACE ( 'NONE', #223, 1.304999999999999272 ) ;
#137 = DIRECTION ( 'NONE',  ( -3.491481338843133355E-15, 1.224646799147353454E-16, -1.000000000000000000 ) ) ;
#138 = AXIS2_PLACEMENT_3D ( 'NONE', #167, #186, #171 ) ;
#139 = FACE_OUTER_BOUND ( 'NONE', #208, .T. ) ;
#140 = APPLICATION_CONTEXT ( 'configuration controlled 3d designs of mechanical parts and assemblies' ) ;
#141 = CARTESIAN_POINT ( 'NONE',  ( 2.119329172677781757E-13, 1.499999999999995559, 60.69999999999999574 ) ) ;
#142 = CIRCLE ( 'NONE', #74, 1.304999999999999938 ) ;
#143 = CONICAL_SURFACE ( 'NONE', #254, 1.099999999999998312, 0.5235987755982938197 ) ;
#144 =( NAMED_UNIT ( * ) SI_UNIT ( $, .STERADIAN. ) SOLID_ANGLE_UNIT ( ) );
#145 = ORIENTED_EDGE ( 'NONE', *, *, #108, .F. ) ;
#146 = DIRECTION ( 'NONE',  ( 3.491481338843133355E-15, -1.224646799147353454E-16, 1.000000000000000000 ) ) ;
#147 = EDGE_LOOP ( 'NONE', ( #193 ) ) ;
#148 = LOCAL_TIME ( 8, 11, 31.00000000000000000, #104 ) ;
#149 = SECURITY_CLASSIFICATION_LEVEL ( 'unclassified' ) ;
#150 = DATE_TIME_ROLE ( 'creation_date' ) ;
#151 = FACE_OUTER_BOUND ( 'NONE', #252, .T. ) ;
#152 = CC_DESIGN_PERSON_AND_ORGANIZATION_ASSIGNMENT ( #175, #270, ( #97 ) ) ;
#153 = AXIS2_PLACEMENT_3D ( 'NONE', #91, #301, #47 ) ;
#154 = FACE_BOUND ( 'NONE', #172, .T. ) ;
#155 = CARTESIAN_POINT ( 'NONE',  ( 3.422706391438835554E-31, -1.200523794890338513E-32, 9.803020721780269844E-17 ) ) ;
#156 = ORIENTED_EDGE ( 'NONE', *, *, #302, .F. ) ;
#157 = APPLICATION_CONTEXT ( 'configuration controlled 3d designs of mechanical parts and assemblies' ) ;
#158 = AXIS2_PLACEMENT_3D ( 'NONE', #231, #27, #163 ) ;
#159 = FACE_OUTER_BOUND ( 'NONE', #198, .T. ) ;
#160 = CARTESIAN_POINT ( 'NONE',  ( 2.129803616694311221E-13, 8.998558695971062171E-33, 61.00000000000000000 ) ) ;
#161 = ORIENTED_EDGE ( 'NONE', *, *, #220, .T. ) ;
#162 = PRODUCT_DEFINITION_SHAPE ( 'NONE', 'NONE',  #232 ) ;
#163 = DIRECTION ( 'NONE',  ( 0.0000000000000000000, 1.000000000000000000, 0.0000000000000000000 ) ) ;
#164 = VERTEX_POINT ( 'NONE', #121 ) ;
#165 = CIRCLE ( 'NONE', #181, 1.099999999999999867 ) ;
#166 = VERTEX_POINT ( 'NONE', #123 ) ;
#167 = CARTESIAN_POINT ( 'NONE',  ( 9.581843339940696616E-14, -3.360858225316428154E-15, 27.44349005489899440 ) ) ;
#168 = MANIFOLD_SOLID_BREP ( 'Corps-Déplacer/Copier1[1]', #89 ) ;
#169 = MANIFOLD_SOLID_BREP ( 'Corps-Déplacer/Copier1[2]', #170 ) ;
#170 = CLOSED_SHELL ( 'NONE', ( #86, #210, #134, #277 ) ) ;
#171 = DIRECTION ( 'NONE',  ( 0.0000000000000000000, 1.000000000000000000, 0.0000000000000000000 ) ) ;
#172 = EDGE_LOOP ( 'NONE', ( #161 ) ) ;
#173 = CALENDAR_DATE ( 2021, 2, 12 ) ;
#174 = ORIENTED_EDGE ( 'NONE', *, *, #90, .T. ) ;
#175 = PERSON_AND_ORGANIZATION ( #300, #243 ) ;
#176 = AXIS2_PLACEMENT_3D ( 'NONE', #257, #261, #56 ) ;
#177 = APPROVAL_ROLE ( '' ) ;
#178 = APPLICATION_PROTOCOL_DEFINITION ( 'international standard', 'config_control_design', 1994, #140 ) ;
#179 = APPROVAL_DATE_TIME ( #67, #131 ) ;
#180 = EDGE_LOOP ( 'NONE', ( #55 ) ) ;
#181 = AXIS2_PLACEMENT_3D ( 'NONE', #98, #10, #117 ) ;
#182 = CYLINDRICAL_SURFACE ( 'NONE', #70, 1.499999999999999334 ) ;
#183 = DIRECTION ( 'NONE',  ( 4.275831445896959482E-31, 1.000000000000000000, 1.224646799147353454E-16 ) ) ;
#184 = FACE_OUTER_BOUND ( 'NONE', #239, .T. ) ;
#185 = DIRECTION ( 'NONE',  ( -3.491481338843133355E-15, 1.224646799147353454E-16, -1.000000000000000000 ) ) ;
#186 = DIRECTION ( 'NONE',  ( -3.491481338843133355E-15, 1.224646799147353454E-16, -1.000000000000000000 ) ) ;
#187 = AXIS2_PLACEMENT_3D ( 'NONE', #278, #73, #8 ) ;
#188 = VERTEX_POINT ( 'NONE', #53 ) ;
#189 =( LENGTH_UNIT ( ) NAMED_UNIT ( * ) SI_UNIT ( .MILLI., .METRE. ) );
#190 = EDGE_LOOP ( 'NONE', ( #76 ) ) ;
#191 = AXIS2_PLACEMENT_3D ( 'NONE', #160, #94, #132 ) ;
#192 = PERSON_AND_ORGANIZATION_ROLE ( 'design_owner' ) ;
#193 = ORIENTED_EDGE ( 'NONE', *, *, #54, .T. ) ;
#194 = ORIENTED_EDGE ( 'NONE', *, *, #80, .F. ) ;
#195 = APPROVAL_STATUS ( 'not_yet_approved' ) ;
#196 = CC_DESIGN_SECURITY_CLASSIFICATION ( #212, ( #97 ) ) ;
#197 = CARTESIAN_POINT ( 'NONE',  ( 0.0000000000000000000, 0.0000000000000000000, 0.0000000000000000000 ) ) ;
#198 = EDGE_LOOP ( 'NONE', ( #205 ) ) ;
#199 = AXIS2_PLACEMENT_3D ( 'NONE', #77, #274, #135 ) ;
#200 = CARTESIAN_POINT ( 'NONE',  ( 2.129803616694311221E-13, -7.470345474798856659E-15, 61.00000000000000000 ) ) ;
#201 = APPROVAL_ROLE ( '' ) ;
#202 = DIRECTION ( 'NONE',  ( 4.275831445896959482E-31, 1.000000000000000000, 1.224646799147353454E-16 ) ) ;
#203 = FACE_OUTER_BOUND ( 'NONE', #276, .T. ) ;
#204 = FACE_BOUND ( 'NONE', #32, .T. ) ;
#205 = ORIENTED_EDGE ( 'NONE', *, *, #80, .T. ) ;
#206 = CIRCLE ( 'NONE', #158, 1.500000000000002887 ) ;
#207 = DIRECTION ( 'NONE',  ( -4.427425159510891478E-31, -1.000000000000000000, -1.246209393661500605E-16 ) ) ;
#208 = EDGE_LOOP ( 'NONE', ( #213 ) ) ;
#209 = FACE_OUTER_BOUND ( 'NONE', #115, .T. ) ;
#210 = ADVANCED_FACE ( 'NONE', ( #204, #114 ), #299, .T. ) ;
#211 = LOCAL_TIME ( 8, 11, 31.00000000000000000, #218 ) ;
#212 = SECURITY_CLASSIFICATION ( '', '', #149 ) ;
#213 = ORIENTED_EDGE ( 'NONE', *, *, #227, .T. ) ;
#214 = VERTEX_POINT ( 'NONE', #6 ) ;
#215 = ADVANCED_FACE ( 'NONE', ( #303 ), #30, .F. ) ;
#216 = CONICAL_SURFACE ( 'NONE', #106, 1.200000000000002842, 0.7853981633974453924 ) ;
#217 = PERSON_AND_ORGANIZATION ( #300, #243 ) ;
#218 = COORDINATED_UNIVERSAL_TIME_OFFSET ( 1, 0, .AHEAD. ) ;
#219 = ORIENTED_EDGE ( 'NONE', *, *, #273, .T. ) ;
#220 = EDGE_CURVE ( 'NONE', #255, #255, #57, .T. ) ;
#221 = APPROVAL_DATE_TIME ( #41, #259 ) ;
#222 = DIRECTION ( 'NONE',  ( -3.491481338843133355E-15, 1.224646799147353454E-16, -1.000000000000000000 ) ) ;
#223 = AXIS2_PLACEMENT_3D ( 'NONE', #72, #233, #183 ) ;
#224 = CARTESIAN_POINT ( 'NONE',  ( 0.0000000000000000000, 0.0000000000000000000, 0.0000000000000000000 ) ) ;
#225 = DIRECTION ( 'NONE',  ( 0.0000000000000000000, 0.0000000000000000000, 1.000000000000000000 ) ) ;
#226 = PLANE ( 'NONE',  #19 ) ;
#227 = EDGE_CURVE ( 'NONE', #99, #99, #37, .T. ) ;
#228 = LOCAL_TIME ( 8, 11, 31.00000000000000000, #66 ) ;
#229 = DESIGN_CONTEXT ( 'detailed design', #157, 'design' ) ;
#230 = FACE_OUTER_BOUND ( 'NONE', #260, .T. ) ;
#231 = CARTESIAN_POINT ( 'NONE',  ( 2.119329172677781757E-13, -7.433606070824434221E-15, 60.69999999999999574 ) ) ;
#232 = PRODUCT_DEFINITION ( 'UNKNOWN', '', #97, #229 ) ;
#233 = DIRECTION ( 'NONE',  ( -3.491481338843133355E-15, 1.224646799147353454E-16, -1.000000000000000000 ) ) ;
#234 = AXIS2_PLACEMENT_3D ( 'NONE', #111, #235, #1 ) ;
#235 = DIRECTION ( 'NONE',  ( -3.491481338843133355E-15, 1.224646799147353454E-16, -1.000000000000000000 ) ) ;
#236 = FACE_BOUND ( 'NONE', #180, .T. ) ;
#237 = VERTEX_POINT ( 'NONE', #119 ) ;
#238 = CIRCLE ( 'NONE', #234, 1.200000000000002842 ) ;
#239 = EDGE_LOOP ( 'NONE', ( #291 ) ) ;
#240 = DIRECTION ( 'NONE',  ( -4.275831445896959482E-31, -1.000000000000000000, -1.224646799147353454E-16 ) ) ;
#241 = PERSON_AND_ORGANIZATION ( #300, #243 ) ;
#242 = DIRECTION ( 'NONE',  ( 4.427425159510891478E-31, 1.000000000000000000, 1.246209393661500605E-16 ) ) ;
#243 = ORGANIZATION ( 'UNSPECIFIED', 'UNSPECIFIED', '' ) ;
#244 = APPROVAL_STATUS ( 'not_yet_approved' ) ;
#245 = DIRECTION ( 'NONE',  ( -3.491481338843133355E-15, 1.224646799147353454E-16, -1.000000000000000000 ) ) ;
#246 = CC_DESIGN_PERSON_AND_ORGANIZATION_ASSIGNMENT ( #40, #127, ( #212 ) ) ;
#247 = PLANE ( 'NONE',  #191 ) ;
#248 = DIRECTION ( 'NONE',  ( 3.491481338843133355E-15, -1.224646799147353454E-16, 1.000000000000000000 ) ) ;
#249 = CIRCLE ( 'NONE', #120, 1.304999999999998606 ) ;
#250 = DIRECTION ( 'NONE',  ( 0.0000000000000000000, 1.000000000000000000, 0.0000000000000000000 ) ) ;
#251 = DIRECTION ( 'NONE',  ( 0.0000000000000000000, 1.000000000000000000, 0.0000000000000000000 ) ) ;
#252 = EDGE_LOOP ( 'NONE', ( #9 ) ) ;
#253 = DIRECTION ( 'NONE',  ( 0.0000000000000000000, 1.000000000000000000, 0.0000000000000000000 ) ) ;
#254 = AXIS2_PLACEMENT_3D ( 'NONE', #279, #185, #133 ) ;
#255 = VERTEX_POINT ( 'NONE', #13 ) ;
#256 = VERTEX_POINT ( 'NONE', #287 ) ;
#257 = CARTESIAN_POINT ( 'NONE',  ( 6.845412782877671107E-31, -2.401047589780677027E-32, 1.960604144356053969E-16 ) ) ;
#258 = CARTESIAN_POINT ( 'NONE',  ( 2.129803616694311221E-13, 1.199999999999995515, 61.00000000000000000 ) ) ;
#259 = APPROVAL ( #244, 'UNSPECIFIED' ) ;
#260 = EDGE_LOOP ( 'NONE', ( #156 ) ) ;
#261 = DIRECTION ( 'NONE',  ( -3.491481338843133355E-15, 1.224646799147353454E-16, -1.000000000000000000 ) ) ;
#262 = ORIENTED_EDGE ( 'NONE', *, *, #54, .F. ) ;
#263 = PERSON_AND_ORGANIZATION ( #300, #243 ) ;
#264 = ADVANCED_FACE ( 'NONE', ( #236, #139 ), #2, .T. ) ;
#265 = DATE_AND_TIME ( #173, #148 ) ;
#266 = APPROVAL_PERSON_ORGANIZATION ( #217, #259, #292 ) ;
#267 = CALENDAR_DATE ( 2021, 2, 12 ) ;
#268 = PERSON_AND_ORGANIZATION ( #300, #243 ) ;
#269 = PRODUCT ( '327089', '327089', '', ( #102 ) ) ;
#270 = PERSON_AND_ORGANIZATION_ROLE ( 'creator' ) ;
#271 = FACE_OUTER_BOUND ( 'NONE', #103, .T. ) ;
#272 = AXIS2_PLACEMENT_3D ( 'NONE', #3, #248, #207 ) ;
#273 = EDGE_CURVE ( 'NONE', #214, #214, #43, .T. ) ;
#274 = DIRECTION ( 'NONE',  ( -3.491481338843133355E-15, 1.224646799147353454E-16, -1.000000000000000000 ) ) ;
#275 = CARTESIAN_POINT ( 'NONE',  ( 0.0000000000000000000, 0.0000000000000000000, 0.0000000000000000000 ) ) ;
#276 = EDGE_LOOP ( 'NONE', ( #174 ) ) ;
#277 = ADVANCED_FACE ( 'NONE', ( #81 ), #60, .T. ) ;
#278 = CARTESIAN_POINT ( 'NONE',  ( 3.615453511830511664E-14, -1.268130383935075337E-15, 10.35507041555162644 ) ) ;
#279 = CARTESIAN_POINT ( 'NONE',  ( 3.615453511830511664E-14, -1.268130383935075337E-15, 10.35507041555162644 ) ) ;
#280 = ORIENTED_EDGE ( 'NONE', *, *, #227, .F. ) ;
#281 = FACE_OUTER_BOUND ( 'NONE', #11, .T. ) ;
#282 = DIRECTION ( 'NONE',  ( 0.0000000000000000000, -1.000000000000000000, 0.0000000000000000000 ) ) ;
#283 = CC_DESIGN_DATE_AND_TIME_ASSIGNMENT ( #130, #16, ( #212 ) ) ;
#284 = APPROVAL_PERSON_ORGANIZATION ( #107, #95, #177 ) ;
#285 = CARTESIAN_POINT ( 'NONE',  ( 9.581843339940696616E-14, -3.360858225316428154E-15, 27.44349005489899440 ) ) ;
#286 = ORIENTED_EDGE ( 'NONE', *, *, #302, .T. ) ;
#287 = CARTESIAN_POINT ( 'NONE',  ( 3.491481338843133355E-14, 1.304999999999998606, 10.00000000000000000 ) ) ;
#288 = CC_DESIGN_PERSON_AND_ORGANIZATION_ASSIGNMENT ( #268, #192, ( #269 ) ) ;
#289 = ADVANCED_BREP_SHAPE_REPRESENTATION ( '327089', ( #168, #169, #79 ), #51 ) ;
#290 = ORIENTED_EDGE ( 'NONE', *, *, #273, .F. ) ;
#291 = ORIENTED_EDGE ( 'NONE', *, *, #93, .F. ) ;
#292 = APPROVAL_ROLE ( '' ) ;
#293 = FACE_BOUND ( 'NONE', #190, .T. ) ;
#294 = COORDINATED_UNIVERSAL_TIME_OFFSET ( 1, 0, .AHEAD. ) ;
#295 = CARTESIAN_POINT ( 'NONE',  ( 8.728703347107829444E-16, -3.061616997868382402E-17, 0.2499999999999998890 ) ) ;
#296 = CIRCLE ( 'NONE', #199, 1.304999999999999938 ) ;
#297 = PERSON_AND_ORGANIZATION_ROLE ( 'creator' ) ;
#298 = COORDINATED_UNIVERSAL_TIME_OFFSET ( 1, 0, .AHEAD. ) ;
#299 = CONICAL_SURFACE ( 'NONE', #272, 1.304999999999998606, 0.7853981633974437271 ) ;
#300 = PERSON ( 'UNSPECIFIED', 'UNSPECIFIED', 'UNSPECIFIED', ('UNSPECIFIED'), ('UNSPECIFIED'), ('UNSPECIFIED') ) ;
#301 = DIRECTION ( 'NONE',  ( -3.491481338843133355E-15, 1.224646799147353454E-16, -1.000000000000000000 ) ) ;
#302 = EDGE_CURVE ( 'NONE', #188, #188, #165, .T. ) ;
#303 = FACE_OUTER_BOUND ( 'NONE', #82, .T. ) ;
ENDSEC;
END-ISO-10303-21;
