ISO-10303-21;
HEADER;
FILE_DESCRIPTION (( 'STEP AP203' ),
    '1' );
FILE_NAME ('327088.step',
    '2021-12-02T07:09:13',
    ( '' ),
    ( '' ),
    'SwSTEP 2.0',
    'SolidWorks 2019',
    '' );
FILE_SCHEMA (( 'CONFIG_CONTROL_DESIGN' ));
ENDSEC;

DATA;
#1 = VERTEX_POINT ( 'NONE', #122 ) ;
#2 = ADVANCED_FACE ( 'NONE', ( #40, #63 ), #301, .T. ) ;
#3 = AXIS2_PLACEMENT_3D ( 'NONE', #151, #19, #196 ) ;
#4 = FACE_OUTER_BOUND ( 'NONE', #128, .T. ) ;
#5 = ORIENTED_EDGE ( 'NONE', *, *, #178, .F. ) ;
#6 = CYLINDRICAL_SURFACE ( 'NONE', #43, 1.499999999999999112 ) ;
#7 = DIRECTION ( 'NONE',  ( 3.491481338843133355E-15, -1.224646799147353454E-16, 1.000000000000000000 ) ) ;
#8 = DATE_AND_TIME ( #192, #109 ) ;
#9 = EDGE_LOOP ( 'NONE', ( #5 ) ) ;
#10 = FACE_OUTER_BOUND ( 'NONE', #262, .T. ) ;
#11 = FACE_OUTER_BOUND ( 'NONE', #12, .T. ) ;
#12 = EDGE_LOOP ( 'NONE', ( #227 ) ) ;
#13 = DIRECTION ( 'NONE',  ( 0.0000000000000000000, 1.000000000000000000, 0.0000000000000000000 ) ) ;
#14 = SECURITY_CLASSIFICATION_LEVEL ( 'unclassified' ) ;
#15 = ORIENTED_EDGE ( 'NONE', *, *, #281, .F. ) ;
#16 = DIRECTION ( 'NONE',  ( 0.0000000000000000000, 1.000000000000000000, 0.0000000000000000000 ) ) ;
#17 = PERSON_AND_ORGANIZATION_ROLE ( 'design_supplier' ) ;
#18 = EDGE_CURVE ( 'NONE', #271, #271, #154, .T. ) ;
#19 = DIRECTION ( 'NONE',  ( 3.491481338843133355E-15, -1.224646799147353454E-16, 1.000000000000000000 ) ) ;
#20 = APPROVAL_PERSON_ORGANIZATION ( #30, #200, #61 ) ;
#21 = AXIS2_PLACEMENT_3D ( 'NONE', #48, #189, #194 ) ;
#22 = EDGE_CURVE ( 'NONE', #291, #291, #149, .T. ) ;
#23 = DIRECTION ( 'NONE',  ( 1.000000000000000000, 0.0000000000000000000, 0.0000000000000000000 ) ) ;
#24 = PERSON_AND_ORGANIZATION ( #205, #44 ) ;
#25 = CYLINDRICAL_SURFACE ( 'NONE', #234, 1.074999999999999512 ) ;
#26 = DATE_AND_TIME ( #133, #180 ) ;
#27 = AXIS2_PLACEMENT_3D ( 'NONE', #244, #7, #186 ) ;
#28 = ORIENTED_EDGE ( 'NONE', *, *, #281, .T. ) ;
#29 = DIRECTION ( 'NONE',  ( 0.0000000000000000000, 1.000000000000000000, 0.0000000000000000000 ) ) ;
#30 = PERSON_AND_ORGANIZATION ( #205, #44 ) ;
#31 = DATE_TIME_ROLE ( 'creation_date' ) ;
#32 = VERTEX_POINT ( 'NONE', #146 ) ;
#33 = FACE_OUTER_BOUND ( 'NONE', #9, .T. ) ;
#34 = AXIS2_PLACEMENT_3D ( 'NONE', #221, #298, #279 ) ;
#35 = DIRECTION ( 'NONE',  ( -3.491481338843133355E-15, 1.224646799147353454E-16, -1.000000000000000000 ) ) ;
#36 = CARTESIAN_POINT ( 'NONE',  ( 2.129803616694311221E-13, 8.998558695971062171E-33, 61.00000000000000000 ) ) ;
#37 = CARTESIAN_POINT ( 'NONE',  ( 3.624524646439343546E-14, -1.271312109651250075E-15, 10.38105117766515839 ) ) ;
#38 = DIRECTION ( 'NONE',  ( 0.0000000000000000000, 1.000000000000000000, 0.0000000000000000000 ) ) ;
#39 = CC_DESIGN_PERSON_AND_ORGANIZATION_ASSIGNMENT ( #213, #284, ( #272 ) ) ;
#40 = FACE_BOUND ( 'NONE', #107, .T. ) ;
#41 = EDGE_LOOP ( 'NONE', ( #197 ) ) ;
#42 = ADVANCED_FACE ( 'NONE', ( #126 ), #167, .F. ) ;
#43 = AXIS2_PLACEMENT_3D ( 'NONE', #166, #98, #185 ) ;
#44 = ORGANIZATION ( 'UNSPECIFIED', 'UNSPECIFIED', '' ) ;
#45 = CARTESIAN_POINT ( 'NONE',  ( 0.0000000000000000000, 0.0000000000000000000, 0.0000000000000000000 ) ) ;
#46 = AXIS2_PLACEMENT_3D ( 'NONE', #240, #158, #220 ) ;
#47 = EDGE_LOOP ( 'NONE', ( #100 ) ) ;
#48 = CARTESIAN_POINT ( 'NONE',  ( 1.551349722285158036E-31, -5.441402337221575816E-33, 4.443242199310112117E-17 ) ) ;
#49 = APPROVAL_PERSON_ORGANIZATION ( #119, #113, #293 ) ;
#50 = AXIS2_PLACEMENT_3D ( 'NONE', #294, #183, #140 ) ;
#51 =( LENGTH_UNIT ( ) NAMED_UNIT ( * ) SI_UNIT ( .MILLI., .METRE. ) );
#52 = DIRECTION ( 'NONE',  ( 0.0000000000000000000, 1.000000000000000000, 0.0000000000000000000 ) ) ;
#53 = DIRECTION ( 'NONE',  ( 0.0000000000000000000, 1.000000000000000000, 0.0000000000000000000 ) ) ;
#54 = VERTEX_POINT ( 'NONE', #99 ) ;
#55 = PRODUCT_DEFINITION_SHAPE ( 'NONE', 'NONE',  #132 ) ;
#56 = FACE_OUTER_BOUND ( 'NONE', #41, .T. ) ;
#57 = DIRECTION ( 'NONE',  ( 4.275831445896959482E-31, 1.000000000000000000, 1.224646799147353454E-16 ) ) ;
#58 = DIRECTION ( 'NONE',  ( 0.0000000000000000000, 1.000000000000000000, 0.0000000000000000000 ) ) ;
#59 = EDGE_LOOP ( 'NONE', ( #73 ) ) ;
#60 = CC_DESIGN_PERSON_AND_ORGANIZATION_ASSIGNMENT ( #24, #163, ( #132 ) ) ;
#61 = APPROVAL_ROLE ( '' ) ;
#62 = AXIS2_PLACEMENT_3D ( 'NONE', #274, #148, #38 ) ;
#63 = FACE_OUTER_BOUND ( 'NONE', #277, .T. ) ;
#64 = CIRCLE ( 'NONE', #50, 1.294999999999998597 ) ;
#65 = EDGE_CURVE ( 'NONE', #182, #182, #203, .T. ) ;
#66 = CC_DESIGN_SECURITY_CLASSIFICATION ( #153, ( #264 ) ) ;
#67 = CLOSED_SHELL ( 'NONE', ( #42, #141, #195, #130, #2, #290, #285, #87 ) ) ;
#68 = VERTEX_POINT ( 'NONE', #270 ) ;
#69 = CARTESIAN_POINT ( 'NONE',  ( 7.885605607120419579E-14, -2.765898118561395173E-15, 22.58527210038943878 ) ) ;
#70 = ORIENTED_EDGE ( 'NONE', *, *, #156, .F. ) ;
#71 = DIRECTION ( 'NONE',  ( 4.275831445896959482E-31, 1.000000000000000000, 1.224646799147353454E-16 ) ) ;
#72 = DATE_AND_TIME ( #96, #114 ) ;
#73 = ORIENTED_EDGE ( 'NONE', *, *, #110, .T. ) ;
#74 = FACE_OUTER_BOUND ( 'NONE', #193, .T. ) ;
#75 = AXIS2_PLACEMENT_3D ( 'NONE', #69, #78, #123 ) ;
#76 = COORDINATED_UNIVERSAL_TIME_OFFSET ( 1, 0, .AHEAD. ) ;
#77 = COORDINATED_UNIVERSAL_TIME_OFFSET ( 1, 0, .AHEAD. ) ;
#78 = DIRECTION ( 'NONE',  ( -3.491481338843133355E-15, 1.224646799147353454E-16, -1.000000000000000000 ) ) ;
#79 = FACE_OUTER_BOUND ( 'NONE', #84, .T. ) ;
#80 = CALENDAR_DATE ( 2021, 2, 12 ) ;
#81 = ADVANCED_FACE ( 'NONE', ( #33 ), #143, .T. ) ;
#82 = CARTESIAN_POINT ( 'NONE',  ( 3.491481338843133355E-14, -1.224646799147353454E-15, 10.00000000000000000 ) ) ;
#83 = DIRECTION ( 'NONE',  ( -3.491481338843133355E-15, 1.224646799147353454E-16, -1.000000000000000000 ) ) ;
#84 = EDGE_LOOP ( 'NONE', ( #28 ) ) ;
#85 = CARTESIAN_POINT ( 'NONE',  ( 6.982962677686266711E-14, -2.602085213965210642E-15, 20.00000000000000000 ) ) ;
#86 = APPLICATION_CONTEXT ( 'configuration controlled 3d designs of mechanical parts and assemblies' ) ;
#87 = ADVANCED_FACE ( 'NONE', ( #11 ), #102, .F. ) ;
#88 = PRODUCT_RELATED_PRODUCT_CATEGORY ( 'detail', '', ( #272 ) ) ;
#89 = ADVANCED_FACE ( 'NONE', ( #124, #79 ), #302, .T. ) ;
#90 = AXIS2_PLACEMENT_3D ( 'NONE', #246, #161, #259 ) ;
#91 = FACE_OUTER_BOUND ( 'NONE', #266, .T. ) ;
#92 = AXIS2_PLACEMENT_3D ( 'NONE', #36, #191, #295 ) ;
#93 = CARTESIAN_POINT ( 'NONE',  ( 0.0000000000000000000, 0.0000000000000000000, 0.0000000000000000000 ) ) ;
#94 = EDGE_LOOP ( 'NONE', ( #275 ) ) ;
#95 = DIRECTION ( 'NONE',  ( 4.275831445896959482E-31, 1.000000000000000000, 1.224646799147353454E-16 ) ) ;
#96 = CALENDAR_DATE ( 2021, 2, 12 ) ;
#97 = EDGE_LOOP ( 'NONE', ( #184 ) ) ;
#98 = DIRECTION ( 'NONE',  ( -3.491481338843133355E-15, 1.224646799147353454E-16, -1.000000000000000000 ) ) ;
#99 = CARTESIAN_POINT ( 'NONE',  ( 7.570943305532645426E-31, 1.045000000000001705, 2.168404344971008868E-16 ) ) ;
#100 = ORIENTED_EDGE ( 'NONE', *, *, #178, .T. ) ;
#101 = FACE_BOUND ( 'NONE', #223, .T. ) ;
#102 = PLANE ( 'NONE',  #92 ) ;
#103 = EDGE_LOOP ( 'NONE', ( #201 ) ) ;
#104 = CARTESIAN_POINT ( 'NONE',  ( 0.0000000000000000000, 0.0000000000000000000, 0.0000000000000000000 ) ) ;
#105 = FACE_OUTER_BOUND ( 'NONE', #103, .T. ) ;
#106 = APPROVAL_STATUS ( 'not_yet_approved' ) ;
#107 = EDGE_LOOP ( 'NONE', ( #160 ) ) ;
#108 = AXIS2_PLACEMENT_3D ( 'NONE', #45, #120, #95 ) ;
#109 = LOCAL_TIME ( 8, 9, 13.00000000000000000, #76 ) ;
#110 = EDGE_CURVE ( 'NONE', #32, #32, #181, .T. ) ;
#111 = AXIS2_PLACEMENT_3D ( 'NONE', #263, #217, #13 ) ;
#112 = VERTEX_POINT ( 'NONE', #289 ) ;
#113 = APPROVAL ( #187, 'UNSPECIFIED' ) ;
#114 = LOCAL_TIME ( 8, 9, 13.00000000000000000, #242 ) ;
#115 = CYLINDRICAL_SURFACE ( 'NONE', #108, 1.294999999999999263 ) ;
#116 = CC_DESIGN_PERSON_AND_ORGANIZATION_ASSIGNMENT ( #199, #296, ( #264 ) ) ;
#117 = VERTEX_POINT ( 'NONE', #168 ) ;
#118 = DIRECTION ( 'NONE',  ( -3.491481338843133355E-15, 1.224646799147353454E-16, -1.000000000000000000 ) ) ;
#119 = PERSON_AND_ORGANIZATION ( #205, #44 ) ;
#120 = DIRECTION ( 'NONE',  ( -3.491481338843133355E-15, 1.224646799147353454E-16, -1.000000000000000000 ) ) ;
#121 = CARTESIAN_POINT ( 'NONE',  ( 3.491481338843133355E-14, 9.710944592735511316E-33, 10.00000000000000000 ) ) ;
#122 = CARTESIAN_POINT ( 'NONE',  ( 8.728703347107835360E-16, 1.294999999999998597, 0.2500000000000000555 ) ) ;
#123 = DIRECTION ( 'NONE',  ( 0.0000000000000000000, 1.000000000000000000, 0.0000000000000000000 ) ) ;
#124 = FACE_BOUND ( 'NONE', #173, .T. ) ;
#125 = APPROVAL_DATE_TIME ( #269, #113 ) ;
#126 = FACE_OUTER_BOUND ( 'NONE', #94, .T. ) ;
#127 = CARTESIAN_POINT ( 'NONE',  ( 7.104220552055901835E-14, -2.491825135286220620E-15, 20.34729635533384595 ) ) ;
#128 = EDGE_LOOP ( 'NONE', ( #145 ) ) ;
#129 = CONICAL_SURFACE ( 'NONE', #179, 1.200000000000002842, 0.7853981633974453924 ) ;
#130 = ADVANCED_FACE ( 'NONE', ( #105, #225 ), #283, .F. ) ;
#131 = AXIS2_PLACEMENT_3D ( 'NONE', #215, #268, #53 ) ;
#132 = PRODUCT_DEFINITION ( 'UNKNOWN', '', #264, #253 ) ;
#133 = CALENDAR_DATE ( 2021, 2, 12 ) ;
#134 = CC_DESIGN_PERSON_AND_ORGANIZATION_ASSIGNMENT ( #147, #226, ( #153 ) ) ;
#135 = DIRECTION ( 'NONE',  ( 4.275831445896960358E-31, 1.000000000000000000, 1.224646799147353454E-16 ) ) ;
#136 = UNCERTAINTY_MEASURE_WITH_UNIT (LENGTH_MEASURE( 1.000000000000000082E-05 ), #51, 'distance_accuracy_value', 'NONE');
#137 = APPROVAL_ROLE ( '' ) ;
#138 = CC_DESIGN_APPROVAL ( #200, ( #153 ) ) ;
#139 = ORIENTED_EDGE ( 'NONE', *, *, #156, .T. ) ;
#140 = DIRECTION ( 'NONE',  ( 4.461613770781246373E-31, 1.000000000000000000, 1.255832632222593420E-16 ) ) ;
#141 = ADVANCED_FACE ( 'NONE', ( #198, #248 ), #211, .T. ) ;
#142 = CARTESIAN_POINT ( 'NONE',  ( 6.982962677686266711E-14, 1.074999999999997735, 20.00000000000000000 ) ) ;
#143 = PLANE ( 'NONE',  #231 ) ;
#144 =( NAMED_UNIT ( * ) PLANE_ANGLE_UNIT ( ) SI_UNIT ( $, .RADIAN. ) );
#145 = ORIENTED_EDGE ( 'NONE', *, *, #65, .T. ) ;
#146 = CARTESIAN_POINT ( 'NONE',  ( 7.104220552055901835E-14, 1.105384493975578808, 20.34729635533384595 ) ) ;
#147 = PERSON_AND_ORGANIZATION ( #205, #44 ) ;
#148 = DIRECTION ( 'NONE',  ( -3.491481338843133355E-15, 1.224646799147353454E-16, -1.000000000000000000 ) ) ;
#149 = CIRCLE ( 'NONE', #62, 1.074999999999998845 ) ;
#150 = COORDINATED_UNIVERSAL_TIME_OFFSET ( 1, 0, .AHEAD. ) ;
#151 = CARTESIAN_POINT ( 'NONE',  ( 7.885605607120419579E-14, -2.765898118561395173E-15, 22.58527210038943878 ) ) ;
#152 = AXIS2_PLACEMENT_3D ( 'NONE', #37, #83, #29 ) ;
#153 = SECURITY_CLASSIFICATION ( '', '', #14 ) ;
#154 = CIRCLE ( 'NONE', #176, 1.294999999999999929 ) ;
#155 = AXIS2_PLACEMENT_3D ( 'NONE', #127, #276, #16 ) ;
#156 = EDGE_CURVE ( 'NONE', #112, #112, #207, .T. ) ;
#157 = PERSON_AND_ORGANIZATION ( #205, #44 ) ;
#158 = DIRECTION ( 'NONE',  ( -3.491481338843133355E-15, 1.224646799147353454E-16, -1.000000000000000000 ) ) ;
#159 = APPLICATION_PROTOCOL_DEFINITION ( 'international standard', 'config_control_design', 1994, #86 ) ;
#160 = ORIENTED_EDGE ( 'NONE', *, *, #110, .F. ) ;
#161 = DIRECTION ( 'NONE',  ( -3.491481338843133355E-15, 1.224646799147353454E-16, -1.000000000000000000 ) ) ;
#162 = MANIFOLD_SOLID_BREP ( 'Corps-Déplacer/Copier1[1]', #67 ) ;
#163 = PERSON_AND_ORGANIZATION_ROLE ( 'creator' ) ;
#164 = LOCAL_TIME ( 8, 9, 13.00000000000000000, #150 ) ;
#165 = EDGE_LOOP ( 'NONE', ( #228 ) ) ;
#166 = CARTESIAN_POINT ( 'NONE',  ( 0.0000000000000000000, 0.0000000000000000000, 0.0000000000000000000 ) ) ;
#167 = PLANE ( 'NONE',  #27 ) ;
#168 = CARTESIAN_POINT ( 'NONE',  ( 2.119329172677781757E-13, 1.499999999999995559, 60.69999999999999574 ) ) ;
#169 = ORIENTED_EDGE ( 'NONE', *, *, #232, .T. ) ;
#170 = FACE_OUTER_BOUND ( 'NONE', #224, .T. ) ;
#171 = DATE_AND_TIME ( #80, #164 ) ;
#172 = DIRECTION ( 'NONE',  ( -3.491481338843133355E-15, 1.224646799147353454E-16, -1.000000000000000000 ) ) ;
#173 = EDGE_LOOP ( 'NONE', ( #188 ) ) ;
#174 = SHAPE_DEFINITION_REPRESENTATION ( #55, #177 ) ;
#175 = CC_DESIGN_DATE_AND_TIME_ASSIGNMENT ( #72, #31, ( #132 ) ) ;
#176 = AXIS2_PLACEMENT_3D ( 'NONE', #82, #172, #58 ) ;
#177 = ADVANCED_BREP_SHAPE_REPRESENTATION ( '327088', ( #162, #278, #300 ), #303 ) ;
#178 = EDGE_CURVE ( 'NONE', #219, #219, #229, .T. ) ;
#179 = AXIS2_PLACEMENT_3D ( 'NONE', #297, #214, #52 ) ;
#180 = LOCAL_TIME ( 8, 9, 13.00000000000000000, #238 ) ;
#181 = CIRCLE ( 'NONE', #155, 1.105384493975581250 ) ;
#182 = VERTEX_POINT ( 'NONE', #142 ) ;
#183 = DIRECTION ( 'NONE',  ( -3.491481338843133355E-15, 1.224646799147353454E-16, -1.000000000000000000 ) ) ;
#184 = ORIENTED_EDGE ( 'NONE', *, *, #18, .F. ) ;
#185 = DIRECTION ( 'NONE',  ( 4.275831445896960358E-31, 1.000000000000000000, 1.224646799147353454E-16 ) ) ;
#186 = DIRECTION ( 'NONE',  ( -4.275831445896959482E-31, -1.000000000000000000, -1.224646799147353454E-16 ) ) ;
#187 = APPROVAL_STATUS ( 'not_yet_approved' ) ;
#188 = ORIENTED_EDGE ( 'NONE', *, *, #257, .F. ) ;
#189 = DIRECTION ( 'NONE',  ( 3.491481338843133355E-15, -1.224646799147353454E-16, 1.000000000000000000 ) ) ;
#190 = CIRCLE ( 'NONE', #46, 1.500000000000002887 ) ;
#191 = DIRECTION ( 'NONE',  ( -3.491481338843133355E-15, 1.224646799147353454E-16, -1.000000000000000000 ) ) ;
#192 = CALENDAR_DATE ( 2021, 2, 12 ) ;
#193 = EDGE_LOOP ( 'NONE', ( #15 ) ) ;
#194 = DIRECTION ( 'NONE',  ( -4.275831445896959482E-31, -1.000000000000000000, -1.224646799147353454E-16 ) ) ;
#195 = ADVANCED_FACE ( 'NONE', ( #237, #4 ), #25, .T. ) ;
#196 = DIRECTION ( 'NONE',  ( 0.0000000000000000000, -1.000000000000000000, 0.0000000000000000000 ) ) ;
#197 = ORIENTED_EDGE ( 'NONE', *, *, #257, .T. ) ;
#198 = FACE_OUTER_BOUND ( 'NONE', #97, .T. ) ;
#199 = PERSON_AND_ORGANIZATION ( #205, #44 ) ;
#200 = APPROVAL ( #106, 'UNSPECIFIED' ) ;
#201 = ORIENTED_EDGE ( 'NONE', *, *, #65, .F. ) ;
#202 = CC_DESIGN_APPROVAL ( #113, ( #264 ) ) ;
#203 = CIRCLE ( 'NONE', #131, 1.075000000000000178 ) ;
#204 = AXIS2_PLACEMENT_3D ( 'NONE', #85, #273, #57 ) ;
#205 = PERSON ( 'UNSPECIFIED', 'UNSPECIFIED', 'UNSPECIFIED', ('UNSPECIFIED'), ('UNSPECIFIED'), ('UNSPECIFIED') ) ;
#206 = ADVANCED_FACE ( 'NONE', ( #74, #288 ), #115, .T. ) ;
#207 = CIRCLE ( 'NONE', #75, 1.499999999999995559 ) ;
#208 = MECHANICAL_CONTEXT ( 'NONE', #249, 'mechanical' ) ;
#209 = CARTESIAN_POINT ( 'NONE',  ( 3.491481338843133355E-14, 1.294999999999998597, 10.00000000000000000 ) ) ;
#210 = LOCAL_TIME ( 8, 9, 13.00000000000000000, #77 ) ;
#211 = CONICAL_SURFACE ( 'NONE', #152, 1.074999999999998845, 0.5235987755982941527 ) ;
#212 = CARTESIAN_POINT ( 'NONE',  ( 3.102699444570316071E-31, -1.088280467444315163E-32, 8.886484398620224234E-17 ) ) ;
#213 = PERSON_AND_ORGANIZATION ( #205, #44 ) ;
#214 = DIRECTION ( 'NONE',  ( -3.491481338843133355E-15, 1.224646799147353454E-16, -1.000000000000000000 ) ) ;
#215 = CARTESIAN_POINT ( 'NONE',  ( 6.982962677686266711E-14, -2.449293598294706907E-15, 20.00000000000000000 ) ) ;
#216 = ORIENTED_EDGE ( 'NONE', *, *, #22, .T. ) ;
#217 = DIRECTION ( 'NONE',  ( -3.491481338843133355E-15, 1.224646799147353454E-16, -1.000000000000000000 ) ) ;
#218 = DIRECTION ( 'NONE',  ( 3.491481338843133355E-15, -1.224646799147353454E-16, 1.000000000000000000 ) ) ;
#219 = VERTEX_POINT ( 'NONE', #209 ) ;
#220 = DIRECTION ( 'NONE',  ( 0.0000000000000000000, 1.000000000000000000, 0.0000000000000000000 ) ) ;
#221 = CARTESIAN_POINT ( 'NONE',  ( 8.728703347107829444E-16, -3.061616997868382402E-17, 0.2499999999999998890 ) ) ;
#222 = EDGE_CURVE ( 'NONE', #117, #117, #190, .T. ) ;
#223 = EDGE_LOOP ( 'NONE', ( #169 ) ) ;
#224 = EDGE_LOOP ( 'NONE', ( #299 ) ) ;
#225 = FACE_OUTER_BOUND ( 'NONE', #59, .T. ) ;
#226 = PERSON_AND_ORGANIZATION_ROLE ( 'classification_officer' ) ;
#227 = ORIENTED_EDGE ( 'NONE', *, *, #232, .F. ) ;
#228 = ORIENTED_EDGE ( 'NONE', *, *, #22, .F. ) ;
#229 = CIRCLE ( 'NONE', #90, 1.294999999999999929 ) ;
#230 = CIRCLE ( 'NONE', #265, 1.045000000000001705 ) ;
#231 = AXIS2_PLACEMENT_3D ( 'NONE', #121, #218, #247 ) ;
#232 = EDGE_CURVE ( 'NONE', #68, #68, #252, .T. ) ;
#233 = CC_DESIGN_DATE_AND_TIME_ASSIGNMENT ( #8, #241, ( #153 ) ) ;
#234 = AXIS2_PLACEMENT_3D ( 'NONE', #104, #35, #135 ) ;
#235 =( NAMED_UNIT ( * ) SI_UNIT ( $, .STERADIAN. ) SOLID_ANGLE_UNIT ( ) );
#236 = APPROVAL_DATE_TIME ( #26, #260 ) ;
#237 = FACE_OUTER_BOUND ( 'NONE', #165, .T. ) ;
#238 = COORDINATED_UNIVERSAL_TIME_OFFSET ( 1, 0, .AHEAD. ) ;
#239 = APPROVAL_PERSON_ORGANIZATION ( #157, #260, #137 ) ;
#240 = CARTESIAN_POINT ( 'NONE',  ( 2.119329172677781757E-13, -7.433606070824434221E-15, 60.69999999999999574 ) ) ;
#241 = DATE_TIME_ROLE ( 'classification_date' ) ;
#242 = COORDINATED_UNIVERSAL_TIME_OFFSET ( 1, 0, .AHEAD. ) ;
#243 = CARTESIAN_POINT ( 'NONE',  ( 3.491481338843133355E-14, 1.294999999999998597, 10.00000000000000000 ) ) ;
#244 = CARTESIAN_POINT ( 'NONE',  ( 3.491481338843133355E-14, 9.710944592735511316E-33, 10.00000000000000000 ) ) ;
#245 = APPLICATION_PROTOCOL_DEFINITION ( 'international standard', 'config_control_design', 1994, #249 ) ;
#246 = CARTESIAN_POINT ( 'NONE',  ( 3.491481338843133355E-14, -1.224646799147353454E-15, 10.00000000000000000 ) ) ;
#247 = DIRECTION ( 'NONE',  ( -4.275831445896959482E-31, -1.000000000000000000, -1.224646799147353454E-16 ) ) ;
#248 = FACE_BOUND ( 'NONE', #251, .T. ) ;
#249 = APPLICATION_CONTEXT ( 'configuration controlled 3d designs of mechanical parts and assemblies' ) ;
#250 = APPROVAL_DATE_TIME ( #171, #200 ) ;
#251 = EDGE_LOOP ( 'NONE', ( #216 ) ) ;
#252 = CIRCLE ( 'NONE', #111, 1.200000000000002842 ) ;
#253 = DESIGN_CONTEXT ( 'detailed design', #86, 'design' ) ;
#254 = ADVANCED_FACE ( 'NONE', ( #56 ), #267, .F. ) ;
#255 = CC_DESIGN_PERSON_AND_ORGANIZATION_ASSIGNMENT ( #280, #17, ( #264 ) ) ;
#256 = CLOSED_SHELL ( 'NONE', ( #254, #89, #206, #81 ) ) ;
#257 = EDGE_CURVE ( 'NONE', #54, #54, #230, .T. ) ;
#258 = APPROVAL_STATUS ( 'not_yet_approved' ) ;
#259 = DIRECTION ( 'NONE',  ( 0.0000000000000000000, 1.000000000000000000, 0.0000000000000000000 ) ) ;
#260 = APPROVAL ( #258, 'UNSPECIFIED' ) ;
#261 = DIRECTION ( 'NONE',  ( 0.0000000000000000000, 0.0000000000000000000, 1.000000000000000000 ) ) ;
#262 = EDGE_LOOP ( 'NONE', ( #287 ) ) ;
#263 = CARTESIAN_POINT ( 'NONE',  ( 2.129803616694311221E-13, -7.470345474798856659E-15, 61.00000000000000000 ) ) ;
#264 = PRODUCT_DEFINITION_FORMATION_WITH_SPECIFIED_SOURCE ( 'ANY', '', #272, .NOT_KNOWN. ) ;
#265 = AXIS2_PLACEMENT_3D ( 'NONE', #212, #118, #71 ) ;
#266 = EDGE_LOOP ( 'NONE', ( #70 ) ) ;
#267 = PLANE ( 'NONE',  #21 ) ;
#268 = DIRECTION ( 'NONE',  ( -3.491481338843133355E-15, 1.224646799147353454E-16, -1.000000000000000000 ) ) ;
#269 = DATE_AND_TIME ( #292, #210 ) ;
#270 = CARTESIAN_POINT ( 'NONE',  ( 2.129803616694311221E-13, 1.199999999999995515, 61.00000000000000000 ) ) ;
#271 = VERTEX_POINT ( 'NONE', #243 ) ;
#272 = PRODUCT ( '327088', '327088', '', ( #208 ) ) ;
#273 = DIRECTION ( 'NONE',  ( -3.491481338843133355E-15, 1.224646799147353454E-16, -1.000000000000000000 ) ) ;
#274 = CARTESIAN_POINT ( 'NONE',  ( 3.624524646439343546E-14, -1.271312109651250075E-15, 10.38105117766515839 ) ) ;
#275 = ORIENTED_EDGE ( 'NONE', *, *, #18, .T. ) ;
#276 = DIRECTION ( 'NONE',  ( -3.491481338843133355E-15, 1.224646799147353454E-16, -1.000000000000000000 ) ) ;
#277 = EDGE_LOOP ( 'NONE', ( #139 ) ) ;
#278 = MANIFOLD_SOLID_BREP ( 'Corps-Déplacer/Copier1[2]', #256 ) ;
#279 = DIRECTION ( 'NONE',  ( -4.461613770781246373E-31, -1.000000000000000000, -1.255832632222593420E-16 ) ) ;
#280 = PERSON_AND_ORGANIZATION ( #205, #44 ) ;
#281 = EDGE_CURVE ( 'NONE', #1, #1, #64, .T. ) ;
#282 = CC_DESIGN_APPROVAL ( #260, ( #132 ) ) ;
#283 = TOROIDAL_SURFACE ( 'NONE', #204, 3.075000000000000622, 2.000000000000000000 ) ;
#284 = PERSON_AND_ORGANIZATION_ROLE ( 'design_owner' ) ;
#285 = ADVANCED_FACE ( 'NONE', ( #170, #101 ), #129, .T. ) ;
#286 = CARTESIAN_POINT ( 'NONE',  ( 3.624524646439343546E-14, 1.074999999999997513, 10.38105117766515839 ) ) ;
#287 = ORIENTED_EDGE ( 'NONE', *, *, #222, .T. ) ;
#288 = FACE_OUTER_BOUND ( 'NONE', #47, .T. ) ;
#289 = CARTESIAN_POINT ( 'NONE',  ( 7.885605607120419579E-14, 1.499999999999992673, 22.58527210038943878 ) ) ;
#290 = ADVANCED_FACE ( 'NONE', ( #91, #10 ), #6, .T. ) ;
#291 = VERTEX_POINT ( 'NONE', #286 ) ;
#292 = CALENDAR_DATE ( 2021, 2, 12 ) ;
#293 = APPROVAL_ROLE ( '' ) ;
#294 = CARTESIAN_POINT ( 'NONE',  ( 8.728703347107829444E-16, -3.061616997868382402E-17, 0.2499999999999998890 ) ) ;
#295 = DIRECTION ( 'NONE',  ( 4.275831445896959482E-31, 1.000000000000000000, 1.224646799147353454E-16 ) ) ;
#296 = PERSON_AND_ORGANIZATION_ROLE ( 'creator' ) ;
#297 = CARTESIAN_POINT ( 'NONE',  ( 2.129803616694311221E-13, -7.470345474798856659E-15, 61.00000000000000000 ) ) ;
#298 = DIRECTION ( 'NONE',  ( 3.491481338843133355E-15, -1.224646799147353454E-16, 1.000000000000000000 ) ) ;
#299 = ORIENTED_EDGE ( 'NONE', *, *, #222, .F. ) ;
#300 = AXIS2_PLACEMENT_3D ( 'NONE', #93, #261, #23 ) ;
#301 = CONICAL_SURFACE ( 'NONE', #3, 1.499999999999995559, 0.1745329251994260922 ) ;
#302 = CONICAL_SURFACE ( 'NONE', #34, 1.294999999999998597, 0.7853981633974426169 ) ;
#303 =( GEOMETRIC_REPRESENTATION_CONTEXT ( 3 ) GLOBAL_UNCERTAINTY_ASSIGNED_CONTEXT ( ( #136 ) ) GLOBAL_UNIT_ASSIGNED_CONTEXT ( ( #51, #144, #235 ) ) REPRESENTATION_CONTEXT ( 'NONE', 'WORKASPACE' ) );
ENDSEC;
END-ISO-10303-21;
