ISO-10303-21;
HEADER;
FILE_DESCRIPTION (( 'STEP AP203' ),
    '1' );
FILE_NAME ('327087.step',
    '2021-12-02T07:09:12',
    ( '' ),
    ( '' ),
    'SwSTEP 2.0',
    'SolidWorks 2019',
    '' );
FILE_SCHEMA (( 'CONFIG_CONTROL_DESIGN' ));
ENDSEC;

DATA;
#1 = DATE_AND_TIME ( #88, #61 ) ;
#2 = ORIENTED_EDGE ( 'NONE', *, *, #200, .F. ) ;
#3 = APPROVAL_ROLE ( '' ) ;
#4 = DIRECTION ( 'NONE',  ( -4.275831445896959482E-31, -1.000000000000000000, -1.224646799147353454E-16 ) ) ;
#5 = DIRECTION ( 'NONE',  ( -3.491481338843133355E-15, 1.224646799147353454E-16, -1.000000000000000000 ) ) ;
#6 = CARTESIAN_POINT ( 'NONE',  ( 7.104220552055901835E-14, -2.491825135286220620E-15, 20.34729635533384595 ) ) ;
#7 = DIRECTION ( 'NONE',  ( 0.0000000000000000000, 1.000000000000000000, 0.0000000000000000000 ) ) ;
#8 = CYLINDRICAL_SURFACE ( 'NONE', #127, 1.289999999999999591 ) ;
#9 = AXIS2_PLACEMENT_3D ( 'NONE', #35, #5, #192 ) ;
#10 = PRODUCT_DEFINITION_FORMATION_WITH_SPECIFIED_SOURCE ( 'ANY', '', #109, .NOT_KNOWN. ) ;
#11 = CC_DESIGN_PERSON_AND_ORGANIZATION_ASSIGNMENT ( #225, #155, ( #162 ) ) ;
#12 = CARTESIAN_POINT ( 'NONE',  ( 2.129803616694311221E-13, 8.998558695971062171E-33, 61.00000000000000000 ) ) ;
#13 = VERTEX_POINT ( 'NONE', #87 ) ;
#14 = VERTEX_POINT ( 'NONE', #197 ) ;
#15 = AXIS2_PLACEMENT_3D ( 'NONE', #12, #261, #166 ) ;
#16 = CC_DESIGN_APPROVAL ( #243, ( #10 ) ) ;
#17 = VERTEX_POINT ( 'NONE', #244 ) ;
#18 = CARTESIAN_POINT ( 'NONE',  ( 0.0000000000000000000, 0.0000000000000000000, 0.0000000000000000000 ) ) ;
#19 = DIRECTION ( 'NONE',  ( 4.275831445896960358E-31, 1.000000000000000000, 1.224646799147353454E-16 ) ) ;
#20 = CIRCLE ( 'NONE', #295, 1.289999999999998925 ) ;
#21 = CC_DESIGN_PERSON_AND_ORGANIZATION_ASSIGNMENT ( #161, #276, ( #10 ) ) ;
#22 = CALENDAR_DATE ( 2021, 2, 12 ) ;
#23 = ORIENTED_EDGE ( 'NONE', *, *, #303, .T. ) ;
#24 = APPROVAL_ROLE ( '' ) ;
#25 = EDGE_LOOP ( 'NONE', ( #138 ) ) ;
#26 = ADVANCED_FACE ( 'NONE', ( #299 ), #231, .T. ) ;
#27 = EDGE_LOOP ( 'NONE', ( #232 ) ) ;
#28 = TOROIDAL_SURFACE ( 'NONE', #117, 3.075000000000000622, 2.000000000000000000 ) ;
#29 = APPROVAL_PERSON_ORGANIZATION ( #300, #157, #110 ) ;
#30 = PERSON_AND_ORGANIZATION_ROLE ( 'creator' ) ;
#31 = ORIENTED_EDGE ( 'NONE', *, *, #78, .T. ) ;
#32 = EDGE_LOOP ( 'NONE', ( #46 ) ) ;
#33 = FACE_OUTER_BOUND ( 'NONE', #113, .T. ) ;
#34 = CARTESIAN_POINT ( 'NONE',  ( 0.0000000000000000000, 0.0000000000000000000, 0.0000000000000000000 ) ) ;
#35 = CARTESIAN_POINT ( 'NONE',  ( 7.885605607120419579E-14, -2.765898118561395173E-15, 22.58527210038943878 ) ) ;
#36 = ADVANCED_FACE ( 'NONE', ( #274, #277 ), #28, .F. ) ;
#37 = ADVANCED_FACE ( 'NONE', ( #297, #119 ), #96, .T. ) ;
#38 = DIRECTION ( 'NONE',  ( 0.0000000000000000000, 1.000000000000000000, 0.0000000000000000000 ) ) ;
#39 = CONICAL_SURFACE ( 'NONE', #122, 1.200000000000002842, 0.7853981633974453924 ) ;
#40 = CARTESIAN_POINT ( 'NONE',  ( 6.909550254566124374E-31, -2.423543986520604508E-32, 1.978973846343263856E-16 ) ) ;
#41 = VERTEX_POINT ( 'NONE', #196 ) ;
#42 = CARTESIAN_POINT ( 'NONE',  ( 6.982962677686266711E-14, 1.074999999999997735, 20.00000000000000000 ) ) ;
#43 = APPROVAL_PERSON_ORGANIZATION ( #256, #243, #3 ) ;
#44 = CARTESIAN_POINT ( 'NONE',  ( 3.491481338843133355E-14, 1.289999999999998925, 10.00000000000000000 ) ) ;
#45 = PERSON_AND_ORGANIZATION_ROLE ( 'design_supplier' ) ;
#46 = ORIENTED_EDGE ( 'NONE', *, *, #83, .F. ) ;
#47 = ORIENTED_EDGE ( 'NONE', *, *, #281, .F. ) ;
#48 = PERSON_AND_ORGANIZATION ( #123, #284 ) ;
#49 = EDGE_LOOP ( 'NONE', ( #163 ) ) ;
#50 = CIRCLE ( 'NONE', #90, 1.105384493975581250 ) ;
#51 = CC_DESIGN_APPROVAL ( #103, ( #162 ) ) ;
#52 = ORIENTED_EDGE ( 'NONE', *, *, #125, .T. ) ;
#53 = FACE_OUTER_BOUND ( 'NONE', #27, .T. ) ;
#54 = DIRECTION ( 'NONE',  ( -3.491481338843133355E-15, 1.224646799147353454E-16, -1.000000000000000000 ) ) ;
#55 = DIRECTION ( 'NONE',  ( 3.491481338843133355E-15, -1.224646799147353454E-16, 1.000000000000000000 ) ) ;
#56 = ADVANCED_BREP_SHAPE_REPRESENTATION ( '327087', ( #64, #269, #242 ), #58 ) ;
#57 = DIRECTION ( 'NONE',  ( -4.275831445896959482E-31, -1.000000000000000000, -1.224646799147353454E-16 ) ) ;
#58 =( GEOMETRIC_REPRESENTATION_CONTEXT ( 3 ) GLOBAL_UNCERTAINTY_ASSIGNED_CONTEXT ( ( #65 ) ) GLOBAL_UNIT_ASSIGNED_CONTEXT ( ( #129, #216, #106 ) ) REPRESENTATION_CONTEXT ( 'NONE', 'WORKASPACE' ) );
#59 = CARTESIAN_POINT ( 'NONE',  ( 8.728703347107829444E-16, -3.061616997868382402E-17, 0.2499999999999998890 ) ) ;
#60 = FACE_OUTER_BOUND ( 'NONE', #111, .T. ) ;
#61 = LOCAL_TIME ( 8, 9, 12.00000000000000000, #204 ) ;
#62 = CC_DESIGN_PERSON_AND_ORGANIZATION_ASSIGNMENT ( #186, #67, ( #109 ) ) ;
#63 = DIRECTION ( 'NONE',  ( 0.0000000000000000000, 1.000000000000000000, 0.0000000000000000000 ) ) ;
#64 = MANIFOLD_SOLID_BREP ( 'Corps-Déplacer/Copier1[1]', #223 ) ;
#65 = UNCERTAINTY_MEASURE_WITH_UNIT (LENGTH_MEASURE( 1.000000000000000082E-05 ), #129, 'distance_accuracy_value', 'NONE');
#66 = EDGE_LOOP ( 'NONE', ( #202 ) ) ;
#67 = PERSON_AND_ORGANIZATION_ROLE ( 'design_owner' ) ;
#68 = EDGE_LOOP ( 'NONE', ( #71 ) ) ;
#69 = COORDINATED_UNIVERSAL_TIME_OFFSET ( 1, 0, .AHEAD. ) ;
#70 = APPROVAL_DATE_TIME ( #184, #103 ) ;
#71 = ORIENTED_EDGE ( 'NONE', *, *, #78, .F. ) ;
#72 = PERSON_AND_ORGANIZATION ( #123, #284 ) ;
#73 = AXIS2_PLACEMENT_3D ( 'NONE', #40, #98, #208 ) ;
#74 = LOCAL_TIME ( 8, 9, 12.00000000000000000, #69 ) ;
#75 = EDGE_CURVE ( 'NONE', #13, #13, #50, .T. ) ;
#76 = FACE_OUTER_BOUND ( 'NONE', #25, .T. ) ;
#77 = DIRECTION ( 'NONE',  ( 3.491481338843133355E-15, -1.224646799147353454E-16, 1.000000000000000000 ) ) ;
#78 = EDGE_CURVE ( 'NONE', #198, #198, #105, .T. ) ;
#79 = FACE_OUTER_BOUND ( 'NONE', #279, .T. ) ;
#80 = DIRECTION ( 'NONE',  ( 0.0000000000000000000, 1.000000000000000000, 0.0000000000000000000 ) ) ;
#81 = DIRECTION ( 'NONE',  ( -3.491481338843133355E-15, 1.224646799147353454E-16, -1.000000000000000000 ) ) ;
#82 = AXIS2_PLACEMENT_3D ( 'NONE', #120, #265, #140 ) ;
#83 = EDGE_CURVE ( 'NONE', #17, #17, #230, .T. ) ;
#84 = DIRECTION ( 'NONE',  ( -3.491481338843133355E-15, 1.224646799147353454E-16, -1.000000000000000000 ) ) ;
#85 = DIRECTION ( 'NONE',  ( 1.000000000000000000, 0.0000000000000000000, 0.0000000000000000000 ) ) ;
#86 = AXIS2_PLACEMENT_3D ( 'NONE', #235, #286, #7 ) ;
#87 = CARTESIAN_POINT ( 'NONE',  ( 7.104220552055901835E-14, 1.105384493975578808, 20.34729635533384595 ) ) ;
#88 = CALENDAR_DATE ( 2021, 2, 12 ) ;
#89 = CARTESIAN_POINT ( 'NONE',  ( 6.982962677686266711E-14, -2.602085213965210642E-15, 20.00000000000000000 ) ) ;
#90 = AXIS2_PLACEMENT_3D ( 'NONE', #6, #141, #38 ) ;
#91 = APPROVAL_DATE_TIME ( #206, #157 ) ;
#92 = EDGE_LOOP ( 'NONE', ( #134 ) ) ;
#93 = PRODUCT_DEFINITION_SHAPE ( 'NONE', 'NONE',  #115 ) ;
#94 = PERSON_AND_ORGANIZATION ( #123, #284 ) ;
#95 = DIRECTION ( 'NONE',  ( 0.0000000000000000000, 1.000000000000000000, 0.0000000000000000000 ) ) ;
#96 = CYLINDRICAL_SURFACE ( 'NONE', #234, 1.074999999999999512 ) ;
#97 = CC_DESIGN_DATE_AND_TIME_ASSIGNMENT ( #1, #271, ( #162 ) ) ;
#98 = DIRECTION ( 'NONE',  ( -3.491481338843133355E-15, 1.224646799147353454E-16, -1.000000000000000000 ) ) ;
#99 = CARTESIAN_POINT ( 'NONE',  ( 2.129803616694311221E-13, -7.470345474798856659E-15, 61.00000000000000000 ) ) ;
#100 = CIRCLE ( 'NONE', #9, 1.499999999999995559 ) ;
#101 = CARTESIAN_POINT ( 'NONE',  ( 2.129803616694311221E-13, -7.470345474798856659E-15, 61.00000000000000000 ) ) ;
#102 = VERTEX_POINT ( 'NONE', #126 ) ;
#103 = APPROVAL ( #227, 'UNSPECIFIED' ) ;
#104 = CARTESIAN_POINT ( 'NONE',  ( 8.728703347107835360E-16, 1.289999999999998925, 0.2500000000000000555 ) ) ;
#105 = CIRCLE ( 'NONE', #302, 1.200000000000002842 ) ;
#106 =( NAMED_UNIT ( * ) SI_UNIT ( $, .STERADIAN. ) SOLID_ANGLE_UNIT ( ) );
#107 = CARTESIAN_POINT ( 'NONE',  ( 8.728703347107829444E-16, -3.061616997868382402E-17, 0.2499999999999998890 ) ) ;
#108 = CIRCLE ( 'NONE', #224, 1.290000000000000036 ) ;
#109 = PRODUCT ( '327087', '327087', '', ( #172 ) ) ;
#110 = APPROVAL_ROLE ( '' ) ;
#111 = EDGE_LOOP ( 'NONE', ( #52 ) ) ;
#112 = DATE_AND_TIME ( #132, #180 ) ;
#113 = EDGE_LOOP ( 'NONE', ( #228 ) ) ;
#114 = APPLICATION_CONTEXT ( 'configuration controlled 3d designs of mechanical parts and assemblies' ) ;
#115 = PRODUCT_DEFINITION ( 'UNKNOWN', '', #10, #176 ) ;
#116 = EDGE_LOOP ( 'NONE', ( #159 ) ) ;
#117 = AXIS2_PLACEMENT_3D ( 'NONE', #89, #272, #211 ) ;
#118 = DIRECTION ( 'NONE',  ( -3.491481338843133355E-15, 1.224646799147353454E-16, -1.000000000000000000 ) ) ;
#119 = FACE_OUTER_BOUND ( 'NONE', #205, .T. ) ;
#120 = CARTESIAN_POINT ( 'NONE',  ( 7.885605607120419579E-14, -2.765898118561395173E-15, 22.58527210038943878 ) ) ;
#121 = CARTESIAN_POINT ( 'NONE',  ( 3.491481338843133355E-14, 9.673450598168967339E-33, 10.00000000000000000 ) ) ;
#122 = AXIS2_PLACEMENT_3D ( 'NONE', #99, #54, #80 ) ;
#123 = PERSON ( 'UNSPECIFIED', 'UNSPECIFIED', 'UNSPECIFIED', ('UNSPECIFIED'), ('UNSPECIFIED'), ('UNSPECIFIED') ) ;
#124 = CC_DESIGN_SECURITY_CLASSIFICATION ( #162, ( #10 ) ) ;
#125 = EDGE_CURVE ( 'NONE', #41, #41, #275, .T. ) ;
#126 = CARTESIAN_POINT ( 'NONE',  ( 3.491481338843133355E-14, 1.289999999999998925, 10.00000000000000000 ) ) ;
#127 = AXIS2_PLACEMENT_3D ( 'NONE', #34, #169, #241 ) ;
#128 = ADVANCED_FACE ( 'NONE', ( #164, #191 ), #210, .T. ) ;
#129 =( LENGTH_UNIT ( ) NAMED_UNIT ( * ) SI_UNIT ( .MILLI., .METRE. ) );
#130 = FACE_BOUND ( 'NONE', #136, .T. ) ;
#131 = AXIS2_PLACEMENT_3D ( 'NONE', #264, #55, #143 ) ;
#132 = CALENDAR_DATE ( 2021, 2, 12 ) ;
#133 = ADVANCED_FACE ( 'NONE', ( #79 ), #194, .F. ) ;
#134 = ORIENTED_EDGE ( 'NONE', *, *, #303, .F. ) ;
#135 = DATE_AND_TIME ( #22, #292 ) ;
#136 = EDGE_LOOP ( 'NONE', ( #251 ) ) ;
#137 = SHAPE_DEFINITION_REPRESENTATION ( #93, #56 ) ;
#138 = ORIENTED_EDGE ( 'NONE', *, *, #175, .T. ) ;
#139 = ORIENTED_EDGE ( 'NONE', *, *, #83, .T. ) ;
#140 = DIRECTION ( 'NONE',  ( 0.0000000000000000000, -1.000000000000000000, 0.0000000000000000000 ) ) ;
#141 = DIRECTION ( 'NONE',  ( -3.491481338843133355E-15, 1.224646799147353454E-16, -1.000000000000000000 ) ) ;
#142 = CARTESIAN_POINT ( 'NONE',  ( 2.119329172677781757E-13, -7.433606070824434221E-15, 60.69999999999999574 ) ) ;
#143 = DIRECTION ( 'NONE',  ( -4.275831445896959482E-31, -1.000000000000000000, -1.224646799147353454E-16 ) ) ;
#144 = FACE_OUTER_BOUND ( 'NONE', #68, .T. ) ;
#145 = APPROVAL_PERSON_ORGANIZATION ( #94, #103, #24 ) ;
#146 = DIRECTION ( 'NONE',  ( -4.478906847412180089E-31, -1.000000000000000000, -1.260700200564541077E-16 ) ) ;
#147 = VERTEX_POINT ( 'NONE', #42 ) ;
#148 = ADVANCED_FACE ( 'NONE', ( #213, #290 ), #214, .T. ) ;
#149 = VERTEX_POINT ( 'NONE', #104 ) ;
#150 = AXIS2_PLACEMENT_3D ( 'NONE', #207, #253, #4 ) ;
#151 = DIRECTION ( 'NONE',  ( 0.0000000000000000000, 1.000000000000000000, 0.0000000000000000000 ) ) ;
#152 = CARTESIAN_POINT ( 'NONE',  ( 2.129803616694311221E-13, 1.199999999999995515, 61.00000000000000000 ) ) ;
#153 = EDGE_LOOP ( 'NONE', ( #226 ) ) ;
#154 = AXIS2_PLACEMENT_3D ( 'NONE', #142, #190, #195 ) ;
#155 = PERSON_AND_ORGANIZATION_ROLE ( 'classification_officer' ) ;
#156 = APPROVAL_DATE_TIME ( #135, #243 ) ;
#157 = APPROVAL ( #273, 'UNSPECIFIED' ) ;
#158 = COORDINATED_UNIVERSAL_TIME_OFFSET ( 1, 0, .AHEAD. ) ;
#159 = ORIENTED_EDGE ( 'NONE', *, *, #175, .F. ) ;
#160 = AXIS2_PLACEMENT_3D ( 'NONE', #245, #249, #19 ) ;
#161 = PERSON_AND_ORGANIZATION ( #123, #284 ) ;
#162 = SECURITY_CLASSIFICATION ( '', '', #250 ) ;
#163 = ORIENTED_EDGE ( 'NONE', *, *, #200, .T. ) ;
#164 = FACE_OUTER_BOUND ( 'NONE', #187, .T. ) ;
#165 = CARTESIAN_POINT ( 'NONE',  ( 0.0000000000000000000, 0.0000000000000000000, 0.0000000000000000000 ) ) ;
#166 = DIRECTION ( 'NONE',  ( 4.275831445896959482E-31, 1.000000000000000000, 1.224646799147353454E-16 ) ) ;
#167 = PLANE ( 'NONE',  #131 ) ;
#168 = ADVANCED_FACE ( 'NONE', ( #144 ), #215, .F. ) ;
#169 = DIRECTION ( 'NONE',  ( -3.491481338843133355E-15, 1.224646799147353454E-16, -1.000000000000000000 ) ) ;
#170 = VERTEX_POINT ( 'NONE', #44 ) ;
#171 = CONICAL_SURFACE ( 'NONE', #283, 1.289999999999998925, 0.7853981633974437271 ) ;
#172 = MECHANICAL_CONTEXT ( 'NONE', #114, 'mechanical' ) ;
#173 = APPLICATION_PROTOCOL_DEFINITION ( 'international standard', 'config_control_design', 1994, #114 ) ;
#174 = FACE_OUTER_BOUND ( 'NONE', #185, .T. ) ;
#175 = EDGE_CURVE ( 'NONE', #170, #170, #247, .T. ) ;
#176 = DESIGN_CONTEXT ( 'detailed design', #239, 'design' ) ;
#177 = ORIENTED_EDGE ( 'NONE', *, *, #281, .T. ) ;
#178 = EDGE_LOOP ( 'NONE', ( #31 ) ) ;
#179 = CLOSED_SHELL ( 'NONE', ( #209, #280, #181, #26 ) ) ;
#180 = LOCAL_TIME ( 8, 9, 12.00000000000000000, #158 ) ;
#181 = ADVANCED_FACE ( 'NONE', ( #53, #76 ), #8, .T. ) ;
#182 = DATE_TIME_ROLE ( 'creation_date' ) ;
#183 = ORIENTED_EDGE ( 'NONE', *, *, #125, .F. ) ;
#184 = DATE_AND_TIME ( #278, #219 ) ;
#185 = EDGE_LOOP ( 'NONE', ( #2 ) ) ;
#186 = PERSON_AND_ORGANIZATION ( #123, #284 ) ;
#187 = EDGE_LOOP ( 'NONE', ( #47 ) ) ;
#188 = AXIS2_PLACEMENT_3D ( 'NONE', #121, #77, #57 ) ;
#189 = CC_DESIGN_APPROVAL ( #157, ( #115 ) ) ;
#190 = DIRECTION ( 'NONE',  ( -3.491481338843133355E-15, 1.224646799147353454E-16, -1.000000000000000000 ) ) ;
#191 = FACE_BOUND ( 'NONE', #255, .T. ) ;
#192 = DIRECTION ( 'NONE',  ( 0.0000000000000000000, 1.000000000000000000, 0.0000000000000000000 ) ) ;
#193 = EDGE_CURVE ( 'NONE', #14, #14, #262, .T. ) ;
#194 = PLANE ( 'NONE',  #188 ) ;
#195 = DIRECTION ( 'NONE',  ( 0.0000000000000000000, 1.000000000000000000, 0.0000000000000000000 ) ) ;
#196 = CARTESIAN_POINT ( 'NONE',  ( 2.119329172677781757E-13, 1.499999999999995559, 60.69999999999999574 ) ) ;
#197 = CARTESIAN_POINT ( 'NONE',  ( 1.135641495829896858E-30, 1.040000000000001368, 3.252606517456513302E-16 ) ) ;
#198 = VERTEX_POINT ( 'NONE', #152 ) ;
#199 = PRODUCT_RELATED_PRODUCT_CATEGORY ( 'detail', '', ( #109 ) ) ;
#200 = EDGE_CURVE ( 'NONE', #246, #246, #100, .T. ) ;
#201 = CALENDAR_DATE ( 2021, 2, 12 ) ;
#202 = ORIENTED_EDGE ( 'NONE', *, *, #75, .T. ) ;
#203 = ADVANCED_FACE ( 'NONE', ( #233, #263 ), #39, .T. ) ;
#204 = COORDINATED_UNIVERSAL_TIME_OFFSET ( 1, 0, .AHEAD. ) ;
#205 = EDGE_LOOP ( 'NONE', ( #23 ) ) ;
#206 = DATE_AND_TIME ( #201, #74 ) ;
#207 = CARTESIAN_POINT ( 'NONE',  ( 3.491481338843133355E-14, 9.673450598168967339E-33, 10.00000000000000000 ) ) ;
#208 = DIRECTION ( 'NONE',  ( 4.275831445896960358E-31, 1.000000000000000000, 1.224646799147353700E-16 ) ) ;
#209 = ADVANCED_FACE ( 'NONE', ( #33 ), #167, .F. ) ;
#210 = CONICAL_SURFACE ( 'NONE', #86, 1.074999999999998845, 0.5235987755982933756 ) ;
#211 = DIRECTION ( 'NONE',  ( 4.275831445896959482E-31, 1.000000000000000000, 1.224646799147353454E-16 ) ) ;
#212 = DIRECTION ( 'NONE',  ( -3.491481338843133355E-15, 1.224646799147353454E-16, -1.000000000000000000 ) ) ;
#213 = FACE_BOUND ( 'NONE', #301, .T. ) ;
#214 = CONICAL_SURFACE ( 'NONE', #82, 1.499999999999995559, 0.1745329251994260922 ) ;
#215 = PLANE ( 'NONE',  #15 ) ;
#216 =( NAMED_UNIT ( * ) PLANE_ANGLE_UNIT ( ) SI_UNIT ( $, .RADIAN. ) );
#217 = DIRECTION ( 'NONE',  ( -3.491481338843133355E-15, 1.224646799147353454E-16, -1.000000000000000000 ) ) ;
#218 = DIRECTION ( 'NONE',  ( -3.491481338843133355E-15, 1.224646799147353454E-16, -1.000000000000000000 ) ) ;
#219 = LOCAL_TIME ( 8, 9, 12.00000000000000000, #298 ) ;
#220 = ADVANCED_FACE ( 'NONE', ( #174, #60 ), #293, .T. ) ;
#221 = CC_DESIGN_DATE_AND_TIME_ASSIGNMENT ( #112, #182, ( #115 ) ) ;
#222 = CARTESIAN_POINT ( 'NONE',  ( 7.885605607120419579E-14, 1.499999999999992673, 22.58527210038943878 ) ) ;
#223 = CLOSED_SHELL ( 'NONE', ( #133, #128, #37, #36, #148, #220, #203, #168 ) ) ;
#224 = AXIS2_PLACEMENT_3D ( 'NONE', #248, #217, #63 ) ;
#225 = PERSON_AND_ORGANIZATION ( #123, #284 ) ;
#226 = ORIENTED_EDGE ( 'NONE', *, *, #236, .T. ) ;
#227 = APPROVAL_STATUS ( 'not_yet_approved' ) ;
#228 = ORIENTED_EDGE ( 'NONE', *, *, #193, .T. ) ;
#229 = ORIENTED_EDGE ( 'NONE', *, *, #75, .F. ) ;
#230 = CIRCLE ( 'NONE', #240, 1.074999999999998845 ) ;
#231 = PLANE ( 'NONE',  #150 ) ;
#232 = ORIENTED_EDGE ( 'NONE', *, *, #236, .F. ) ;
#233 = FACE_OUTER_BOUND ( 'NONE', #257, .T. ) ;
#234 = AXIS2_PLACEMENT_3D ( 'NONE', #165, #118, #287 ) ;
#235 = CARTESIAN_POINT ( 'NONE',  ( 3.621500934903066672E-14, -1.270251534412525425E-15, 10.37239092362731618 ) ) ;
#236 = EDGE_CURVE ( 'NONE', #149, #149, #20, .T. ) ;
#237 = DIRECTION ( 'NONE',  ( 0.0000000000000000000, 1.000000000000000000, 0.0000000000000000000 ) ) ;
#238 = DIRECTION ( 'NONE',  ( 0.0000000000000000000, 1.000000000000000000, 0.0000000000000000000 ) ) ;
#239 = APPLICATION_CONTEXT ( 'configuration controlled 3d designs of mechanical parts and assemblies' ) ;
#240 = AXIS2_PLACEMENT_3D ( 'NONE', #260, #289, #95 ) ;
#241 = DIRECTION ( 'NONE',  ( 4.275831445896959482E-31, 1.000000000000000000, 1.224646799147353454E-16 ) ) ;
#242 = AXIS2_PLACEMENT_3D ( 'NONE', #18, #294, #85 ) ;
#243 = APPROVAL ( #252, 'UNSPECIFIED' ) ;
#244 = CARTESIAN_POINT ( 'NONE',  ( 3.621500934903066672E-14, 1.074999999999997513, 10.37239092362731618 ) ) ;
#245 = CARTESIAN_POINT ( 'NONE',  ( 0.0000000000000000000, 0.0000000000000000000, 0.0000000000000000000 ) ) ;
#246 = VERTEX_POINT ( 'NONE', #222 ) ;
#247 = CIRCLE ( 'NONE', #288, 1.290000000000000036 ) ;
#248 = CARTESIAN_POINT ( 'NONE',  ( 3.491481338843133355E-14, -1.224646799147353454E-15, 10.00000000000000000 ) ) ;
#249 = DIRECTION ( 'NONE',  ( -3.491481338843133355E-15, 1.224646799147353454E-16, -1.000000000000000000 ) ) ;
#250 = SECURITY_CLASSIFICATION_LEVEL ( 'unclassified' ) ;
#251 = ORIENTED_EDGE ( 'NONE', *, *, #193, .F. ) ;
#252 = APPROVAL_STATUS ( 'not_yet_approved' ) ;
#253 = DIRECTION ( 'NONE',  ( 3.491481338843133355E-15, -1.224646799147353454E-16, 1.000000000000000000 ) ) ;
#254 = COORDINATED_UNIVERSAL_TIME_OFFSET ( 1, 0, .AHEAD. ) ;
#255 = EDGE_LOOP ( 'NONE', ( #139 ) ) ;
#256 = PERSON_AND_ORGANIZATION ( #123, #284 ) ;
#257 = EDGE_LOOP ( 'NONE', ( #183 ) ) ;
#258 = CC_DESIGN_PERSON_AND_ORGANIZATION_ASSIGNMENT ( #48, #30, ( #115 ) ) ;
#259 = AXIS2_PLACEMENT_3D ( 'NONE', #291, #84, #151 ) ;
#260 = CARTESIAN_POINT ( 'NONE',  ( 3.621500934903066672E-14, -1.270251534412525425E-15, 10.37239092362731618 ) ) ;
#261 = DIRECTION ( 'NONE',  ( -3.491481338843133355E-15, 1.224646799147353454E-16, -1.000000000000000000 ) ) ;
#262 = CIRCLE ( 'NONE', #73, 1.040000000000001368 ) ;
#263 = FACE_BOUND ( 'NONE', #178, .T. ) ;
#264 = CARTESIAN_POINT ( 'NONE',  ( 3.454775127283062187E-31, -1.211771993260302254E-32, 9.894869231716319282E-17 ) ) ;
#265 = DIRECTION ( 'NONE',  ( 3.491481338843133355E-15, -1.224646799147353454E-16, 1.000000000000000000 ) ) ;
#266 = CC_DESIGN_PERSON_AND_ORGANIZATION_ASSIGNMENT ( #72, #45, ( #10 ) ) ;
#267 = FACE_OUTER_BOUND ( 'NONE', #153, .T. ) ;
#268 = DIRECTION ( 'NONE',  ( 3.491481338843133355E-15, -1.224646799147353454E-16, 1.000000000000000000 ) ) ;
#269 = MANIFOLD_SOLID_BREP ( 'Corps-Déplacer/Copier1[2]', #179 ) ;
#270 = DIRECTION ( 'NONE',  ( 4.478906847412180089E-31, 1.000000000000000000, 1.260700200564541077E-16 ) ) ;
#271 = DATE_TIME_ROLE ( 'classification_date' ) ;
#272 = DIRECTION ( 'NONE',  ( -3.491481338843133355E-15, 1.224646799147353454E-16, -1.000000000000000000 ) ) ;
#273 = APPROVAL_STATUS ( 'not_yet_approved' ) ;
#274 = FACE_OUTER_BOUND ( 'NONE', #92, .T. ) ;
#275 = CIRCLE ( 'NONE', #154, 1.500000000000002887 ) ;
#276 = PERSON_AND_ORGANIZATION_ROLE ( 'creator' ) ;
#277 = FACE_OUTER_BOUND ( 'NONE', #66, .T. ) ;
#278 = CALENDAR_DATE ( 2021, 2, 12 ) ;
#279 = EDGE_LOOP ( 'NONE', ( #177 ) ) ;
#280 = ADVANCED_FACE ( 'NONE', ( #130, #267 ), #171, .T. ) ;
#281 = EDGE_CURVE ( 'NONE', #102, #102, #108, .T. ) ;
#282 = APPLICATION_PROTOCOL_DEFINITION ( 'international standard', 'config_control_design', 1994, #239 ) ;
#283 = AXIS2_PLACEMENT_3D ( 'NONE', #59, #268, #146 ) ;
#284 = ORGANIZATION ( 'UNSPECIFIED', 'UNSPECIFIED', '' ) ;
#285 = CARTESIAN_POINT ( 'NONE',  ( 3.491481338843133355E-14, -1.224646799147353454E-15, 10.00000000000000000 ) ) ;
#286 = DIRECTION ( 'NONE',  ( -3.491481338843133355E-15, 1.224646799147353454E-16, -1.000000000000000000 ) ) ;
#287 = DIRECTION ( 'NONE',  ( 4.275831445896960358E-31, 1.000000000000000000, 1.224646799147353454E-16 ) ) ;
#288 = AXIS2_PLACEMENT_3D ( 'NONE', #285, #81, #238 ) ;
#289 = DIRECTION ( 'NONE',  ( -3.491481338843133355E-15, 1.224646799147353454E-16, -1.000000000000000000 ) ) ;
#290 = FACE_OUTER_BOUND ( 'NONE', #49, .T. ) ;
#291 = CARTESIAN_POINT ( 'NONE',  ( 6.982962677686266711E-14, -2.449293598294706907E-15, 20.00000000000000000 ) ) ;
#292 = LOCAL_TIME ( 8, 9, 12.00000000000000000, #254 ) ;
#293 = CYLINDRICAL_SURFACE ( 'NONE', #160, 1.499999999999999112 ) ;
#294 = DIRECTION ( 'NONE',  ( 0.0000000000000000000, 0.0000000000000000000, 1.000000000000000000 ) ) ;
#295 = AXIS2_PLACEMENT_3D ( 'NONE', #107, #218, #270 ) ;
#296 = CIRCLE ( 'NONE', #259, 1.075000000000000178 ) ;
#297 = FACE_OUTER_BOUND ( 'NONE', #32, .T. ) ;
#298 = COORDINATED_UNIVERSAL_TIME_OFFSET ( 1, 0, .AHEAD. ) ;
#299 = FACE_OUTER_BOUND ( 'NONE', #116, .T. ) ;
#300 = PERSON_AND_ORGANIZATION ( #123, #284 ) ;
#301 = EDGE_LOOP ( 'NONE', ( #229 ) ) ;
#302 = AXIS2_PLACEMENT_3D ( 'NONE', #101, #212, #237 ) ;
#303 = EDGE_CURVE ( 'NONE', #147, #147, #296, .T. ) ;
ENDSEC;
END-ISO-10303-21;
