ISO-10303-21;
HEADER;
FILE_DESCRIPTION (( 'STEP AP203' ),
    '1' );
FILE_NAME ('327086.step',
    '2021-12-02T07:09:12',
    ( '' ),
    ( '' ),
    'SwSTEP 2.0',
    'SolidWorks 2019',
    '' );
FILE_SCHEMA (( 'CONFIG_CONTROL_DESIGN' ));
ENDSEC;

DATA;
#1 = FACE_OUTER_BOUND ( 'NONE', #139, .T. ) ;
#2 = EDGE_LOOP ( 'NONE', ( #82 ) ) ;
#3 = DATE_AND_TIME ( #214, #278 ) ;
#4 = FACE_BOUND ( 'NONE', #270, .T. ) ;
#5 = EDGE_LOOP ( 'NONE', ( #174 ) ) ;
#6 = DATE_AND_TIME ( #74, #256 ) ;
#7 = CIRCLE ( 'NONE', #87, 1.105384493975581250 ) ;
#8 =( NAMED_UNIT ( * ) SI_UNIT ( $, .STERADIAN. ) SOLID_ANGLE_UNIT ( ) );
#9 = EDGE_CURVE ( 'NONE', #181, #181, #46, .T. ) ;
#10 = ORIENTED_EDGE ( 'NONE', *, *, #48, .T. ) ;
#11 = CARTESIAN_POINT ( 'NONE',  ( 3.618477223366788537E-14, 1.074999999999997513, 10.36373066958947042 ) ) ;
#12 = FACE_OUTER_BOUND ( 'NONE', #127, .T. ) ;
#13 = PRODUCT_RELATED_PRODUCT_CATEGORY ( 'detail', '', ( #183 ) ) ;
#14 = CARTESIAN_POINT ( 'NONE',  ( 6.982962677686266711E-14, -2.602085213965210642E-15, 20.00000000000000000 ) ) ;
#15 = APPROVAL ( #191, 'UNSPECIFIED' ) ;
#16 = FACE_OUTER_BOUND ( 'NONE', #5, .T. ) ;
#17 = FACE_OUTER_BOUND ( 'NONE', #107, .T. ) ;
#18 = CIRCLE ( 'NONE', #91, 1.284999999999999920 ) ;
#19 = AXIS2_PLACEMENT_3D ( 'NONE', #25, #160, #137 ) ;
#20 = LOCAL_TIME ( 8, 9, 12.00000000000000000, #229 ) ;
#21 = ADVANCED_FACE ( 'NONE', ( #12, #151 ), #158, .T. ) ;
#22 = ORIENTED_EDGE ( 'NONE', *, *, #48, .F. ) ;
#23 = DIRECTION ( 'NONE',  ( 4.275831445896960358E-31, 1.000000000000000000, 1.224646799147353454E-16 ) ) ;
#24 = DIRECTION ( 'NONE',  ( 3.491481338843133355E-15, -1.224646799147353454E-16, 1.000000000000000000 ) ) ;
#25 = CARTESIAN_POINT ( 'NONE',  ( 0.0000000000000000000, 0.0000000000000000000, 0.0000000000000000000 ) ) ;
#26 = DIRECTION ( 'NONE',  ( 3.491481338843133355E-15, -1.224646799147353454E-16, 1.000000000000000000 ) ) ;
#27 = MECHANICAL_CONTEXT ( 'NONE', #172, 'mechanical' ) ;
#28 = DIRECTION ( 'NONE',  ( 0.0000000000000000000, 1.000000000000000000, 0.0000000000000000000 ) ) ;
#29 = COORDINATED_UNIVERSAL_TIME_OFFSET ( 1, 0, .AHEAD. ) ;
#30 = DIRECTION ( 'NONE',  ( -3.491481338843133355E-15, 1.224646799147353454E-16, -1.000000000000000000 ) ) ;
#31 = EDGE_LOOP ( 'NONE', ( #247 ) ) ;
#32 = PERSON_AND_ORGANIZATION ( #41, #163 ) ;
#33 = EDGE_CURVE ( 'NONE', #124, #124, #288, .T. ) ;
#34 = VERTEX_POINT ( 'NONE', #143 ) ;
#35 = ORIENTED_EDGE ( 'NONE', *, *, #9, .F. ) ;
#36 = TOROIDAL_SURFACE ( 'NONE', #206, 3.075000000000000622, 2.000000000000000000 ) ;
#37 = LOCAL_TIME ( 8, 9, 12.00000000000000000, #119 ) ;
#38 = SECURITY_CLASSIFICATION ( '', '', #135 ) ;
#39 = CIRCLE ( 'NONE', #150, 1.074999999999998845 ) ;
#40 = FACE_OUTER_BOUND ( 'NONE', #79, .T. ) ;
#41 = PERSON ( 'UNSPECIFIED', 'UNSPECIFIED', 'UNSPECIFIED', ('UNSPECIFIED'), ('UNSPECIFIED'), ('UNSPECIFIED') ) ;
#42 = DIRECTION ( 'NONE',  ( -3.491481338843133355E-15, 1.224646799147353454E-16, -1.000000000000000000 ) ) ;
#43 = ADVANCED_FACE ( 'NONE', ( #266, #40 ), #36, .F. ) ;
#44 =( GEOMETRIC_REPRESENTATION_CONTEXT ( 3 ) GLOBAL_UNCERTAINTY_ASSIGNED_CONTEXT ( ( #290 ) ) GLOBAL_UNIT_ASSIGNED_CONTEXT ( ( #81, #126, #8 ) ) REPRESENTATION_CONTEXT ( 'NONE', 'WORKASPACE' ) );
#45 = CARTESIAN_POINT ( 'NONE',  ( 7.885605607120419579E-14, -2.765898118561395173E-15, 22.58527210038943878 ) ) ;
#46 = CIRCLE ( 'NONE', #197, 1.284999999999998588 ) ;
#47 = FACE_OUTER_BOUND ( 'NONE', #31, .T. ) ;
#48 = EDGE_CURVE ( 'NONE', #60, #60, #241, .T. ) ;
#49 = CARTESIAN_POINT ( 'NONE',  ( 7.104220552055901835E-14, -2.491825135286220620E-15, 20.34729635533384595 ) ) ;
#50 = AXIS2_PLACEMENT_3D ( 'NONE', #275, #168, #235 ) ;
#51 = CALENDAR_DATE ( 2021, 2, 12 ) ;
#52 = DIRECTION ( 'NONE',  ( 0.0000000000000000000, 1.000000000000000000, 0.0000000000000000000 ) ) ;
#53 = ORIENTED_EDGE ( 'NONE', *, *, #155, .F. ) ;
#54 = CLOSED_SHELL ( 'NONE', ( #131, #86, #66, #43, #129, #148, #21, #193 ) ) ;
#55 = COORDINATED_UNIVERSAL_TIME_OFFSET ( 1, 0, .AHEAD. ) ;
#56 = FACE_BOUND ( 'NONE', #57, .T. ) ;
#57 = EDGE_LOOP ( 'NONE', ( #267 ) ) ;
#58 = EDGE_CURVE ( 'NONE', #145, #145, #217, .T. ) ;
#59 = PERSON_AND_ORGANIZATION_ROLE ( 'creator' ) ;
#60 = VERTEX_POINT ( 'NONE', #219 ) ;
#61 = CARTESIAN_POINT ( 'NONE',  ( 6.982962677686266711E-14, 1.074999999999997735, 20.00000000000000000 ) ) ;
#62 = EDGE_LOOP ( 'NONE', ( #68 ) ) ;
#63 = VERTEX_POINT ( 'NONE', #238 ) ;
#64 = AXIS2_PLACEMENT_3D ( 'NONE', #215, #187, #161 ) ;
#65 = APPLICATION_CONTEXT ( 'configuration controlled 3d designs of mechanical parts and assemblies' ) ;
#66 = ADVANCED_FACE ( 'NONE', ( #221, #16 ), #110, .T. ) ;
#67 = EDGE_LOOP ( 'NONE', ( #224 ) ) ;
#68 = ORIENTED_EDGE ( 'NONE', *, *, #271, .F. ) ;
#69 = CALENDAR_DATE ( 2021, 2, 12 ) ;
#70 = DIRECTION ( 'NONE',  ( 4.275831445896960358E-31, 1.000000000000000000, 1.224646799147353454E-16 ) ) ;
#71 = CARTESIAN_POINT ( 'NONE',  ( 8.728703347107829444E-16, -3.061616997868382402E-17, 0.2499999999999998890 ) ) ;
#72 = FACE_OUTER_BOUND ( 'NONE', #196, .T. ) ;
#73 = DIRECTION ( 'NONE',  ( -3.491481338843133355E-15, 1.224646799147353454E-16, -1.000000000000000000 ) ) ;
#74 = CALENDAR_DATE ( 2021, 2, 12 ) ;
#75 = CARTESIAN_POINT ( 'NONE',  ( 7.885605607120419579E-14, -2.765898118561395173E-15, 22.58527210038943878 ) ) ;
#76 = CARTESIAN_POINT ( 'NONE',  ( 0.0000000000000000000, 0.0000000000000000000, 0.0000000000000000000 ) ) ;
#77 = ADVANCED_FACE ( 'NONE', ( #17 ), #205, .F. ) ;
#78 = CYLINDRICAL_SURFACE ( 'NONE', #264, 1.284999999999999254 ) ;
#79 = EDGE_LOOP ( 'NONE', ( #218 ) ) ;
#80 = APPROVAL_STATUS ( 'not_yet_approved' ) ;
#81 =( LENGTH_UNIT ( ) NAMED_UNIT ( * ) SI_UNIT ( .MILLI., .METRE. ) );
#82 = ORIENTED_EDGE ( 'NONE', *, *, #58, .F. ) ;
#83 = CARTESIAN_POINT ( 'NONE',  ( 2.129803616694311221E-13, 1.199999999999995515, 61.00000000000000000 ) ) ;
#84 = ADVANCED_BREP_SHAPE_REPRESENTATION ( '327086', ( #291, #287, #19 ), #44 ) ;
#85 = CIRCLE ( 'NONE', #223, 1.284999999999999920 ) ;
#86 = ADVANCED_FACE ( 'NONE', ( #185, #212 ), #111, .T. ) ;
#87 = AXIS2_PLACEMENT_3D ( 'NONE', #49, #273, #120 ) ;
#88 = CARTESIAN_POINT ( 'NONE',  ( 2.129803616694311221E-13, -7.470345474798856659E-15, 61.00000000000000000 ) ) ;
#89 = ORIENTED_EDGE ( 'NONE', *, *, #112, .F. ) ;
#90 = DIRECTION ( 'NONE',  ( -3.491481338843133355E-15, 1.224646799147353454E-16, -1.000000000000000000 ) ) ;
#91 = AXIS2_PLACEMENT_3D ( 'NONE', #299, #232, #28 ) ;
#92 = APPROVAL_PERSON_ORGANIZATION ( #211, #15, #164 ) ;
#93 = DIRECTION ( 'NONE',  ( 0.0000000000000000000, 1.000000000000000000, 0.0000000000000000000 ) ) ;
#94 = EDGE_LOOP ( 'NONE', ( #123 ) ) ;
#95 = CARTESIAN_POINT ( 'NONE',  ( 2.119329172677781757E-13, -7.433606070824434221E-15, 60.69999999999999574 ) ) ;
#96 = EDGE_CURVE ( 'NONE', #171, #171, #7, .T. ) ;
#97 = DATE_AND_TIME ( #69, #285 ) ;
#98 = DIRECTION ( 'NONE',  ( 0.0000000000000000000, 1.000000000000000000, 0.0000000000000000000 ) ) ;
#99 = PERSON_AND_ORGANIZATION ( #41, #163 ) ;
#100 = DIRECTION ( 'NONE',  ( 0.0000000000000000000, 1.000000000000000000, 0.0000000000000000000 ) ) ;
#101 = DATE_AND_TIME ( #51, #20 ) ;
#102 = DIRECTION ( 'NONE',  ( -3.491481338843133355E-15, 1.224646799147353454E-16, -1.000000000000000000 ) ) ;
#103 = AXIS2_PLACEMENT_3D ( 'NONE', #45, #180, #277 ) ;
#104 = CARTESIAN_POINT ( 'NONE',  ( 0.0000000000000000000, 0.0000000000000000000, 0.0000000000000000000 ) ) ;
#105 = AXIS2_PLACEMENT_3D ( 'NONE', #88, #178, #93 ) ;
#106 = APPROVAL_DATE_TIME ( #6, #15 ) ;
#107 = EDGE_LOOP ( 'NONE', ( #10 ) ) ;
#108 = EDGE_LOOP ( 'NONE', ( #169 ) ) ;
#109 = DIRECTION ( 'NONE',  ( 4.275831445896959482E-31, 1.000000000000000000, 1.224646799147353454E-16 ) ) ;
#110 = CYLINDRICAL_SURFACE ( 'NONE', #265, 1.074999999999999512 ) ;
#111 = CONICAL_SURFACE ( 'NONE', #133, 1.074999999999998845, 0.5235987755982937086 ) ;
#112 = EDGE_CURVE ( 'NONE', #262, #262, #39, .T. ) ;
#113 = CARTESIAN_POINT ( 'NONE',  ( 8.728703347107829444E-16, -3.061616997868382402E-17, 0.2499999999999998890 ) ) ;
#114 = DIRECTION ( 'NONE',  ( -4.275831445896959482E-31, -1.000000000000000000, -1.224646799147353454E-16 ) ) ;
#115 = APPLICATION_PROTOCOL_DEFINITION ( 'international standard', 'config_control_design', 1994, #172 ) ;
#116 = DIRECTION ( 'NONE',  ( 3.491481338843133355E-15, -1.224646799147353454E-16, 1.000000000000000000 ) ) ;
#117 = APPROVAL_STATUS ( 'not_yet_approved' ) ;
#118 = CARTESIAN_POINT ( 'NONE',  ( 3.618477223366788537E-14, -1.269190959173800381E-15, 10.36373066958947042 ) ) ;
#119 = COORDINATED_UNIVERSAL_TIME_OFFSET ( 1, 0, .AHEAD. ) ;
#120 = DIRECTION ( 'NONE',  ( 0.0000000000000000000, 1.000000000000000000, 0.0000000000000000000 ) ) ;
#121 = ORIENTED_EDGE ( 'NONE', *, *, #155, .T. ) ;
#122 = PERSON_AND_ORGANIZATION ( #41, #163 ) ;
#123 = ORIENTED_EDGE ( 'NONE', *, *, #297, .F. ) ;
#124 = VERTEX_POINT ( 'NONE', #83 ) ;
#125 = ORIENTED_EDGE ( 'NONE', *, *, #297, .T. ) ;
#126 =( NAMED_UNIT ( * ) PLANE_ANGLE_UNIT ( ) SI_UNIT ( $, .RADIAN. ) );
#127 = EDGE_LOOP ( 'NONE', ( #53 ) ) ;
#128 = CC_DESIGN_APPROVAL ( #15, ( #250 ) ) ;
#129 = ADVANCED_FACE ( 'NONE', ( #56, #228 ), #294, .T. ) ;
#130 = ORIENTED_EDGE ( 'NONE', *, *, #112, .T. ) ;
#131 = ADVANCED_FACE ( 'NONE', ( #141 ), #138, .F. ) ;
#132 = FACE_OUTER_BOUND ( 'NONE', #62, .T. ) ;
#133 = AXIS2_PLACEMENT_3D ( 'NONE', #253, #73, #52 ) ;
#134 = PLANE ( 'NONE',  #216 ) ;
#135 = SECURITY_CLASSIFICATION_LEVEL ( 'unclassified' ) ;
#136 = DIRECTION ( 'NONE',  ( 0.0000000000000000000, 1.000000000000000000, 0.0000000000000000000 ) ) ;
#137 = DIRECTION ( 'NONE',  ( 1.000000000000000000, 0.0000000000000000000, 0.0000000000000000000 ) ) ;
#138 = PLANE ( 'NONE',  #50 ) ;
#139 = EDGE_LOOP ( 'NONE', ( #125 ) ) ;
#140 = PERSON_AND_ORGANIZATION_ROLE ( 'design_owner' ) ;
#141 = FACE_OUTER_BOUND ( 'NONE', #246, .T. ) ;
#142 = PERSON_AND_ORGANIZATION ( #41, #163 ) ;
#143 = CARTESIAN_POINT ( 'NONE',  ( 3.491481338843133355E-14, 1.284999999999998588, 10.00000000000000000 ) ) ;
#144 = CC_DESIGN_PERSON_AND_ORGANIZATION_ASSIGNMENT ( #259, #59, ( #149 ) ) ;
#145 = VERTEX_POINT ( 'NONE', #61 ) ;
#146 = ORIENTED_EDGE ( 'NONE', *, *, #271, .T. ) ;
#147 = CARTESIAN_POINT ( 'NONE',  ( 2.119329172677781757E-13, 1.499999999999995559, 60.69999999999999574 ) ) ;
#148 = ADVANCED_FACE ( 'NONE', ( #132, #72 ), #280, .T. ) ;
#149 = PRODUCT_DEFINITION_FORMATION_WITH_SPECIFIED_SOURCE ( 'ANY', '', #183, .NOT_KNOWN. ) ;
#150 = AXIS2_PLACEMENT_3D ( 'NONE', #118, #302, #100 ) ;
#151 = FACE_BOUND ( 'NONE', #67, .T. ) ;
#152 = CC_DESIGN_PERSON_AND_ORGANIZATION_ASSIGNMENT ( #142, #236, ( #38 ) ) ;
#153 = ORIENTED_EDGE ( 'NONE', *, *, #9, .T. ) ;
#154 = DIRECTION ( 'NONE',  ( 4.275831445896959482E-31, 1.000000000000000000, 1.224646799147353454E-16 ) ) ;
#155 = EDGE_CURVE ( 'NONE', #260, #260, #204, .T. ) ;
#156 = DIRECTION ( 'NONE',  ( 4.496334500514952124E-31, 1.000000000000000000, 1.265605648815765228E-16 ) ) ;
#157 = DIRECTION ( 'NONE',  ( 3.491481338843133355E-15, -1.224646799147353454E-16, 1.000000000000000000 ) ) ;
#158 = CONICAL_SURFACE ( 'NONE', #225, 1.200000000000002842, 0.7853981633974453924 ) ;
#159 = CARTESIAN_POINT ( 'NONE',  ( 8.728703347107835360E-16, 1.284999999999998588, 0.2500000000000000555 ) ) ;
#160 = DIRECTION ( 'NONE',  ( 0.0000000000000000000, 0.0000000000000000000, 1.000000000000000000 ) ) ;
#161 = DIRECTION ( 'NONE',  ( 4.275831445896959482E-31, 1.000000000000000000, 1.224646799147353454E-16 ) ) ;
#162 = AXIS2_PLACEMENT_3D ( 'NONE', #95, #30, #136 ) ;
#163 = ORGANIZATION ( 'UNSPECIFIED', 'UNSPECIFIED', '' ) ;
#164 = APPROVAL_ROLE ( '' ) ;
#165 = PLANE ( 'NONE',  #64 ) ;
#166 = AXIS2_PLACEMENT_3D ( 'NONE', #295, #116, #255 ) ;
#167 = APPROVAL_DATE_TIME ( #3, #200 ) ;
#168 = DIRECTION ( 'NONE',  ( 3.491481338843133355E-15, -1.224646799147353454E-16, 1.000000000000000000 ) ) ;
#169 = ORIENTED_EDGE ( 'NONE', *, *, #227, .F. ) ;
#170 = ADVANCED_FACE ( 'NONE', ( #4, #226 ), #188, .T. ) ;
#171 = VERTEX_POINT ( 'NONE', #195 ) ;
#172 = APPLICATION_CONTEXT ( 'configuration controlled 3d designs of mechanical parts and assemblies' ) ;
#173 = AXIS2_PLACEMENT_3D ( 'NONE', #220, #269, #154 ) ;
#174 = ORIENTED_EDGE ( 'NONE', *, *, #58, .T. ) ;
#175 = CC_DESIGN_PERSON_AND_ORGANIZATION_ASSIGNMENT ( #301, #140, ( #183 ) ) ;
#176 = DIRECTION ( 'NONE',  ( 0.0000000000000000000, 1.000000000000000000, 0.0000000000000000000 ) ) ;
#177 = AXIS2_PLACEMENT_3D ( 'NONE', #113, #157, #208 ) ;
#178 = DIRECTION ( 'NONE',  ( -3.491481338843133355E-15, 1.224646799147353454E-16, -1.000000000000000000 ) ) ;
#179 = CLOSED_SHELL ( 'NONE', ( #77, #170, #263, #283 ) ) ;
#180 = DIRECTION ( 'NONE',  ( -3.491481338843133355E-15, 1.224646799147353454E-16, -1.000000000000000000 ) ) ;
#181 = VERTEX_POINT ( 'NONE', #159 ) ;
#182 = APPROVAL_PERSON_ORGANIZATION ( #231, #200, #194 ) ;
#183 = PRODUCT ( '327086', '327086', '', ( #27 ) ) ;
#184 = PERSON_AND_ORGANIZATION_ROLE ( 'design_supplier' ) ;
#185 = FACE_OUTER_BOUND ( 'NONE', #108, .T. ) ;
#186 = APPROVAL_ROLE ( '' ) ;
#187 = DIRECTION ( 'NONE',  ( -3.491481338843133355E-15, 1.224646799147353454E-16, -1.000000000000000000 ) ) ;
#188 = CONICAL_SURFACE ( 'NONE', #177, 1.284999999999998588, 0.7853981633974428389 ) ;
#189 = APPROVAL_PERSON_ORGANIZATION ( #32, #292, #186 ) ;
#190 = EDGE_LOOP ( 'NONE', ( #130 ) ) ;
#191 = APPROVAL_STATUS ( 'not_yet_approved' ) ;
#192 = DIRECTION ( 'NONE',  ( -3.491481338843133355E-15, 1.224646799147353454E-16, -1.000000000000000000 ) ) ;
#193 = ADVANCED_FACE ( 'NONE', ( #47 ), #165, .F. ) ;
#194 = APPROVAL_ROLE ( '' ) ;
#195 = CARTESIAN_POINT ( 'NONE',  ( 7.104220552055901835E-14, 1.105384493975578808, 20.34729635533384595 ) ) ;
#196 = EDGE_LOOP ( 'NONE', ( #121 ) ) ;
#197 = AXIS2_PLACEMENT_3D ( 'NONE', #71, #207, #156 ) ;
#198 = CC_DESIGN_APPROVAL ( #292, ( #38 ) ) ;
#199 = DIRECTION ( 'NONE',  ( -3.491481338843133355E-15, 1.224646799147353454E-16, -1.000000000000000000 ) ) ;
#200 = APPROVAL ( #80, 'UNSPECIFIED' ) ;
#201 = CARTESIAN_POINT ( 'NONE',  ( 6.982962677686266711E-14, -2.449293598294706907E-15, 20.00000000000000000 ) ) ;
#202 = EDGE_LOOP ( 'NONE', ( #153 ) ) ;
#203 = CC_DESIGN_DATE_AND_TIME_ASSIGNMENT ( #257, #281, ( #250 ) ) ;
#204 = CIRCLE ( 'NONE', #162, 1.500000000000002887 ) ;
#205 = PLANE ( 'NONE',  #166 ) ;
#206 = AXIS2_PLACEMENT_3D ( 'NONE', #14, #42, #109 ) ;
#207 = DIRECTION ( 'NONE',  ( -3.491481338843133355E-15, 1.224646799147353454E-16, -1.000000000000000000 ) ) ;
#208 = DIRECTION ( 'NONE',  ( -4.496334500514952124E-31, -1.000000000000000000, -1.265605648815765228E-16 ) ) ;
#209 = CARTESIAN_POINT ( 'NONE',  ( 3.491481338843133355E-14, -1.224646799147353454E-15, 10.00000000000000000 ) ) ;
#210 = CC_DESIGN_PERSON_AND_ORGANIZATION_ASSIGNMENT ( #99, #184, ( #149 ) ) ;
#211 = PERSON_AND_ORGANIZATION ( #41, #163 ) ;
#212 = FACE_BOUND ( 'NONE', #190, .T. ) ;
#213 = CARTESIAN_POINT ( 'NONE',  ( 3.491481338843133355E-14, 9.635956603602419256E-33, 10.00000000000000000 ) ) ;
#214 = CALENDAR_DATE ( 2021, 2, 12 ) ;
#215 = CARTESIAN_POINT ( 'NONE',  ( 2.129803616694311221E-13, 8.998558695971062171E-33, 61.00000000000000000 ) ) ;
#216 = AXIS2_PLACEMENT_3D ( 'NONE', #213, #24, #114 ) ;
#217 = CIRCLE ( 'NONE', #251, 1.075000000000000178 ) ;
#218 = ORIENTED_EDGE ( 'NONE', *, *, #96, .T. ) ;
#219 = CARTESIAN_POINT ( 'NONE',  ( 1.135641495829896858E-30, 1.035000000000001696, 3.252606517456513302E-16 ) ) ;
#220 = CARTESIAN_POINT ( 'NONE',  ( 6.930929411795607337E-31, -2.431042785433913577E-32, 1.985097080339000486E-16 ) ) ;
#221 = FACE_OUTER_BOUND ( 'NONE', #284, .T. ) ;
#222 = CIRCLE ( 'NONE', #103, 1.499999999999995559 ) ;
#223 = AXIS2_PLACEMENT_3D ( 'NONE', #209, #300, #98 ) ;
#224 = ORIENTED_EDGE ( 'NONE', *, *, #33, .T. ) ;
#225 = AXIS2_PLACEMENT_3D ( 'NONE', #249, #199, #286 ) ;
#226 = FACE_OUTER_BOUND ( 'NONE', #202, .T. ) ;
#227 = EDGE_CURVE ( 'NONE', #282, #282, #18, .T. ) ;
#228 = FACE_OUTER_BOUND ( 'NONE', #298, .T. ) ;
#229 = COORDINATED_UNIVERSAL_TIME_OFFSET ( 1, 0, .AHEAD. ) ;
#230 = DIRECTION ( 'NONE',  ( 4.275831445896959482E-31, 1.000000000000000000, 1.224646799147353700E-16 ) ) ;
#231 = PERSON_AND_ORGANIZATION ( #41, #163 ) ;
#232 = DIRECTION ( 'NONE',  ( -3.491481338843133355E-15, 1.224646799147353454E-16, -1.000000000000000000 ) ) ;
#233 = CC_DESIGN_DATE_AND_TIME_ASSIGNMENT ( #101, #274, ( #38 ) ) ;
#234 = PRODUCT_DEFINITION_SHAPE ( 'NONE', 'NONE',  #250 ) ;
#235 = DIRECTION ( 'NONE',  ( -4.275831445896959482E-31, -1.000000000000000000, -1.224646799147353454E-16 ) ) ;
#236 = PERSON_AND_ORGANIZATION_ROLE ( 'classification_officer' ) ;
#237 = CARTESIAN_POINT ( 'NONE',  ( 3.491481338843133355E-14, 1.284999999999998588, 10.00000000000000000 ) ) ;
#238 = CARTESIAN_POINT ( 'NONE',  ( 7.885605607120419579E-14, 1.499999999999992673, 22.58527210038943878 ) ) ;
#239 = AXIS2_PLACEMENT_3D ( 'NONE', #76, #102, #23 ) ;
#240 = CC_DESIGN_APPROVAL ( #200, ( #149 ) ) ;
#241 = CIRCLE ( 'NONE', #173, 1.035000000000001696 ) ;
#242 = EDGE_LOOP ( 'NONE', ( #35 ) ) ;
#243 = CC_DESIGN_SECURITY_CLASSIFICATION ( #38, ( #149 ) ) ;
#244 = ORIENTED_EDGE ( 'NONE', *, *, #227, .T. ) ;
#245 = DESIGN_CONTEXT ( 'detailed design', #65, 'design' ) ;
#246 = EDGE_LOOP ( 'NONE', ( #244 ) ) ;
#247 = ORIENTED_EDGE ( 'NONE', *, *, #33, .F. ) ;
#248 = SHAPE_DEFINITION_REPRESENTATION ( #234, #84 ) ;
#249 = CARTESIAN_POINT ( 'NONE',  ( 2.129803616694311221E-13, -7.470345474798856659E-15, 61.00000000000000000 ) ) ;
#250 = PRODUCT_DEFINITION ( 'UNKNOWN', '', #149, #245 ) ;
#251 = AXIS2_PLACEMENT_3D ( 'NONE', #201, #289, #176 ) ;
#252 = FACE_OUTER_BOUND ( 'NONE', #242, .T. ) ;
#253 = CARTESIAN_POINT ( 'NONE',  ( 3.618477223366788537E-14, -1.269190959173800381E-15, 10.36373066958947042 ) ) ;
#254 = CALENDAR_DATE ( 2021, 2, 12 ) ;
#255 = DIRECTION ( 'NONE',  ( -4.275831445896959482E-31, -1.000000000000000000, -1.224646799147353454E-16 ) ) ;
#256 = LOCAL_TIME ( 8, 9, 12.00000000000000000, #55 ) ;
#257 = DATE_AND_TIME ( #254, #37 ) ;
#258 = DIRECTION ( 'NONE',  ( 0.0000000000000000000, -1.000000000000000000, 0.0000000000000000000 ) ) ;
#259 = PERSON_AND_ORGANIZATION ( #41, #163 ) ;
#260 = VERTEX_POINT ( 'NONE', #147 ) ;
#261 = CC_DESIGN_PERSON_AND_ORGANIZATION_ASSIGNMENT ( #122, #279, ( #250 ) ) ;
#262 = VERTEX_POINT ( 'NONE', #11 ) ;
#263 = ADVANCED_FACE ( 'NONE', ( #252, #1 ), #78, .T. ) ;
#264 = AXIS2_PLACEMENT_3D ( 'NONE', #104, #192, #230 ) ;
#265 = AXIS2_PLACEMENT_3D ( 'NONE', #293, #90, #70 ) ;
#266 = FACE_OUTER_BOUND ( 'NONE', #2, .T. ) ;
#267 = ORIENTED_EDGE ( 'NONE', *, *, #96, .F. ) ;
#268 = AXIS2_PLACEMENT_3D ( 'NONE', #75, #26, #258 ) ;
#269 = DIRECTION ( 'NONE',  ( -3.491481338843133355E-15, 1.224646799147353454E-16, -1.000000000000000000 ) ) ;
#270 = EDGE_LOOP ( 'NONE', ( #22 ) ) ;
#271 = EDGE_CURVE ( 'NONE', #63, #63, #222, .T. ) ;
#272 = FACE_OUTER_BOUND ( 'NONE', #94, .T. ) ;
#273 = DIRECTION ( 'NONE',  ( -3.491481338843133355E-15, 1.224646799147353454E-16, -1.000000000000000000 ) ) ;
#274 = DATE_TIME_ROLE ( 'classification_date' ) ;
#275 = CARTESIAN_POINT ( 'NONE',  ( 3.491481338843133355E-14, 9.635956603602419256E-33, 10.00000000000000000 ) ) ;
#276 = COORDINATED_UNIVERSAL_TIME_OFFSET ( 1, 0, .AHEAD. ) ;
#277 = DIRECTION ( 'NONE',  ( 0.0000000000000000000, 1.000000000000000000, 0.0000000000000000000 ) ) ;
#278 = LOCAL_TIME ( 8, 9, 12.00000000000000000, #29 ) ;
#279 = PERSON_AND_ORGANIZATION_ROLE ( 'creator' ) ;
#280 = CYLINDRICAL_SURFACE ( 'NONE', #239, 1.499999999999999112 ) ;
#281 = DATE_TIME_ROLE ( 'creation_date' ) ;
#282 = VERTEX_POINT ( 'NONE', #237 ) ;
#283 = ADVANCED_FACE ( 'NONE', ( #272 ), #134, .T. ) ;
#284 = EDGE_LOOP ( 'NONE', ( #89 ) ) ;
#285 = LOCAL_TIME ( 8, 9, 12.00000000000000000, #276 ) ;
#286 = DIRECTION ( 'NONE',  ( 0.0000000000000000000, 1.000000000000000000, 0.0000000000000000000 ) ) ;
#287 = MANIFOLD_SOLID_BREP ( 'Corps-Déplacer/Copier1[2]', #179 ) ;
#288 = CIRCLE ( 'NONE', #105, 1.200000000000002842 ) ;
#289 = DIRECTION ( 'NONE',  ( -3.491481338843133355E-15, 1.224646799147353454E-16, -1.000000000000000000 ) ) ;
#290 = UNCERTAINTY_MEASURE_WITH_UNIT (LENGTH_MEASURE( 1.000000000000000082E-05 ), #81, 'distance_accuracy_value', 'NONE');
#291 = MANIFOLD_SOLID_BREP ( 'Corps-Déplacer/Copier1[1]', #54 ) ;
#292 = APPROVAL ( #117, 'UNSPECIFIED' ) ;
#293 = CARTESIAN_POINT ( 'NONE',  ( 0.0000000000000000000, 0.0000000000000000000, 0.0000000000000000000 ) ) ;
#294 = CONICAL_SURFACE ( 'NONE', #268, 1.499999999999995559, 0.1745329251994260922 ) ;
#295 = CARTESIAN_POINT ( 'NONE',  ( 3.465464705897803668E-31, -1.215521392716956788E-32, 9.925485401695002428E-17 ) ) ;
#296 = APPROVAL_DATE_TIME ( #97, #292 ) ;
#297 = EDGE_CURVE ( 'NONE', #34, #34, #85, .T. ) ;
#298 = EDGE_LOOP ( 'NONE', ( #146 ) ) ;
#299 = CARTESIAN_POINT ( 'NONE',  ( 3.491481338843133355E-14, -1.224646799147353454E-15, 10.00000000000000000 ) ) ;
#300 = DIRECTION ( 'NONE',  ( -3.491481338843133355E-15, 1.224646799147353454E-16, -1.000000000000000000 ) ) ;
#301 = PERSON_AND_ORGANIZATION ( #41, #163 ) ;
#302 = DIRECTION ( 'NONE',  ( -3.491481338843133355E-15, 1.224646799147353454E-16, -1.000000000000000000 ) ) ;
#303 = APPLICATION_PROTOCOL_DEFINITION ( 'international standard', 'config_control_design', 1994, #65 ) ;
ENDSEC;
END-ISO-10303-21;
