ISO-10303-21;
HEADER;
FILE_DESCRIPTION (( 'STEP AP203' ),
    '1' );
FILE_NAME ('327085.step',
    '2021-12-02T07:09:11',
    ( '' ),
    ( '' ),
    'SwSTEP 2.0',
    'SolidWorks 2019',
    '' );
FILE_SCHEMA (( 'CONFIG_CONTROL_DESIGN' ));
ENDSEC;

DATA;
#1 = VERTEX_POINT ( 'NONE', #153 ) ;
#2 = ORIENTED_EDGE ( 'NONE', *, *, #230, .T. ) ;
#3 = EDGE_LOOP ( 'NONE', ( #72 ) ) ;
#4 = CONICAL_SURFACE ( 'NONE', #228, 1.200000000000002842, 0.7853981633974453924 ) ;
#5 = CIRCLE ( 'NONE', #234, 1.105384493975581250 ) ;
#6 = EDGE_CURVE ( 'NONE', #229, #229, #278, .T. ) ;
#7 = EDGE_LOOP ( 'NONE', ( #163 ) ) ;
#8 = FACE_BOUND ( 'NONE', #258, .T. ) ;
#9 = AXIS2_PLACEMENT_3D ( 'NONE', #121, #104, #102 ) ;
#10 = FACE_OUTER_BOUND ( 'NONE', #283, .T. ) ;
#11 = ADVANCED_FACE ( 'NONE', ( #73, #165 ), #214, .F. ) ;
#12 = DIRECTION ( 'NONE',  ( 0.0000000000000000000, 1.000000000000000000, 0.0000000000000000000 ) ) ;
#13 = APPLICATION_CONTEXT ( 'configuration controlled 3d designs of mechanical parts and assemblies' ) ;
#14 = CARTESIAN_POINT ( 'NONE',  ( -3.093173682537764138E-32, 1.084939279893684051E-33, -8.859201531813587661E-18 ) ) ;
#15 = LOCAL_TIME ( 8, 9, 11.00000000000000000, #219 ) ;
#16 = CC_DESIGN_PERSON_AND_ORGANIZATION_ASSIGNMENT ( #20, #202, ( #35 ) ) ;
#17 = DIRECTION ( 'NONE',  ( 3.491481338843133355E-15, -1.224646799147353454E-16, 1.000000000000000000 ) ) ;
#18 = UNCERTAINTY_MEASURE_WITH_UNIT (LENGTH_MEASURE( 1.000000000000000082E-05 ), #130, 'distance_accuracy_value', 'NONE');
#19 = AXIS2_PLACEMENT_3D ( 'NONE', #201, #290, #265 ) ;
#20 = PERSON_AND_ORGANIZATION ( #194, #122 ) ;
#21 = FACE_OUTER_BOUND ( 'NONE', #233, .T. ) ;
#22 = FACE_OUTER_BOUND ( 'NONE', #188, .T. ) ;
#23 = CALENDAR_DATE ( 2021, 2, 12 ) ;
#24 = CALENDAR_DATE ( 2021, 2, 12 ) ;
#25 = CYLINDRICAL_SURFACE ( 'NONE', #294, 1.499999999999999112 ) ;
#26 = AXIS2_PLACEMENT_3D ( 'NONE', #14, #17, #269 ) ;
#27 = CARTESIAN_POINT ( 'NONE',  ( 3.491481338843133355E-14, 1.279999999999998694, 10.00000000000000000 ) ) ;
#28 = PLANE ( 'NONE',  #108 ) ;
#29 = VERTEX_POINT ( 'NONE', #115 ) ;
#30 = ADVANCED_FACE ( 'NONE', ( #136 ), #28, .F. ) ;
#31 = CARTESIAN_POINT ( 'NONE',  ( 3.491481338843133355E-14, -1.224646799147353454E-15, 10.00000000000000000 ) ) ;
#32 = AXIS2_PLACEMENT_3D ( 'NONE', #240, #193, #296 ) ;
#33 = EDGE_LOOP ( 'NONE', ( #281 ) ) ;
#34 = CARTESIAN_POINT ( 'NONE',  ( 2.129803616694311221E-13, 8.998558695971062171E-33, 61.00000000000000000 ) ) ;
#35 = SECURITY_CLASSIFICATION ( '', '', #197 ) ;
#36 = DIRECTION ( 'NONE',  ( -4.513898307157588410E-31, -1.000000000000000000, -1.270549420881451741E-16 ) ) ;
#37 = MECHANICAL_CONTEXT ( 'NONE', #13, 'mechanical' ) ;
#38 = APPROVAL_ROLE ( '' ) ;
#39 = EDGE_CURVE ( 'NONE', #225, #225, #174, .T. ) ;
#40 = CARTESIAN_POINT ( 'NONE',  ( 7.885605607120419579E-14, 1.499999999999992673, 22.58527210038943878 ) ) ;
#41 = CARTESIAN_POINT ( 'NONE',  ( 7.104220552055901835E-14, 1.105384493975578808, 20.34729635533384595 ) ) ;
#42 = PERSON_AND_ORGANIZATION ( #194, #122 ) ;
#43 = EDGE_CURVE ( 'NONE', #29, #29, #148, .T. ) ;
#44 = DIRECTION ( 'NONE',  ( 0.0000000000000000000, 1.000000000000000000, 0.0000000000000000000 ) ) ;
#45 = DIRECTION ( 'NONE',  ( 4.275831445896959482E-31, 1.000000000000000000, 1.224646799147353454E-16 ) ) ;
#46 = EDGE_LOOP ( 'NONE', ( #2 ) ) ;
#47 = APPROVAL ( #89, 'UNSPECIFIED' ) ;
#48 = ORIENTED_EDGE ( 'NONE', *, *, #289, .T. ) ;
#49 = EDGE_LOOP ( 'NONE', ( #189 ) ) ;
#50 = AXIS2_PLACEMENT_3D ( 'NONE', #63, #302, #44 ) ;
#51 = MANIFOLD_SOLID_BREP ( 'Corps-Déplacer/Copier1[2]', #139 ) ;
#52 = LOCAL_TIME ( 8, 9, 11.00000000000000000, #65 ) ;
#53 = CLOSED_SHELL ( 'NONE', ( #146, #129, #175, #11, #198, #282, #270, #30 ) ) ;
#54 = EDGE_CURVE ( 'NONE', #113, #113, #5, .T. ) ;
#55 = CARTESIAN_POINT ( 'NONE',  ( 3.615453511830511664E-14, -1.268130383935075337E-15, 10.35507041555162644 ) ) ;
#56 = CARTESIAN_POINT ( 'NONE',  ( 0.0000000000000000000, 0.0000000000000000000, 0.0000000000000000000 ) ) ;
#57 = CIRCLE ( 'NONE', #50, 1.200000000000002842 ) ;
#58 = DIRECTION ( 'NONE',  ( 3.491481338843133355E-15, -1.224646799147353454E-16, 1.000000000000000000 ) ) ;
#59 = CALENDAR_DATE ( 2021, 2, 12 ) ;
#60 = PERSON_AND_ORGANIZATION ( #194, #122 ) ;
#61 = FACE_OUTER_BOUND ( 'NONE', #216, .T. ) ;
#62 = DATE_TIME_ROLE ( 'classification_date' ) ;
#63 = CARTESIAN_POINT ( 'NONE',  ( 2.129803616694311221E-13, -7.470345474798856659E-15, 61.00000000000000000 ) ) ;
#64 = CONICAL_SURFACE ( 'NONE', #238, 1.279999999999998694, 0.7853981633974425058 ) ;
#65 = COORDINATED_UNIVERSAL_TIME_OFFSET ( 1, 0, .AHEAD. ) ;
#66 = CARTESIAN_POINT ( 'NONE',  ( 3.785471652766323589E-31, 1.030000000000001803, 1.084202172485504434E-16 ) ) ;
#67 = DIRECTION ( 'NONE',  ( 0.0000000000000000000, 1.000000000000000000, 0.0000000000000000000 ) ) ;
#68 = CARTESIAN_POINT ( 'NONE',  ( 2.129803616694311221E-13, 1.199999999999995515, 61.00000000000000000 ) ) ;
#69 = CC_DESIGN_PERSON_AND_ORGANIZATION_ASSIGNMENT ( #81, #173, ( #176 ) ) ;
#70 = CIRCLE ( 'NONE', #19, 1.279999999999998694 ) ;
#71 = CARTESIAN_POINT ( 'NONE',  ( 2.119329172677781757E-13, 1.499999999999995559, 60.69999999999999574 ) ) ;
#72 = ORIENTED_EDGE ( 'NONE', *, *, #54, .T. ) ;
#73 = FACE_OUTER_BOUND ( 'NONE', #49, .T. ) ;
#74 = ORIENTED_EDGE ( 'NONE', *, *, #206, .F. ) ;
#75 = PRODUCT_DEFINITION_FORMATION_WITH_SPECIFIED_SOURCE ( 'ANY', '', #176, .NOT_KNOWN. ) ;
#76 = ADVANCED_FACE ( 'NONE', ( #79 ), #263, .F. ) ;
#77 = AXIS2_PLACEMENT_3D ( 'NONE', #246, #58, #217 ) ;
#78 = FACE_BOUND ( 'NONE', #101, .T. ) ;
#79 = FACE_OUTER_BOUND ( 'NONE', #7, .T. ) ;
#80 = FACE_OUTER_BOUND ( 'NONE', #96, .T. ) ;
#81 = PERSON_AND_ORGANIZATION ( #194, #122 ) ;
#82 = CC_DESIGN_APPROVAL ( #47, ( #35 ) ) ;
#83 = AXIS2_PLACEMENT_3D ( 'NONE', #134, #274, #208 ) ;
#84 = DIRECTION ( 'NONE',  ( 3.491481338843133355E-15, -1.224646799147353454E-16, 1.000000000000000000 ) ) ;
#85 = DIRECTION ( 'NONE',  ( -3.491481338843133355E-15, 1.224646799147353454E-16, -1.000000000000000000 ) ) ;
#86 = PERSON_AND_ORGANIZATION ( #194, #122 ) ;
#87 = CARTESIAN_POINT ( 'NONE',  ( 0.0000000000000000000, 0.0000000000000000000, 0.0000000000000000000 ) ) ;
#88 = ADVANCED_FACE ( 'NONE', ( #80 ), #195, .T. ) ;
#89 = APPROVAL_STATUS ( 'not_yet_approved' ) ;
#90 = DATE_AND_TIME ( #24, #157 ) ;
#91 = CARTESIAN_POINT ( 'NONE',  ( 3.615453511830511664E-14, 1.074999999999997513, 10.35507041555162644 ) ) ;
#92 = AXIS2_PLACEMENT_3D ( 'NONE', #117, #179, #231 ) ;
#93 = CARTESIAN_POINT ( 'NONE',  ( 2.129803616694311221E-13, -7.470345474798856659E-15, 61.00000000000000000 ) ) ;
#94 = EDGE_CURVE ( 'NONE', #1, #1, #70, .T. ) ;
#95 = VERTEX_POINT ( 'NONE', #71 ) ;
#96 = EDGE_LOOP ( 'NONE', ( #256 ) ) ;
#97 = CC_DESIGN_SECURITY_CLASSIFICATION ( #35, ( #75 ) ) ;
#98 =( NAMED_UNIT ( * ) SI_UNIT ( $, .STERADIAN. ) SOLID_ANGLE_UNIT ( ) );
#99 = ORIENTED_EDGE ( 'NONE', *, *, #123, .T. ) ;
#100 = CONICAL_SURFACE ( 'NONE', #180, 1.074999999999998845, 0.5235987755982928205 ) ;
#101 = EDGE_LOOP ( 'NONE', ( #276 ) ) ;
#102 = DIRECTION ( 'NONE',  ( 4.275831445896960358E-31, 1.000000000000000000, 1.224646799147353454E-16 ) ) ;
#103 = AXIS2_PLACEMENT_3D ( 'NONE', #209, #254, #45 ) ;
#104 = DIRECTION ( 'NONE',  ( -3.491481338843133355E-15, 1.224646799147353454E-16, -1.000000000000000000 ) ) ;
#105 = FACE_OUTER_BOUND ( 'NONE', #33, .T. ) ;
#106 = APPLICATION_PROTOCOL_DEFINITION ( 'international standard', 'config_control_design', 1994, #119 ) ;
#107 = DATE_AND_TIME ( #23, #128 ) ;
#108 = AXIS2_PLACEMENT_3D ( 'NONE', #34, #116, #211 ) ;
#109 = CC_DESIGN_DATE_AND_TIME_ASSIGNMENT ( #300, #112, ( #164 ) ) ;
#110 = FACE_OUTER_BOUND ( 'NONE', #118, .T. ) ;
#111 = APPROVAL_DATE_TIME ( #90, #224 ) ;
#112 = DATE_TIME_ROLE ( 'creation_date' ) ;
#113 = VERTEX_POINT ( 'NONE', #41 ) ;
#114 = PERSON_AND_ORGANIZATION_ROLE ( 'design_supplier' ) ;
#115 = CARTESIAN_POINT ( 'NONE',  ( 3.491481338843133355E-14, 1.279999999999998694, 10.00000000000000000 ) ) ;
#116 = DIRECTION ( 'NONE',  ( -3.491481338843133355E-15, 1.224646799147353454E-16, -1.000000000000000000 ) ) ;
#117 = CARTESIAN_POINT ( 'NONE',  ( 7.885605607120419579E-14, -2.765898118561395173E-15, 22.58527210038943878 ) ) ;
#118 = EDGE_LOOP ( 'NONE', ( #120 ) ) ;
#119 = APPLICATION_CONTEXT ( 'configuration controlled 3d designs of mechanical parts and assemblies' ) ;
#120 = ORIENTED_EDGE ( 'NONE', *, *, #206, .T. ) ;
#121 = CARTESIAN_POINT ( 'NONE',  ( -6.186347365075528276E-32, 2.169878559787368102E-33, -1.771840306362717532E-17 ) ) ;
#122 = ORGANIZATION ( 'UNSPECIFIED', 'UNSPECIFIED', '' ) ;
#123 = EDGE_CURVE ( 'NONE', #133, #133, #190, .T. ) ;
#124 = FACE_OUTER_BOUND ( 'NONE', #213, .T. ) ;
#125 = CALENDAR_DATE ( 2021, 2, 12 ) ;
#126 = DIRECTION ( 'NONE',  ( 4.275831445896960358E-31, 1.000000000000000000, 1.224646799147353454E-16 ) ) ;
#127 = CARTESIAN_POINT ( 'NONE',  ( 0.0000000000000000000, 0.0000000000000000000, 0.0000000000000000000 ) ) ;
#128 = LOCAL_TIME ( 8, 9, 11.00000000000000000, #178 ) ;
#129 = ADVANCED_FACE ( 'NONE', ( #124, #78 ), #100, .T. ) ;
#130 =( LENGTH_UNIT ( ) NAMED_UNIT ( * ) SI_UNIT ( .MILLI., .METRE. ) );
#131 = APPROVAL_ROLE ( '' ) ;
#132 = PERSON_AND_ORGANIZATION ( #194, #122 ) ;
#133 = VERTEX_POINT ( 'NONE', #297 ) ;
#134 = CARTESIAN_POINT ( 'NONE',  ( 0.0000000000000000000, 0.0000000000000000000, 0.0000000000000000000 ) ) ;
#135 = AXIS2_PLACEMENT_3D ( 'NONE', #293, #84, #275 ) ;
#136 = FACE_OUTER_BOUND ( 'NONE', #187, .T. ) ;
#137 = DIRECTION ( 'NONE',  ( -3.491481338843133355E-15, 1.224646799147353454E-16, -1.000000000000000000 ) ) ;
#138 = ORIENTED_EDGE ( 'NONE', *, *, #39, .F. ) ;
#139 = CLOSED_SHELL ( 'NONE', ( #76, #170, #259, #88 ) ) ;
#140 = ORIENTED_EDGE ( 'NONE', *, *, #6, .T. ) ;
#141 = ADVANCED_BREP_SHAPE_REPRESENTATION ( '327085', ( #151, #51, #252 ), #166 ) ;
#142 = ORIENTED_EDGE ( 'NONE', *, *, #230, .F. ) ;
#143 = CC_DESIGN_PERSON_AND_ORGANIZATION_ASSIGNMENT ( #42, #227, ( #164 ) ) ;
#144 = AXIS2_PLACEMENT_3D ( 'NONE', #172, #223, #145 ) ;
#145 = DIRECTION ( 'NONE',  ( -4.275831445896959482E-31, -1.000000000000000000, -1.224646799147353454E-16 ) ) ;
#146 = ADVANCED_FACE ( 'NONE', ( #61 ), #152, .F. ) ;
#147 = DIRECTION ( 'NONE',  ( -3.491481338843133355E-15, 1.224646799147353454E-16, -1.000000000000000000 ) ) ;
#148 = CIRCLE ( 'NONE', #286, 1.280000000000000027 ) ;
#149 = CYLINDRICAL_SURFACE ( 'NONE', #260, 1.074999999999999512 ) ;
#150 = PERSON_AND_ORGANIZATION ( #194, #122 ) ;
#151 = MANIFOLD_SOLID_BREP ( 'Corps-Déplacer/Copier1[1]', #53 ) ;
#152 = PLANE ( 'NONE',  #77 ) ;
#153 = CARTESIAN_POINT ( 'NONE',  ( 8.728703347107835360E-16, 1.279999999999998694, 0.2500000000000000555 ) ) ;
#154 = APPROVAL_STATUS ( 'not_yet_approved' ) ;
#155 = DIRECTION ( 'NONE',  ( -3.491481338843133355E-15, 1.224646799147353454E-16, -1.000000000000000000 ) ) ;
#156 = FACE_BOUND ( 'NONE', #46, .T. ) ;
#157 = LOCAL_TIME ( 8, 9, 11.00000000000000000, #243 ) ;
#158 = EDGE_LOOP ( 'NONE', ( #74 ) ) ;
#159 = CYLINDRICAL_SURFACE ( 'NONE', #83, 1.279999999999999361 ) ;
#160 = CIRCLE ( 'NONE', #92, 1.499999999999995559 ) ;
#161 = ORIENTED_EDGE ( 'NONE', *, *, #94, .F. ) ;
#162 = FACE_OUTER_BOUND ( 'NONE', #158, .T. ) ;
#163 = ORIENTED_EDGE ( 'NONE', *, *, #39, .T. ) ;
#164 = PRODUCT_DEFINITION ( 'UNKNOWN', '', #75, #298 ) ;
#165 = FACE_OUTER_BOUND ( 'NONE', #3, .T. ) ;
#166 =( GEOMETRIC_REPRESENTATION_CONTEXT ( 3 ) GLOBAL_UNCERTAINTY_ASSIGNED_CONTEXT ( ( #18 ) ) GLOBAL_UNIT_ASSIGNED_CONTEXT ( ( #130, #250, #98 ) ) REPRESENTATION_CONTEXT ( 'NONE', 'WORKASPACE' ) );
#167 = ORIENTED_EDGE ( 'NONE', *, *, #43, .T. ) ;
#168 = AXIS2_PLACEMENT_3D ( 'NONE', #279, #277, #203 ) ;
#169 = DIRECTION ( 'NONE',  ( 3.491481338843133355E-15, -1.224646799147353454E-16, 1.000000000000000000 ) ) ;
#170 = ADVANCED_FACE ( 'NONE', ( #8, #105 ), #64, .T. ) ;
#171 = FACE_OUTER_BOUND ( 'NONE', #280, .T. ) ;
#172 = CARTESIAN_POINT ( 'NONE',  ( 3.491481338843133355E-14, 9.598462609035873911E-33, 10.00000000000000000 ) ) ;
#173 = PERSON_AND_ORGANIZATION_ROLE ( 'design_owner' ) ;
#174 = CIRCLE ( 'NONE', #9, 1.030000000000001803 ) ;
#175 = ADVANCED_FACE ( 'NONE', ( #10, #171 ), #149, .T. ) ;
#176 = PRODUCT ( '327085', '327085', '', ( #37 ) ) ;
#177 = CALENDAR_DATE ( 2021, 2, 12 ) ;
#178 = COORDINATED_UNIVERSAL_TIME_OFFSET ( 1, 0, .AHEAD. ) ;
#179 = DIRECTION ( 'NONE',  ( -3.491481338843133355E-15, 1.224646799147353454E-16, -1.000000000000000000 ) ) ;
#180 = AXIS2_PLACEMENT_3D ( 'NONE', #55, #85, #12 ) ;
#181 = DIRECTION ( 'NONE',  ( 0.0000000000000000000, 0.0000000000000000000, 1.000000000000000000 ) ) ;
#182 = PERSON_AND_ORGANIZATION_ROLE ( 'creator' ) ;
#183 = DIRECTION ( 'NONE',  ( 4.275831445896960358E-31, 1.000000000000000000, 1.224646799147353454E-16 ) ) ;
#184 = DIRECTION ( 'NONE',  ( -3.491481338843133355E-15, 1.224646799147353454E-16, -1.000000000000000000 ) ) ;
#185 = CARTESIAN_POINT ( 'NONE',  ( 2.119329172677781757E-13, -7.433606070824434221E-15, 60.69999999999999574 ) ) ;
#186 = ORIENTED_EDGE ( 'NONE', *, *, #289, .F. ) ;
#187 = EDGE_LOOP ( 'NONE', ( #142 ) ) ;
#188 = EDGE_LOOP ( 'NONE', ( #167 ) ) ;
#189 = ORIENTED_EDGE ( 'NONE', *, *, #123, .F. ) ;
#190 = CIRCLE ( 'NONE', #32, 1.075000000000000178 ) ;
#191 = DIRECTION ( 'NONE',  ( -3.491481338843133355E-15, 1.224646799147353454E-16, -1.000000000000000000 ) ) ;
#192 = PRODUCT_RELATED_PRODUCT_CATEGORY ( 'detail', '', ( #176 ) ) ;
#193 = DIRECTION ( 'NONE',  ( -3.491481338843133355E-15, 1.224646799147353454E-16, -1.000000000000000000 ) ) ;
#194 = PERSON ( 'UNSPECIFIED', 'UNSPECIFIED', 'UNSPECIFIED', ('UNSPECIFIED'), ('UNSPECIFIED'), ('UNSPECIFIED') ) ;
#195 = PLANE ( 'NONE',  #144 ) ;
#196 = APPROVAL_DATE_TIME ( #291, #247 ) ;
#197 = SECURITY_CLASSIFICATION_LEVEL ( 'unclassified' ) ;
#198 = ADVANCED_FACE ( 'NONE', ( #220, #200 ), #242, .T. ) ;
#199 = CC_DESIGN_APPROVAL ( #247, ( #164 ) ) ;
#200 = FACE_OUTER_BOUND ( 'NONE', #257, .T. ) ;
#201 = CARTESIAN_POINT ( 'NONE',  ( 8.728703347107829444E-16, -3.061616997868382402E-17, 0.2499999999999998890 ) ) ;
#202 = PERSON_AND_ORGANIZATION_ROLE ( 'classification_officer' ) ;
#203 = DIRECTION ( 'NONE',  ( 0.0000000000000000000, 1.000000000000000000, 0.0000000000000000000 ) ) ;
#204 = PRODUCT_DEFINITION_SHAPE ( 'NONE', 'NONE',  #164 ) ;
#205 = DIRECTION ( 'NONE',  ( -3.491481338843133355E-15, 1.224646799147353454E-16, -1.000000000000000000 ) ) ;
#206 = EDGE_CURVE ( 'NONE', #95, #95, #273, .T. ) ;
#207 = AXIS2_PLACEMENT_3D ( 'NONE', #185, #205, #301 ) ;
#208 = DIRECTION ( 'NONE',  ( 4.275831445896959482E-31, 1.000000000000000000, 1.224646799147353454E-16 ) ) ;
#209 = CARTESIAN_POINT ( 'NONE',  ( 6.982962677686266711E-14, -2.602085213965210642E-15, 20.00000000000000000 ) ) ;
#210 = DIRECTION ( 'NONE',  ( 0.0000000000000000000, 1.000000000000000000, 0.0000000000000000000 ) ) ;
#211 = DIRECTION ( 'NONE',  ( 4.275831445896959482E-31, 1.000000000000000000, 1.224646799147353454E-16 ) ) ;
#212 = APPROVAL_PERSON_ORGANIZATION ( #60, #47, #131 ) ;
#213 = EDGE_LOOP ( 'NONE', ( #235 ) ) ;
#214 = TOROIDAL_SURFACE ( 'NONE', #103, 3.075000000000000622, 2.000000000000000000 ) ;
#215 = ORIENTED_EDGE ( 'NONE', *, *, #285, .F. ) ;
#216 = EDGE_LOOP ( 'NONE', ( #140 ) ) ;
#217 = DIRECTION ( 'NONE',  ( -4.275831445896959482E-31, -1.000000000000000000, -1.224646799147353454E-16 ) ) ;
#218 = CIRCLE ( 'NONE', #168, 1.074999999999998845 ) ;
#219 = COORDINATED_UNIVERSAL_TIME_OFFSET ( 1, 0, .AHEAD. ) ;
#220 = FACE_BOUND ( 'NONE', #236, .T. ) ;
#221 = APPROVAL_STATUS ( 'not_yet_approved' ) ;
#222 = CC_DESIGN_APPROVAL ( #224, ( #75 ) ) ;
#223 = DIRECTION ( 'NONE',  ( 3.491481338843133355E-15, -1.224646799147353454E-16, 1.000000000000000000 ) ) ;
#224 = APPROVAL ( #221, 'UNSPECIFIED' ) ;
#225 = VERTEX_POINT ( 'NONE', #66 ) ;
#226 = PERSON_AND_ORGANIZATION ( #194, #122 ) ;
#227 = PERSON_AND_ORGANIZATION_ROLE ( 'creator' ) ;
#228 = AXIS2_PLACEMENT_3D ( 'NONE', #93, #155, #210 ) ;
#229 = VERTEX_POINT ( 'NONE', #27 ) ;
#230 = EDGE_CURVE ( 'NONE', #272, #272, #57, .T. ) ;
#231 = DIRECTION ( 'NONE',  ( 0.0000000000000000000, 1.000000000000000000, 0.0000000000000000000 ) ) ;
#232 = ORIENTED_EDGE ( 'NONE', *, *, #54, .F. ) ;
#233 = EDGE_LOOP ( 'NONE', ( #186 ) ) ;
#234 = AXIS2_PLACEMENT_3D ( 'NONE', #267, #287, #264 ) ;
#235 = ORIENTED_EDGE ( 'NONE', *, *, #6, .F. ) ;
#236 = EDGE_LOOP ( 'NONE', ( #232 ) ) ;
#237 = APPROVAL_PERSON_ORGANIZATION ( #132, #247, #249 ) ;
#238 = AXIS2_PLACEMENT_3D ( 'NONE', #239, #169, #36 ) ;
#239 = CARTESIAN_POINT ( 'NONE',  ( 8.728703347107829444E-16, -3.061616997868382402E-17, 0.2499999999999998890 ) ) ;
#240 = CARTESIAN_POINT ( 'NONE',  ( 6.982962677686266711E-14, -2.449293598294706907E-15, 20.00000000000000000 ) ) ;
#241 = DIRECTION ( 'NONE',  ( 1.000000000000000000, 0.0000000000000000000, 0.0000000000000000000 ) ) ;
#242 = CONICAL_SURFACE ( 'NONE', #135, 1.499999999999995559, 0.1745329251994260922 ) ;
#243 = COORDINATED_UNIVERSAL_TIME_OFFSET ( 1, 0, .AHEAD. ) ;
#244 = CARTESIAN_POINT ( 'NONE',  ( 3.491481338843133355E-14, -1.224646799147353454E-15, 10.00000000000000000 ) ) ;
#245 = APPROVAL_PERSON_ORGANIZATION ( #150, #224, #38 ) ;
#246 = CARTESIAN_POINT ( 'NONE',  ( 3.491481338843133355E-14, 9.598462609035873911E-33, 10.00000000000000000 ) ) ;
#247 = APPROVAL ( #154, 'UNSPECIFIED' ) ;
#248 = VERTEX_POINT ( 'NONE', #40 ) ;
#249 = APPROVAL_ROLE ( '' ) ;
#250 =( NAMED_UNIT ( * ) PLANE_ANGLE_UNIT ( ) SI_UNIT ( $, .RADIAN. ) );
#251 = FACE_OUTER_BOUND ( 'NONE', #303, .T. ) ;
#252 = AXIS2_PLACEMENT_3D ( 'NONE', #127, #181, #241 ) ;
#253 = CC_DESIGN_PERSON_AND_ORGANIZATION_ASSIGNMENT ( #226, #114, ( #75 ) ) ;
#254 = DIRECTION ( 'NONE',  ( -3.491481338843133355E-15, 1.224646799147353454E-16, -1.000000000000000000 ) ) ;
#255 = VERTEX_POINT ( 'NONE', #91 ) ;
#256 = ORIENTED_EDGE ( 'NONE', *, *, #43, .F. ) ;
#257 = EDGE_LOOP ( 'NONE', ( #48 ) ) ;
#258 = EDGE_LOOP ( 'NONE', ( #138 ) ) ;
#259 = ADVANCED_FACE ( 'NONE', ( #251, #22 ), #159, .T. ) ;
#260 = AXIS2_PLACEMENT_3D ( 'NONE', #56, #147, #126 ) ;
#261 = CC_DESIGN_DATE_AND_TIME_ASSIGNMENT ( #292, #62, ( #35 ) ) ;
#262 = LOCAL_TIME ( 8, 9, 11.00000000000000000, #299 ) ;
#263 = PLANE ( 'NONE',  #26 ) ;
#264 = DIRECTION ( 'NONE',  ( 0.0000000000000000000, 1.000000000000000000, 0.0000000000000000000 ) ) ;
#265 = DIRECTION ( 'NONE',  ( 4.513898307157588410E-31, 1.000000000000000000, 1.270549420881451741E-16 ) ) ;
#266 = APPLICATION_PROTOCOL_DEFINITION ( 'international standard', 'config_control_design', 1994, #13 ) ;
#267 = CARTESIAN_POINT ( 'NONE',  ( 7.104220552055901835E-14, -2.491825135286220620E-15, 20.34729635533384595 ) ) ;
#268 = APPROVAL_DATE_TIME ( #107, #47 ) ;
#269 = DIRECTION ( 'NONE',  ( -4.275831445896959482E-31, -1.000000000000000000, -1.224646799147353454E-16 ) ) ;
#270 = ADVANCED_FACE ( 'NONE', ( #162, #156 ), #4, .T. ) ;
#271 = SHAPE_DEFINITION_REPRESENTATION ( #204, #141 ) ;
#272 = VERTEX_POINT ( 'NONE', #68 ) ;
#273 = CIRCLE ( 'NONE', #207, 1.500000000000002887 ) ;
#274 = DIRECTION ( 'NONE',  ( -3.491481338843133355E-15, 1.224646799147353454E-16, -1.000000000000000000 ) ) ;
#275 = DIRECTION ( 'NONE',  ( 0.0000000000000000000, -1.000000000000000000, 0.0000000000000000000 ) ) ;
#276 = ORIENTED_EDGE ( 'NONE', *, *, #285, .T. ) ;
#277 = DIRECTION ( 'NONE',  ( -3.491481338843133355E-15, 1.224646799147353454E-16, -1.000000000000000000 ) ) ;
#278 = CIRCLE ( 'NONE', #284, 1.280000000000000027 ) ;
#279 = CARTESIAN_POINT ( 'NONE',  ( 3.615453511830511664E-14, -1.268130383935075337E-15, 10.35507041555162644 ) ) ;
#280 = EDGE_LOOP ( 'NONE', ( #99 ) ) ;
#281 = ORIENTED_EDGE ( 'NONE', *, *, #94, .T. ) ;
#282 = ADVANCED_FACE ( 'NONE', ( #21, #110 ), #25, .T. ) ;
#283 = EDGE_LOOP ( 'NONE', ( #215 ) ) ;
#284 = AXIS2_PLACEMENT_3D ( 'NONE', #31, #184, #67 ) ;
#285 = EDGE_CURVE ( 'NONE', #255, #255, #218, .T. ) ;
#286 = AXIS2_PLACEMENT_3D ( 'NONE', #244, #191, #288 ) ;
#287 = DIRECTION ( 'NONE',  ( -3.491481338843133355E-15, 1.224646799147353454E-16, -1.000000000000000000 ) ) ;
#288 = DIRECTION ( 'NONE',  ( 0.0000000000000000000, 1.000000000000000000, 0.0000000000000000000 ) ) ;
#289 = EDGE_CURVE ( 'NONE', #248, #248, #160, .T. ) ;
#290 = DIRECTION ( 'NONE',  ( -3.491481338843133355E-15, 1.224646799147353454E-16, -1.000000000000000000 ) ) ;
#291 = DATE_AND_TIME ( #125, #15 ) ;
#292 = DATE_AND_TIME ( #177, #262 ) ;
#293 = CARTESIAN_POINT ( 'NONE',  ( 7.885605607120419579E-14, -2.765898118561395173E-15, 22.58527210038943878 ) ) ;
#294 = AXIS2_PLACEMENT_3D ( 'NONE', #87, #137, #183 ) ;
#295 = CC_DESIGN_PERSON_AND_ORGANIZATION_ASSIGNMENT ( #86, #182, ( #75 ) ) ;
#296 = DIRECTION ( 'NONE',  ( 0.0000000000000000000, 1.000000000000000000, 0.0000000000000000000 ) ) ;
#297 = CARTESIAN_POINT ( 'NONE',  ( 6.982962677686266711E-14, 1.074999999999997735, 20.00000000000000000 ) ) ;
#298 = DESIGN_CONTEXT ( 'detailed design', #119, 'design' ) ;
#299 = COORDINATED_UNIVERSAL_TIME_OFFSET ( 1, 0, .AHEAD. ) ;
#300 = DATE_AND_TIME ( #59, #52 ) ;
#301 = DIRECTION ( 'NONE',  ( 0.0000000000000000000, 1.000000000000000000, 0.0000000000000000000 ) ) ;
#302 = DIRECTION ( 'NONE',  ( -3.491481338843133355E-15, 1.224646799147353454E-16, -1.000000000000000000 ) ) ;
#303 = EDGE_LOOP ( 'NONE', ( #161 ) ) ;
ENDSEC;
END-ISO-10303-21;
