ISO-10303-21;
HEADER;
FILE_DESCRIPTION (( 'STEP AP203' ),
    '1' );
FILE_NAME ('327084.step',
    '2021-12-02T07:09:10',
    ( '' ),
    ( '' ),
    'SwSTEP 2.0',
    'SolidWorks 2019',
    '' );
FILE_SCHEMA (( 'CONFIG_CONTROL_DESIGN' ));
ENDSEC;

DATA;
#1 = EDGE_LOOP ( 'NONE', ( #134 ) ) ;
#2 = FACE_BOUND ( 'NONE', #19, .T. ) ;
#3 = FACE_OUTER_BOUND ( 'NONE', #92, .T. ) ;
#4 = CC_DESIGN_PERSON_AND_ORGANIZATION_ASSIGNMENT ( #194, #77, ( #83 ) ) ;
#5 = CARTESIAN_POINT ( 'NONE',  ( 7.104220552055901835E-14, 1.080384493975577564, 20.34729635533384595 ) ) ;
#6 = CC_DESIGN_APPROVAL ( #124, ( #83 ) ) ;
#7 = AXIS2_PLACEMENT_3D ( 'NONE', #215, #103, #238 ) ;
#8 = FACE_OUTER_BOUND ( 'NONE', #205, .T. ) ;
#9 = CARTESIAN_POINT ( 'NONE',  ( 0.0000000000000000000, 0.0000000000000000000, 0.0000000000000000000 ) ) ;
#10 = PLANE ( 'NONE',  #297 ) ;
#11 = DATE_TIME_ROLE ( 'creation_date' ) ;
#12 = DIRECTION ( 'NONE',  ( -3.491481338843133355E-15, 1.224646799147353454E-16, -1.000000000000000000 ) ) ;
#13 = COORDINATED_UNIVERSAL_TIME_OFFSET ( 1, 0, .AHEAD. ) ;
#14 = PERSON_AND_ORGANIZATION_ROLE ( 'classification_officer' ) ;
#15 = COORDINATED_UNIVERSAL_TIME_OFFSET ( 1, 0, .AHEAD. ) ;
#16 = AXIS2_PLACEMENT_3D ( 'NONE', #193, #216, #53 ) ;
#17 = APPROVAL_PERSON_ORGANIZATION ( #125, #124, #285 ) ;
#18 = CYLINDRICAL_SURFACE ( 'NONE', #197, 1.269999999999999352 ) ;
#19 = EDGE_LOOP ( 'NONE', ( #91 ) ) ;
#20 = ADVANCED_FACE ( 'NONE', ( #3, #207 ), #250, .F. ) ;
#21 = ORIENTED_EDGE ( 'NONE', *, *, #135, .T. ) ;
#22 = CONICAL_SURFACE ( 'NONE', #292, 1.269999999999998685, 0.7853981633974432830 ) ;
#23 = FACE_OUTER_BOUND ( 'NONE', #71, .T. ) ;
#24 = FACE_OUTER_BOUND ( 'NONE', #268, .T. ) ;
#25 = ADVANCED_FACE ( 'NONE', ( #70 ), #274, .F. ) ;
#26 = ORIENTED_EDGE ( 'NONE', *, *, #301, .F. ) ;
#27 = CARTESIAN_POINT ( 'NONE',  ( 2.119329172677781757E-13, 1.499999999999995559, 60.69999999999999574 ) ) ;
#28 = DIRECTION ( 'NONE',  ( 0.0000000000000000000, 1.000000000000000000, 0.0000000000000000000 ) ) ;
#29 = APPLICATION_PROTOCOL_DEFINITION ( 'international standard', 'config_control_design', 1994, #222 ) ;
#30 = VERTEX_POINT ( 'NONE', #163 ) ;
#31 = DIRECTION ( 'NONE',  ( -3.491481338843133355E-15, 1.224646799147353454E-16, -1.000000000000000000 ) ) ;
#32 = AXIS2_PLACEMENT_3D ( 'NONE', #273, #158, #59 ) ;
#33 = MECHANICAL_CONTEXT ( 'NONE', #174, 'mechanical' ) ;
#34 = DIRECTION ( 'NONE',  ( -3.491481338843133355E-15, 1.224646799147353454E-16, -1.000000000000000000 ) ) ;
#35 = CARTESIAN_POINT ( 'NONE',  ( 3.491481338843133355E-14, 9.523474619902780483E-33, 10.00000000000000000 ) ) ;
#36 = ADVANCED_FACE ( 'NONE', ( #119, #186 ), #22, .T. ) ;
#37 = CARTESIAN_POINT ( 'NONE',  ( 2.129803616694311221E-13, -7.470345474798856659E-15, 61.00000000000000000 ) ) ;
#38 = SECURITY_CLASSIFICATION_LEVEL ( 'unclassified' ) ;
#39 = AXIS2_PLACEMENT_3D ( 'NONE', #191, #76, #286 ) ;
#40 = PRODUCT_RELATED_PRODUCT_CATEGORY ( 'detail', '', ( #295 ) ) ;
#41 = CIRCLE ( 'NONE', #241, 1.080384493975580007 ) ;
#42 = EDGE_LOOP ( 'NONE', ( #21 ) ) ;
#43 = APPROVAL_PERSON_ORGANIZATION ( #106, #60, #82 ) ;
#44 = CLOSED_SHELL ( 'NONE', ( #278, #36, #48, #204 ) ) ;
#45 = CARTESIAN_POINT ( 'NONE',  ( 0.0000000000000000000, 0.0000000000000000000, 0.0000000000000000000 ) ) ;
#46 = DIRECTION ( 'NONE',  ( -4.549440813513159848E-31, -1.000000000000000000, -1.280553747030124555E-16 ) ) ;
#47 = EDGE_LOOP ( 'NONE', ( #255 ) ) ;
#48 = ADVANCED_FACE ( 'NONE', ( #23, #223 ), #18, .T. ) ;
#49 = VERTEX_POINT ( 'NONE', #5 ) ;
#50 = LOCAL_TIME ( 8, 9, 10.00000000000000000, #217 ) ;
#51 = ORIENTED_EDGE ( 'NONE', *, *, #267, .T. ) ;
#52 = VERTEX_POINT ( 'NONE', #142 ) ;
#53 = DIRECTION ( 'NONE',  ( 0.0000000000000000000, 1.000000000000000000, 0.0000000000000000000 ) ) ;
#54 = DIRECTION ( 'NONE',  ( 0.0000000000000000000, 1.000000000000000000, 0.0000000000000000000 ) ) ;
#55 = DIRECTION ( 'NONE',  ( 4.549440813513159848E-31, 1.000000000000000000, 1.280553747030124555E-16 ) ) ;
#56 = DATE_AND_TIME ( #261, #50 ) ;
#57 = CARTESIAN_POINT ( 'NONE',  ( 2.129803616694311221E-13, 1.199999999999995515, 61.00000000000000000 ) ) ;
#58 = SECURITY_CLASSIFICATION ( '', '', #38 ) ;
#59 = DIRECTION ( 'NONE',  ( -4.275831445896959482E-31, -1.000000000000000000, -1.224646799147353454E-16 ) ) ;
#60 = APPROVAL ( #80, 'UNSPECIFIED' ) ;
#61 = AXIS2_PLACEMENT_3D ( 'NONE', #37, #98, #54 ) ;
#62 = ORIENTED_EDGE ( 'NONE', *, *, #221, .T. ) ;
#63 = EDGE_LOOP ( 'NONE', ( #136 ) ) ;
#64 = ORIENTED_EDGE ( 'NONE', *, *, #162, .F. ) ;
#65 = ADVANCED_FACE ( 'NONE', ( #99, #97 ), #149, .T. ) ;
#66 = ORIENTED_EDGE ( 'NONE', *, *, #301, .T. ) ;
#67 = CC_DESIGN_SECURITY_CLASSIFICATION ( #58, ( #175 ) ) ;
#68 = CIRCLE ( 'NONE', #235, 1.270000000000000018 ) ;
#69 = DIRECTION ( 'NONE',  ( 4.275831445896959482E-31, 1.000000000000000000, 1.224646799147353454E-16 ) ) ;
#70 = FACE_OUTER_BOUND ( 'NONE', #164, .T. ) ;
#71 = EDGE_LOOP ( 'NONE', ( #253 ) ) ;
#72 = CYLINDRICAL_SURFACE ( 'NONE', #245, 1.049999999999999822 ) ;
#73 = CIRCLE ( 'NONE', #233, 1.270000000000000018 ) ;
#74 = CARTESIAN_POINT ( 'NONE',  ( 7.935108543721709220E-14, -2.783261411380039511E-15, 22.72705414587988670 ) ) ;
#75 = VERTEX_POINT ( 'NONE', #231 ) ;
#76 = DIRECTION ( 'NONE',  ( -3.491481338843133355E-15, 1.224646799147353454E-16, -1.000000000000000000 ) ) ;
#77 = PERSON_AND_ORGANIZATION_ROLE ( 'creator' ) ;
#78 = CALENDAR_DATE ( 2021, 2, 12 ) ;
#79 = FACE_OUTER_BOUND ( 'NONE', #277, .T. ) ;
#80 = APPROVAL_STATUS ( 'not_yet_approved' ) ;
#81 = CONICAL_SURFACE ( 'NONE', #214, 1.049999999999999156, 0.5235987755982921543 ) ;
#82 = APPROVAL_ROLE ( '' ) ;
#83 = PRODUCT_DEFINITION ( 'UNKNOWN', '', #175, #181 ) ;
#84 = DATE_AND_TIME ( #78, #93 ) ;
#85 =( GEOMETRIC_REPRESENTATION_CONTEXT ( 3 ) GLOBAL_UNCERTAINTY_ASSIGNED_CONTEXT ( ( #299 ) ) GLOBAL_UNIT_ASSIGNED_CONTEXT ( ( #275, #148, #208 ) ) REPRESENTATION_CONTEXT ( 'NONE', 'WORKASPACE' ) );
#86 = MANIFOLD_SOLID_BREP ( 'Corps-Déplacer/Copier1[1]', #256 ) ;
#87 = ORIENTED_EDGE ( 'NONE', *, *, #157, .F. ) ;
#88 = EDGE_CURVE ( 'NONE', #187, #187, #202, .T. ) ;
#89 = AXIS2_PLACEMENT_3D ( 'NONE', #279, #34, #254 ) ;
#90 = APPROVAL ( #168, 'UNSPECIFIED' ) ;
#91 = ORIENTED_EDGE ( 'NONE', *, *, #88, .T. ) ;
#92 = EDGE_LOOP ( 'NONE', ( #26 ) ) ;
#93 = LOCAL_TIME ( 8, 9, 10.00000000000000000, #172 ) ;
#94 = ADVANCED_BREP_SHAPE_REPRESENTATION ( '327084', ( #86, #179, #7 ), #85 ) ;
#95 = EDGE_LOOP ( 'NONE', ( #152 ) ) ;
#96 = DIRECTION ( 'NONE',  ( 0.0000000000000000000, 1.000000000000000000, 0.0000000000000000000 ) ) ;
#97 = FACE_OUTER_BOUND ( 'NONE', #252, .T. ) ;
#98 = DIRECTION ( 'NONE',  ( -3.491481338843133355E-15, 1.224646799147353454E-16, -1.000000000000000000 ) ) ;
#99 = FACE_BOUND ( 'NONE', #47, .T. ) ;
#100 = CARTESIAN_POINT ( 'NONE',  ( 3.785471652766322275E-31, 1.020000000000001350, 1.084202172485504434E-16 ) ) ;
#101 = AXIS2_PLACEMENT_3D ( 'NONE', #104, #227, #303 ) ;
#102 = CYLINDRICAL_SURFACE ( 'NONE', #39, 1.499999999999999112 ) ;
#103 = DIRECTION ( 'NONE',  ( 0.0000000000000000000, 0.0000000000000000000, 1.000000000000000000 ) ) ;
#104 = CARTESIAN_POINT ( 'NONE',  ( -5.758764220485817570E-32, 2.019902581521177141E-33, -1.649375626447978169E-17 ) ) ;
#105 = DIRECTION ( 'NONE',  ( 0.0000000000000000000, 1.000000000000000000, 0.0000000000000000000 ) ) ;
#106 = PERSON_AND_ORGANIZATION ( #133, #110 ) ;
#107 = APPLICATION_PROTOCOL_DEFINITION ( 'international standard', 'config_control_design', 1994, #174 ) ;
#108 = DATE_TIME_ROLE ( 'classification_date' ) ;
#109 = PERSON_AND_ORGANIZATION ( #133, #110 ) ;
#110 = ORGANIZATION ( 'UNSPECIFIED', 'UNSPECIFIED', '' ) ;
#111 = AXIS2_PLACEMENT_3D ( 'NONE', #150, #144, #105 ) ;
#112 = ADVANCED_FACE ( 'NONE', ( #224 ), #116, .F. ) ;
#113 = EDGE_CURVE ( 'NONE', #30, #30, #183, .T. ) ;
#114 = AXIS2_PLACEMENT_3D ( 'NONE', #210, #171, #190 ) ;
#115 = DIRECTION ( 'NONE',  ( 0.0000000000000000000, -1.000000000000000000, 0.0000000000000000000 ) ) ;
#116 = PLANE ( 'NONE',  #32 ) ;
#117 = EDGE_LOOP ( 'NONE', ( #87 ) ) ;
#118 = CC_DESIGN_APPROVAL ( #90, ( #58 ) ) ;
#119 = FACE_BOUND ( 'NONE', #180, .T. ) ;
#120 = FACE_OUTER_BOUND ( 'NONE', #95, .T. ) ;
#121 = DIRECTION ( 'NONE',  ( 4.275831445896959482E-31, 1.000000000000000000, 1.224646799147353454E-16 ) ) ;
#122 = DIRECTION ( 'NONE',  ( 4.275831445896959482E-31, 1.000000000000000000, 1.224646799147353207E-16 ) ) ;
#123 = CARTESIAN_POINT ( 'NONE',  ( 8.728703347107829444E-16, -3.061616997868382402E-17, 0.2499999999999998890 ) ) ;
#124 = APPROVAL ( #147, 'UNSPECIFIED' ) ;
#125 = PERSON_AND_ORGANIZATION ( #133, #110 ) ;
#126 = CARTESIAN_POINT ( 'NONE',  ( 3.491481338843133355E-14, 1.269999999999998685, 10.00000000000000000 ) ) ;
#127 = CIRCLE ( 'NONE', #111, 1.049999999999999156 ) ;
#128 = CARTESIAN_POINT ( 'NONE',  ( 3.491481338843133355E-14, -1.224646799147353454E-15, 10.00000000000000000 ) ) ;
#129 = APPROVAL_DATE_TIME ( #281, #124 ) ;
#130 = VERTEX_POINT ( 'NONE', #212 ) ;
#131 = DIRECTION ( 'NONE',  ( -4.275831445896959482E-31, -1.000000000000000000, -1.224646799147353454E-16 ) ) ;
#132 = PERSON_AND_ORGANIZATION ( #133, #110 ) ;
#133 = PERSON ( 'UNSPECIFIED', 'UNSPECIFIED', 'UNSPECIFIED', ('UNSPECIFIED'), ('UNSPECIFIED'), ('UNSPECIFIED') ) ;
#134 = ORIENTED_EDGE ( 'NONE', *, *, #135, .F. ) ;
#135 = EDGE_CURVE ( 'NONE', #130, #130, #68, .T. ) ;
#136 = ORIENTED_EDGE ( 'NONE', *, *, #157, .T. ) ;
#137 = DIRECTION ( 'NONE',  ( -3.491481338843133355E-15, 1.224646799147353454E-16, -1.000000000000000000 ) ) ;
#138 = CC_DESIGN_PERSON_AND_ORGANIZATION_ASSIGNMENT ( #109, #176, ( #175 ) ) ;
#139 = ORIENTED_EDGE ( 'NONE', *, *, #296, .F. ) ;
#140 = VERTEX_POINT ( 'NONE', #126 ) ;
#141 = DIRECTION ( 'NONE',  ( -3.491481338843133355E-15, 1.224646799147353454E-16, -1.000000000000000000 ) ) ;
#142 = CARTESIAN_POINT ( 'NONE',  ( 7.935108543721709220E-14, 1.499999999999992673, 22.72705414587988670 ) ) ;
#143 = CC_DESIGN_DATE_AND_TIME_ASSIGNMENT ( #84, #108, ( #58 ) ) ;
#144 = DIRECTION ( 'NONE',  ( -3.491481338843133355E-15, 1.224646799147353454E-16, -1.000000000000000000 ) ) ;
#145 = PERSON_AND_ORGANIZATION ( #133, #110 ) ;
#146 = FACE_OUTER_BOUND ( 'NONE', #1, .T. ) ;
#147 = APPROVAL_STATUS ( 'not_yet_approved' ) ;
#148 =( NAMED_UNIT ( * ) PLANE_ANGLE_UNIT ( ) SI_UNIT ( $, .RADIAN. ) );
#149 = CONICAL_SURFACE ( 'NONE', #200, 1.499999999999995559, 0.1745329251994265640 ) ;
#150 = CARTESIAN_POINT ( 'NONE',  ( 3.624524646439344177E-14, -1.271312109651250272E-15, 10.38105117766516017 ) ) ;
#151 = PERSON_AND_ORGANIZATION ( #133, #110 ) ;
#152 = ORIENTED_EDGE ( 'NONE', *, *, #296, .T. ) ;
#153 = EDGE_LOOP ( 'NONE', ( #201 ) ) ;
#154 = LOCAL_TIME ( 8, 9, 10.00000000000000000, #15 ) ;
#155 = CARTESIAN_POINT ( 'NONE',  ( 2.129803616694311221E-13, 8.998558695971062171E-33, 61.00000000000000000 ) ) ;
#156 = AXIS2_PLACEMENT_3D ( 'NONE', #123, #280, #55 ) ;
#157 = EDGE_CURVE ( 'NONE', #257, #257, #127, .T. ) ;
#158 = DIRECTION ( 'NONE',  ( 3.491481338843133355E-15, -1.224646799147353454E-16, 1.000000000000000000 ) ) ;
#159 = CARTESIAN_POINT ( 'NONE',  ( 8.728703347107829444E-16, -3.061616997868382402E-17, 0.2499999999999998890 ) ) ;
#160 = EDGE_LOOP ( 'NONE', ( #188 ) ) ;
#161 = CIRCLE ( 'NONE', #189, 1.499999999999995559 ) ;
#162 = EDGE_CURVE ( 'NONE', #192, #192, #272, .T. ) ;
#163 = CARTESIAN_POINT ( 'NONE',  ( 8.728703347107835360E-16, 1.269999999999998685, 0.2500000000000000555 ) ) ;
#164 = EDGE_LOOP ( 'NONE', ( #276 ) ) ;
#165 = VERTEX_POINT ( 'NONE', #100 ) ;
#166 = DIRECTION ( 'NONE',  ( -3.491481338843133355E-15, 1.224646799147353454E-16, -1.000000000000000000 ) ) ;
#167 = CARTESIAN_POINT ( 'NONE',  ( 7.104220552055901835E-14, -2.491825135286220620E-15, 20.34729635533384595 ) ) ;
#168 = APPROVAL_STATUS ( 'not_yet_approved' ) ;
#169 = DIRECTION ( 'NONE',  ( 0.0000000000000000000, 1.000000000000000000, 0.0000000000000000000 ) ) ;
#170 = CALENDAR_DATE ( 2021, 2, 12 ) ;
#171 = DIRECTION ( 'NONE',  ( 3.491481338843133355E-15, -1.224646799147353454E-16, 1.000000000000000000 ) ) ;
#172 = COORDINATED_UNIVERSAL_TIME_OFFSET ( 1, 0, .AHEAD. ) ;
#173 = CALENDAR_DATE ( 2021, 2, 12 ) ;
#174 = APPLICATION_CONTEXT ( 'configuration controlled 3d designs of mechanical parts and assemblies' ) ;
#175 = PRODUCT_DEFINITION_FORMATION_WITH_SPECIFIED_SOURCE ( 'ANY', '', #295, .NOT_KNOWN. ) ;
#176 = PERSON_AND_ORGANIZATION_ROLE ( 'creator' ) ;
#177 = EDGE_CURVE ( 'NONE', #140, #140, #73, .T. ) ;
#178 = LOCAL_TIME ( 8, 9, 10.00000000000000000, #13 ) ;
#179 = MANIFOLD_SOLID_BREP ( 'Corps-Déplacer/Copier1[2]', #44 ) ;
#180 = EDGE_LOOP ( 'NONE', ( #139 ) ) ;
#181 = DESIGN_CONTEXT ( 'detailed design', #222, 'design' ) ;
#182 = DIRECTION ( 'NONE',  ( 0.0000000000000000000, 1.000000000000000000, 0.0000000000000000000 ) ) ;
#183 = CIRCLE ( 'NONE', #156, 1.269999999999998685 ) ;
#184 = ORIENTED_EDGE ( 'NONE', *, *, #221, .F. ) ;
#185 = CARTESIAN_POINT ( 'NONE',  ( 3.624524646439344177E-14, 1.049999999999997824, 10.38105117766516017 ) ) ;
#186 = FACE_OUTER_BOUND ( 'NONE', #160, .T. ) ;
#187 = VERTEX_POINT ( 'NONE', #57 ) ;
#188 = ORIENTED_EDGE ( 'NONE', *, *, #113, .T. ) ;
#189 = AXIS2_PLACEMENT_3D ( 'NONE', #218, #166, #260 ) ;
#190 = DIRECTION ( 'NONE',  ( -4.275831445896959482E-31, -1.000000000000000000, -1.224646799147353454E-16 ) ) ;
#191 = CARTESIAN_POINT ( 'NONE',  ( 0.0000000000000000000, 0.0000000000000000000, 0.0000000000000000000 ) ) ;
#192 = VERTEX_POINT ( 'NONE', #27 ) ;
#193 = CARTESIAN_POINT ( 'NONE',  ( 2.119329172677781757E-13, -7.433606070824434221E-15, 60.69999999999999574 ) ) ;
#194 = PERSON_AND_ORGANIZATION ( #133, #110 ) ;
#195 = DIRECTION ( 'NONE',  ( -3.491481338843133355E-15, 1.224646799147353454E-16, -1.000000000000000000 ) ) ;
#196 = CC_DESIGN_DATE_AND_TIME_ASSIGNMENT ( #56, #11, ( #83 ) ) ;
#197 = AXIS2_PLACEMENT_3D ( 'NONE', #45, #137, #302 ) ;
#198 = APPROVAL_ROLE ( '' ) ;
#199 = APPROVAL_PERSON_ORGANIZATION ( #151, #90, #198 ) ;
#200 = AXIS2_PLACEMENT_3D ( 'NONE', #74, #209, #115 ) ;
#201 = ORIENTED_EDGE ( 'NONE', *, *, #177, .T. ) ;
#202 = CIRCLE ( 'NONE', #294, 1.200000000000002842 ) ;
#203 = CARTESIAN_POINT ( 'NONE',  ( 2.129803616694311221E-13, -7.470345474798856659E-15, 61.00000000000000000 ) ) ;
#204 = ADVANCED_FACE ( 'NONE', ( #79 ), #10, .T. ) ;
#205 = EDGE_LOOP ( 'NONE', ( #242 ) ) ;
#206 = CONICAL_SURFACE ( 'NONE', #61, 1.200000000000002842, 0.7853981633974453924 ) ;
#207 = FACE_OUTER_BOUND ( 'NONE', #300, .T. ) ;
#208 =( NAMED_UNIT ( * ) SI_UNIT ( $, .STERADIAN. ) SOLID_ANGLE_UNIT ( ) );
#209 = DIRECTION ( 'NONE',  ( 3.491481338843133355E-15, -1.224646799147353454E-16, 1.000000000000000000 ) ) ;
#210 = CARTESIAN_POINT ( 'NONE',  ( -2.879382110242908785E-32, 1.009951290760588570E-33, -8.246878132239890843E-18 ) ) ;
#211 = DIRECTION ( 'NONE',  ( 3.491481338843133355E-15, -1.224646799147353454E-16, 1.000000000000000000 ) ) ;
#212 = CARTESIAN_POINT ( 'NONE',  ( 3.491481338843133355E-14, 1.269999999999998685, 10.00000000000000000 ) ) ;
#213 = FACE_OUTER_BOUND ( 'NONE', #271, .T. ) ;
#214 = AXIS2_PLACEMENT_3D ( 'NONE', #229, #31, #28 ) ;
#215 = CARTESIAN_POINT ( 'NONE',  ( 0.0000000000000000000, 0.0000000000000000000, 0.0000000000000000000 ) ) ;
#216 = DIRECTION ( 'NONE',  ( -3.491481338843133355E-15, 1.224646799147353454E-16, -1.000000000000000000 ) ) ;
#217 = COORDINATED_UNIVERSAL_TIME_OFFSET ( 1, 0, .AHEAD. ) ;
#218 = CARTESIAN_POINT ( 'NONE',  ( 7.935108543721709220E-14, -2.783261411380039511E-15, 22.72705414587988670 ) ) ;
#219 = APPROVAL_DATE_TIME ( #287, #60 ) ;
#220 = CALENDAR_DATE ( 2021, 2, 12 ) ;
#221 = EDGE_CURVE ( 'NONE', #52, #52, #161, .T. ) ;
#222 = APPLICATION_CONTEXT ( 'configuration controlled 3d designs of mechanical parts and assemblies' ) ;
#223 = FACE_OUTER_BOUND ( 'NONE', #153, .T. ) ;
#224 = FACE_OUTER_BOUND ( 'NONE', #42, .T. ) ;
#225 = CARTESIAN_POINT ( 'NONE',  ( 6.982962677686266711E-14, -2.602085213965210642E-15, 20.00000000000000000 ) ) ;
#226 = EDGE_LOOP ( 'NONE', ( #66 ) ) ;
#227 = DIRECTION ( 'NONE',  ( -3.491481338843133355E-15, 1.224646799147353454E-16, -1.000000000000000000 ) ) ;
#228 = FACE_OUTER_BOUND ( 'NONE', #226, .T. ) ;
#229 = CARTESIAN_POINT ( 'NONE',  ( 3.624524646439344177E-14, -1.271312109651250272E-15, 10.38105117766516017 ) ) ;
#230 = PERSON_AND_ORGANIZATION_ROLE ( 'design_owner' ) ;
#231 = CARTESIAN_POINT ( 'NONE',  ( 6.982962677686266711E-14, 1.049999999999998046, 20.00000000000000000 ) ) ;
#232 = FACE_BOUND ( 'NONE', #63, .T. ) ;
#233 = AXIS2_PLACEMENT_3D ( 'NONE', #258, #237, #284 ) ;
#234 = ADVANCED_FACE ( 'NONE', ( #146, #232 ), #81, .T. ) ;
#235 = AXIS2_PLACEMENT_3D ( 'NONE', #128, #12, #169 ) ;
#236 = SHAPE_DEFINITION_REPRESENTATION ( #247, #94 ) ;
#237 = DIRECTION ( 'NONE',  ( -3.491481338843133355E-15, 1.224646799147353454E-16, -1.000000000000000000 ) ) ;
#238 = DIRECTION ( 'NONE',  ( 1.000000000000000000, 0.0000000000000000000, 0.0000000000000000000 ) ) ;
#239 = FACE_OUTER_BOUND ( 'NONE', #117, .T. ) ;
#240 = ADVANCED_FACE ( 'NONE', ( #213, #8 ), #102, .T. ) ;
#241 = AXIS2_PLACEMENT_3D ( 'NONE', #167, #195, #96 ) ;
#242 = ORIENTED_EDGE ( 'NONE', *, *, #162, .T. ) ;
#243 = ORIENTED_EDGE ( 'NONE', *, *, #177, .F. ) ;
#244 = CC_DESIGN_PERSON_AND_ORGANIZATION_ASSIGNMENT ( #145, #230, ( #295 ) ) ;
#245 = AXIS2_PLACEMENT_3D ( 'NONE', #9, #282, #122 ) ;
#246 = CC_DESIGN_PERSON_AND_ORGANIZATION_ASSIGNMENT ( #283, #14, ( #58 ) ) ;
#247 = PRODUCT_DEFINITION_SHAPE ( 'NONE', 'NONE',  #83 ) ;
#248 = LOCAL_TIME ( 8, 9, 10.00000000000000000, #290 ) ;
#249 = AXIS2_PLACEMENT_3D ( 'NONE', #225, #141, #121 ) ;
#250 = TOROIDAL_SURFACE ( 'NONE', #249, 3.050000000000000711, 2.000000000000000444 ) ;
#251 = DIRECTION ( 'NONE',  ( -3.491481338843133355E-15, 1.224646799147353454E-16, -1.000000000000000000 ) ) ;
#252 = EDGE_LOOP ( 'NONE', ( #62 ) ) ;
#253 = ORIENTED_EDGE ( 'NONE', *, *, #113, .F. ) ;
#254 = DIRECTION ( 'NONE',  ( 0.0000000000000000000, 1.000000000000000000, 0.0000000000000000000 ) ) ;
#255 = ORIENTED_EDGE ( 'NONE', *, *, #267, .F. ) ;
#256 = CLOSED_SHELL ( 'NONE', ( #112, #234, #259, #20, #65, #240, #293, #25 ) ) ;
#257 = VERTEX_POINT ( 'NONE', #185 ) ;
#258 = CARTESIAN_POINT ( 'NONE',  ( 3.491481338843133355E-14, -1.224646799147353454E-15, 10.00000000000000000 ) ) ;
#259 = ADVANCED_FACE ( 'NONE', ( #239, #228 ), #72, .T. ) ;
#260 = DIRECTION ( 'NONE',  ( 0.0000000000000000000, 1.000000000000000000, 0.0000000000000000000 ) ) ;
#261 = CALENDAR_DATE ( 2021, 2, 12 ) ;
#262 = PLANE ( 'NONE',  #114 ) ;
#263 = DIRECTION ( 'NONE',  ( 3.491481338843133355E-15, -1.224646799147353454E-16, 1.000000000000000000 ) ) ;
#264 = DATE_AND_TIME ( #173, #154 ) ;
#265 = CIRCLE ( 'NONE', #89, 1.050000000000000266 ) ;
#266 = APPROVAL_DATE_TIME ( #264, #90 ) ;
#267 = EDGE_CURVE ( 'NONE', #49, #49, #41, .T. ) ;
#268 = EDGE_LOOP ( 'NONE', ( #64 ) ) ;
#269 = CIRCLE ( 'NONE', #101, 1.020000000000001350 ) ;
#270 = CC_DESIGN_PERSON_AND_ORGANIZATION_ASSIGNMENT ( #132, #289, ( #175 ) ) ;
#271 = EDGE_LOOP ( 'NONE', ( #184 ) ) ;
#272 = CIRCLE ( 'NONE', #16, 1.500000000000002887 ) ;
#273 = CARTESIAN_POINT ( 'NONE',  ( 3.491481338843133355E-14, 9.523474619902780483E-33, 10.00000000000000000 ) ) ;
#274 = PLANE ( 'NONE',  #288 ) ;
#275 =( LENGTH_UNIT ( ) NAMED_UNIT ( * ) SI_UNIT ( .MILLI., .METRE. ) );
#276 = ORIENTED_EDGE ( 'NONE', *, *, #88, .F. ) ;
#277 = EDGE_LOOP ( 'NONE', ( #243 ) ) ;
#278 = ADVANCED_FACE ( 'NONE', ( #120 ), #262, .F. ) ;
#279 = CARTESIAN_POINT ( 'NONE',  ( 6.982962677686266711E-14, -2.449293598294706907E-15, 20.00000000000000000 ) ) ;
#280 = DIRECTION ( 'NONE',  ( -3.491481338843133355E-15, 1.224646799147353454E-16, -1.000000000000000000 ) ) ;
#281 = DATE_AND_TIME ( #170, #178 ) ;
#282 = DIRECTION ( 'NONE',  ( -3.491481338843133355E-15, 1.224646799147353454E-16, -1.000000000000000000 ) ) ;
#283 = PERSON_AND_ORGANIZATION ( #133, #110 ) ;
#284 = DIRECTION ( 'NONE',  ( 0.0000000000000000000, 1.000000000000000000, 0.0000000000000000000 ) ) ;
#285 = APPROVAL_ROLE ( '' ) ;
#286 = DIRECTION ( 'NONE',  ( 4.275831445896960358E-31, 1.000000000000000000, 1.224646799147353454E-16 ) ) ;
#287 = DATE_AND_TIME ( #220, #248 ) ;
#288 = AXIS2_PLACEMENT_3D ( 'NONE', #155, #251, #69 ) ;
#289 = PERSON_AND_ORGANIZATION_ROLE ( 'design_supplier' ) ;
#290 = COORDINATED_UNIVERSAL_TIME_OFFSET ( 1, 0, .AHEAD. ) ;
#291 = CC_DESIGN_APPROVAL ( #60, ( #175 ) ) ;
#292 = AXIS2_PLACEMENT_3D ( 'NONE', #159, #211, #46 ) ;
#293 = ADVANCED_FACE ( 'NONE', ( #24, #2 ), #206, .T. ) ;
#294 = AXIS2_PLACEMENT_3D ( 'NONE', #203, #298, #182 ) ;
#295 = PRODUCT ( '327084', '327084', '', ( #33 ) ) ;
#296 = EDGE_CURVE ( 'NONE', #165, #165, #269, .T. ) ;
#297 = AXIS2_PLACEMENT_3D ( 'NONE', #35, #263, #131 ) ;
#298 = DIRECTION ( 'NONE',  ( -3.491481338843133355E-15, 1.224646799147353454E-16, -1.000000000000000000 ) ) ;
#299 = UNCERTAINTY_MEASURE_WITH_UNIT (LENGTH_MEASURE( 1.000000000000000082E-05 ), #275, 'distance_accuracy_value', 'NONE');
#300 = EDGE_LOOP ( 'NONE', ( #51 ) ) ;
#301 = EDGE_CURVE ( 'NONE', #75, #75, #265, .T. ) ;
#302 = DIRECTION ( 'NONE',  ( 4.275831445896959482E-31, 1.000000000000000000, 1.224646799147353454E-16 ) ) ;
#303 = DIRECTION ( 'NONE',  ( 4.275831445896959482E-31, 1.000000000000000000, 1.224646799147353454E-16 ) ) ;
ENDSEC;
END-ISO-10303-21;
