ISO-10303-21;
HEADER;
FILE_DESCRIPTION (( 'STEP AP203' ),
    '1' );
FILE_NAME ('327083.step',
    '2021-12-02T07:09:10',
    ( '' ),
    ( '' ),
    'SwSTEP 2.0',
    'SolidWorks 2019',
    '' );
FILE_SCHEMA (( 'CONFIG_CONTROL_DESIGN' ));
ENDSEC;

DATA;
#1 = COORDINATED_UNIVERSAL_TIME_OFFSET ( 1, 0, .AHEAD. ) ;
#2 = PLANE ( 'NONE',  #258 ) ;
#3 =( GEOMETRIC_REPRESENTATION_CONTEXT ( 3 ) GLOBAL_UNCERTAINTY_ASSIGNED_CONTEXT ( ( #132 ) ) GLOBAL_UNIT_ASSIGNED_CONTEXT ( ( #76, #222, #59 ) ) REPRESENTATION_CONTEXT ( 'NONE', 'WORKASPACE' ) );
#4 = FACE_OUTER_BOUND ( 'NONE', #42, .T. ) ;
#5 = DIRECTION ( 'NONE',  ( -3.491481338843133355E-15, 1.224646799147353454E-16, -1.000000000000000000 ) ) ;
#6 = FACE_OUTER_BOUND ( 'NONE', #285, .T. ) ;
#7 = EDGE_CURVE ( 'NONE', #58, #58, #296, .T. ) ;
#8 = FACE_OUTER_BOUND ( 'NONE', #208, .T. ) ;
#9 = CARTESIAN_POINT ( 'NONE',  ( 2.129803616694311221E-13, 1.199999999999995515, 61.00000000000000000 ) ) ;
#10 = CARTESIAN_POINT ( 'NONE',  ( 2.129803616694311221E-13, -7.470345474798856659E-15, 61.00000000000000000 ) ) ;
#11 = CIRCLE ( 'NONE', #185, 1.264999999999998570 ) ;
#12 = CC_DESIGN_APPROVAL ( #292, ( #127 ) ) ;
#13 = DIRECTION ( 'NONE',  ( 3.491481338843133355E-15, -1.224646799147353454E-16, 1.000000000000000000 ) ) ;
#14 = CYLINDRICAL_SURFACE ( 'NONE', #98, 1.499999999999999112 ) ;
#15 = DIRECTION ( 'NONE',  ( -3.491481338843133355E-15, 1.224646799147353454E-16, -1.000000000000000000 ) ) ;
#16 = ADVANCED_FACE ( 'NONE', ( #74, #170 ), #77, .T. ) ;
#17 = DESIGN_CONTEXT ( 'detailed design', #298, 'design' ) ;
#18 = EDGE_LOOP ( 'NONE', ( #234 ) ) ;
#19 = DATE_AND_TIME ( #299, #205 ) ;
#20 = ORIENTED_EDGE ( 'NONE', *, *, #28, .F. ) ;
#21 = CIRCLE ( 'NONE', #43, 1.200000000000002842 ) ;
#22 = PERSON_AND_ORGANIZATION ( #107, #141 ) ;
#23 = EDGE_LOOP ( 'NONE', ( #117 ) ) ;
#24 = EDGE_LOOP ( 'NONE', ( #277 ) ) ;
#25 = DIRECTION ( 'NONE',  ( 0.0000000000000000000, 1.000000000000000000, 0.0000000000000000000 ) ) ;
#26 = DIRECTION ( 'NONE',  ( -3.491481338843133355E-15, 1.224646799147353454E-16, -1.000000000000000000 ) ) ;
#27 = FACE_BOUND ( 'NONE', #157, .T. ) ;
#28 = EDGE_CURVE ( 'NONE', #35, #35, #11, .T. ) ;
#29 = DIRECTION ( 'NONE',  ( 3.491481338843133355E-15, -1.224646799147353454E-16, 1.000000000000000000 ) ) ;
#30 = AXIS2_PLACEMENT_3D ( 'NONE', #195, #212, #240 ) ;
#31 = AXIS2_PLACEMENT_3D ( 'NONE', #130, #221, #86 ) ;
#32 = EDGE_LOOP ( 'NONE', ( #255 ) ) ;
#33 = VERTEX_POINT ( 'NONE', #100 ) ;
#34 = CARTESIAN_POINT ( 'NONE',  ( 3.508223020356773973E-31, -1.230518990543575474E-32, 1.004795008160973748E-16 ) ) ;
#35 = VERTEX_POINT ( 'NONE', #180 ) ;
#36 = DIRECTION ( 'NONE',  ( -4.275831445896959482E-31, -1.000000000000000000, -1.224646799147353454E-16 ) ) ;
#37 = DATE_AND_TIME ( #190, #67 ) ;
#38 = PERSON_AND_ORGANIZATION_ROLE ( 'design_owner' ) ;
#39 = ORIENTED_EDGE ( 'NONE', *, *, #28, .T. ) ;
#40 = ORIENTED_EDGE ( 'NONE', *, *, #281, .T. ) ;
#41 = CALENDAR_DATE ( 2021, 2, 12 ) ;
#42 = EDGE_LOOP ( 'NONE', ( #167 ) ) ;
#43 = AXIS2_PLACEMENT_3D ( 'NONE', #10, #151, #268 ) ;
#44 = CALENDAR_DATE ( 2021, 2, 12 ) ;
#45 = SHAPE_DEFINITION_REPRESENTATION ( #247, #64 ) ;
#46 = ADVANCED_FACE ( 'NONE', ( #8, #27 ), #97, .T. ) ;
#47 = CARTESIAN_POINT ( 'NONE',  ( 7.104220552055901835E-14, -2.491825135286220620E-15, 20.34729635533384595 ) ) ;
#48 = FACE_OUTER_BOUND ( 'NONE', #18, .T. ) ;
#49 = AXIS2_PLACEMENT_3D ( 'NONE', #178, #15, #201 ) ;
#50 = FACE_OUTER_BOUND ( 'NONE', #184, .T. ) ;
#51 = EDGE_CURVE ( 'NONE', #154, #154, #194, .T. ) ;
#52 = DIRECTION ( 'NONE',  ( -3.491481338843133355E-15, 1.224646799147353454E-16, -1.000000000000000000 ) ) ;
#53 = DIRECTION ( 'NONE',  ( 4.275831445896959482E-31, 1.000000000000000000, 1.224646799147353454E-16 ) ) ;
#54 = AXIS2_PLACEMENT_3D ( 'NONE', #146, #238, #198 ) ;
#55 = DIRECTION ( 'NONE',  ( 3.491481338843133355E-15, -1.224646799147353454E-16, 1.000000000000000000 ) ) ;
#56 = MANIFOLD_SOLID_BREP ( 'Corps-Déplacer/Copier1[2]', #118 ) ;
#57 = PRODUCT_RELATED_PRODUCT_CATEGORY ( 'detail', '', ( #136 ) ) ;
#58 = VERTEX_POINT ( 'NONE', #82 ) ;
#59 =( NAMED_UNIT ( * ) SI_UNIT ( $, .STERADIAN. ) SOLID_ANGLE_UNIT ( ) );
#60 = AXIS2_PLACEMENT_3D ( 'NONE', #241, #121, #215 ) ;
#61 = EDGE_LOOP ( 'NONE', ( #164 ) ) ;
#62 = PERSON_AND_ORGANIZATION_ROLE ( 'classification_officer' ) ;
#63 = DATE_TIME_ROLE ( 'creation_date' ) ;
#64 = ADVANCED_BREP_SHAPE_REPRESENTATION ( '327083', ( #264, #56, #290 ), #3 ) ;
#65 = COORDINATED_UNIVERSAL_TIME_OFFSET ( 1, 0, .AHEAD. ) ;
#66 = EDGE_LOOP ( 'NONE', ( #235 ) ) ;
#67 = LOCAL_TIME ( 8, 9, 10.00000000000000000, #1 ) ;
#68 = ADVANCED_FACE ( 'NONE', ( #50, #48 ), #84, .F. ) ;
#69 = FACE_OUTER_BOUND ( 'NONE', #24, .T. ) ;
#70 = PLANE ( 'NONE',  #150 ) ;
#71 = CC_DESIGN_PERSON_AND_ORGANIZATION_ASSIGNMENT ( #252, #38, ( #136 ) ) ;
#72 = CARTESIAN_POINT ( 'NONE',  ( 3.491481338843133355E-14, -1.224646799147353454E-15, 10.00000000000000000 ) ) ;
#73 = AXIS2_PLACEMENT_3D ( 'NONE', #34, #55, #36 ) ;
#74 = FACE_BOUND ( 'NONE', #228, .T. ) ;
#75 = CARTESIAN_POINT ( 'NONE',  ( 3.621500934903067303E-14, -1.270251534412525622E-15, 10.37239092362731796 ) ) ;
#76 =( LENGTH_UNIT ( ) NAMED_UNIT ( * ) SI_UNIT ( .MILLI., .METRE. ) );
#77 = CONICAL_SURFACE ( 'NONE', #278, 1.499999999999995559, 0.1745329251994265640 ) ;
#78 = CIRCLE ( 'NONE', #54, 1.050000000000000266 ) ;
#79 = ADVANCED_FACE ( 'NONE', ( #96, #6 ), #165, .T. ) ;
#80 = VERTEX_POINT ( 'NONE', #289 ) ;
#81 = FACE_OUTER_BOUND ( 'NONE', #253, .T. ) ;
#82 = CARTESIAN_POINT ( 'NONE',  ( 3.491481338843133355E-14, 1.264999999999998570, 10.00000000000000000 ) ) ;
#83 = EDGE_CURVE ( 'NONE', #199, #199, #123, .T. ) ;
#84 = TOROIDAL_SURFACE ( 'NONE', #256, 3.050000000000000711, 2.000000000000000444 ) ;
#85 = AXIS2_PLACEMENT_3D ( 'NONE', #216, #217, #197 ) ;
#86 = DIRECTION ( 'NONE',  ( 0.0000000000000000000, 1.000000000000000000, 0.0000000000000000000 ) ) ;
#87 = DATE_TIME_ROLE ( 'classification_date' ) ;
#88 = EDGE_LOOP ( 'NONE', ( #144 ) ) ;
#89 = DATE_AND_TIME ( #41, #196 ) ;
#90 = EDGE_LOOP ( 'NONE', ( #161 ) ) ;
#91 = APPROVAL_STATUS ( 'not_yet_approved' ) ;
#92 = DIRECTION ( 'NONE',  ( -3.491481338843133355E-15, 1.224646799147353454E-16, -1.000000000000000000 ) ) ;
#93 = APPROVAL_PERSON_ORGANIZATION ( #163, #225, #111 ) ;
#94 = CARTESIAN_POINT ( 'NONE',  ( 7.935108543721709220E-14, -2.783261411380039511E-15, 22.72705414587988670 ) ) ;
#95 = DIRECTION ( 'NONE',  ( 0.0000000000000000000, 1.000000000000000000, 0.0000000000000000000 ) ) ;
#96 = FACE_BOUND ( 'NONE', #32, .T. ) ;
#97 = CONICAL_SURFACE ( 'NONE', #302, 1.049999999999999156, 0.5235987755982904890 ) ;
#98 = AXIS2_PLACEMENT_3D ( 'NONE', #104, #245, #202 ) ;
#99 = DIRECTION ( 'NONE',  ( 0.0000000000000000000, 1.000000000000000000, 0.0000000000000000000 ) ) ;
#100 = CARTESIAN_POINT ( 'NONE',  ( 3.621500934903067303E-14, 1.049999999999997824, 10.37239092362731796 ) ) ;
#101 = EDGE_CURVE ( 'NONE', #33, #33, #200, .T. ) ;
#102 = CARTESIAN_POINT ( 'NONE',  ( 7.104220552055901835E-14, 1.080384493975577564, 20.34729635533384595 ) ) ;
#103 = AXIS2_PLACEMENT_3D ( 'NONE', #172, #119, #148 ) ;
#104 = CARTESIAN_POINT ( 'NONE',  ( 0.0000000000000000000, 0.0000000000000000000, 0.0000000000000000000 ) ) ;
#105 = CARTESIAN_POINT ( 'NONE',  ( 7.016446040713547945E-31, -2.461037981087150948E-32, 2.009590016321947495E-16 ) ) ;
#106 = FACE_OUTER_BOUND ( 'NONE', #251, .T. ) ;
#107 = PERSON ( 'UNSPECIFIED', 'UNSPECIFIED', 'UNSPECIFIED', ('UNSPECIFIED'), ('UNSPECIFIED'), ('UNSPECIFIED') ) ;
#108 = CIRCLE ( 'NONE', #31, 1.499999999999995559 ) ;
#109 = CARTESIAN_POINT ( 'NONE',  ( 0.0000000000000000000, 0.0000000000000000000, 0.0000000000000000000 ) ) ;
#110 = EDGE_LOOP ( 'NONE', ( #159 ) ) ;
#111 = APPROVAL_ROLE ( '' ) ;
#112 = DIRECTION ( 'NONE',  ( 0.0000000000000000000, 0.0000000000000000000, 1.000000000000000000 ) ) ;
#113 = ORIENTED_EDGE ( 'NONE', *, *, #101, .T. ) ;
#114 = APPROVAL ( #91, 'UNSPECIFIED' ) ;
#115 = CC_DESIGN_PERSON_AND_ORGANIZATION_ASSIGNMENT ( #279, #276, ( #261 ) ) ;
#116 = PERSON_AND_ORGANIZATION ( #107, #141 ) ;
#117 = ORIENTED_EDGE ( 'NONE', *, *, #303, .T. ) ;
#118 = CLOSED_SHELL ( 'NONE', ( #186, #79, #204, #156 ) ) ;
#119 = DIRECTION ( 'NONE',  ( -3.491481338843133355E-15, 1.224646799147353454E-16, -1.000000000000000000 ) ) ;
#120 = DIRECTION ( 'NONE',  ( 0.0000000000000000000, 1.000000000000000000, 0.0000000000000000000 ) ) ;
#121 = DIRECTION ( 'NONE',  ( -3.491481338843133355E-15, 1.224646799147353454E-16, -1.000000000000000000 ) ) ;
#122 = DIRECTION ( 'NONE',  ( -3.491481338843133355E-15, 1.224646799147353454E-16, -1.000000000000000000 ) ) ;
#123 = CIRCLE ( 'NONE', #103, 1.264999999999999902 ) ;
#124 = APPROVAL_PERSON_ORGANIZATION ( #166, #292, #207 ) ;
#125 = VERTEX_POINT ( 'NONE', #249 ) ;
#126 = VERTEX_POINT ( 'NONE', #271 ) ;
#127 = PRODUCT_DEFINITION ( 'UNKNOWN', '', #261, #17 ) ;
#128 = CC_DESIGN_APPROVAL ( #225, ( #261 ) ) ;
#129 = DIRECTION ( 'NONE',  ( -3.491481338843133355E-15, 1.224646799147353454E-16, -1.000000000000000000 ) ) ;
#130 = CARTESIAN_POINT ( 'NONE',  ( 7.935108543721709220E-14, -2.783261411380039511E-15, 22.72705414587988670 ) ) ;
#131 = SECURITY_CLASSIFICATION_LEVEL ( 'unclassified' ) ;
#132 = UNCERTAINTY_MEASURE_WITH_UNIT (LENGTH_MEASURE( 1.000000000000000082E-05 ), #76, 'distance_accuracy_value', 'NONE');
#133 = SECURITY_CLASSIFICATION ( '', '', #131 ) ;
#134 = APPROVAL_STATUS ( 'not_yet_approved' ) ;
#135 = ADVANCED_FACE ( 'NONE', ( #219, #286 ), #153, .T. ) ;
#136 = PRODUCT ( '327083', '327083', '', ( #211 ) ) ;
#137 = CALENDAR_DATE ( 2021, 2, 12 ) ;
#138 = ORIENTED_EDGE ( 'NONE', *, *, #101, .F. ) ;
#139 = ADVANCED_FACE ( 'NONE', ( #191, #69 ), #266, .T. ) ;
#140 = COORDINATED_UNIVERSAL_TIME_OFFSET ( 1, 0, .AHEAD. ) ;
#141 = ORGANIZATION ( 'UNSPECIFIED', 'UNSPECIFIED', '' ) ;
#142 = ORIENTED_EDGE ( 'NONE', *, *, #182, .F. ) ;
#143 = COORDINATED_UNIVERSAL_TIME_OFFSET ( 1, 0, .AHEAD. ) ;
#144 = ORIENTED_EDGE ( 'NONE', *, *, #257, .T. ) ;
#145 = FACE_OUTER_BOUND ( 'NONE', #66, .T. ) ;
#146 = CARTESIAN_POINT ( 'NONE',  ( 6.982962677686266711E-14, -2.449293598294706907E-15, 20.00000000000000000 ) ) ;
#147 = AXIS2_PLACEMENT_3D ( 'NONE', #246, #13, #179 ) ;
#148 = DIRECTION ( 'NONE',  ( 0.0000000000000000000, 1.000000000000000000, 0.0000000000000000000 ) ) ;
#149 = EDGE_LOOP ( 'NONE', ( #209 ) ) ;
#150 = AXIS2_PLACEMENT_3D ( 'NONE', #288, #175, #53 ) ;
#151 = DIRECTION ( 'NONE',  ( -3.491481338843133355E-15, 1.224646799147353454E-16, -1.000000000000000000 ) ) ;
#152 = ADVANCED_FACE ( 'NONE', ( #145 ), #70, .F. ) ;
#153 = CONICAL_SURFACE ( 'NONE', #231, 1.200000000000002842, 0.7853981633974453924 ) ;
#154 = VERTEX_POINT ( 'NONE', #102 ) ;
#155 = CARTESIAN_POINT ( 'NONE',  ( 3.491481338843133355E-14, 1.264999999999998570, 10.00000000000000000 ) ) ;
#156 = ADVANCED_FACE ( 'NONE', ( #4 ), #2, .T. ) ;
#157 = EDGE_LOOP ( 'NONE', ( #113 ) ) ;
#158 = CC_DESIGN_APPROVAL ( #114, ( #133 ) ) ;
#159 = ORIENTED_EDGE ( 'NONE', *, *, #213, .T. ) ;
#160 = DATE_AND_TIME ( #137, #227 ) ;
#161 = ORIENTED_EDGE ( 'NONE', *, *, #213, .F. ) ;
#162 = CC_DESIGN_PERSON_AND_ORGANIZATION_ASSIGNMENT ( #280, #229, ( #127 ) ) ;
#163 = PERSON_AND_ORGANIZATION ( #107, #141 ) ;
#164 = ORIENTED_EDGE ( 'NONE', *, *, #83, .T. ) ;
#165 = CONICAL_SURFACE ( 'NONE', #30, 1.264999999999998570, 0.7853981633974428389 ) ;
#166 = PERSON_AND_ORGANIZATION ( #107, #141 ) ;
#167 = ORIENTED_EDGE ( 'NONE', *, *, #7, .F. ) ;
#168 = CARTESIAN_POINT ( 'NONE',  ( 2.129803616694311221E-13, -7.470345474798856659E-15, 61.00000000000000000 ) ) ;
#169 = DIRECTION ( 'NONE',  ( 3.491481338843133355E-15, -1.224646799147353454E-16, 1.000000000000000000 ) ) ;
#170 = FACE_OUTER_BOUND ( 'NONE', #110, .T. ) ;
#171 = APPROVAL_DATE_TIME ( #262, #114 ) ;
#172 = CARTESIAN_POINT ( 'NONE',  ( 3.491481338843133355E-14, -1.224646799147353454E-15, 10.00000000000000000 ) ) ;
#173 = CC_DESIGN_PERSON_AND_ORGANIZATION_ASSIGNMENT ( #22, #62, ( #133 ) ) ;
#174 = CC_DESIGN_DATE_AND_TIME_ASSIGNMENT ( #160, #63, ( #127 ) ) ;
#175 = DIRECTION ( 'NONE',  ( -3.491481338843133355E-15, 1.224646799147353454E-16, -1.000000000000000000 ) ) ;
#176 = DIRECTION ( 'NONE',  ( 4.275831445896959482E-31, 1.000000000000000000, 1.224646799147353454E-16 ) ) ;
#177 = LOCAL_TIME ( 8, 9, 10.00000000000000000, #143 ) ;
#178 = CARTESIAN_POINT ( 'NONE',  ( 0.0000000000000000000, 0.0000000000000000000, 0.0000000000000000000 ) ) ;
#179 = DIRECTION ( 'NONE',  ( -4.275831445896959482E-31, -1.000000000000000000, -1.224646799147353454E-16 ) ) ;
#180 = CARTESIAN_POINT ( 'NONE',  ( 8.728703347107835360E-16, 1.264999999999998570, 0.2500000000000000555 ) ) ;
#181 = CARTESIAN_POINT ( 'NONE',  ( 2.119329172677781757E-13, -7.433606070824434221E-15, 60.69999999999999574 ) ) ;
#182 = EDGE_CURVE ( 'NONE', #270, #270, #78, .T. ) ;
#183 = APPROVAL_STATUS ( 'not_yet_approved' ) ;
#184 = EDGE_LOOP ( 'NONE', ( #142 ) ) ;
#185 = AXIS2_PLACEMENT_3D ( 'NONE', #287, #52, #263 ) ;
#186 = ADVANCED_FACE ( 'NONE', ( #203 ), #294, .F. ) ;
#187 = PERSON_AND_ORGANIZATION ( #107, #141 ) ;
#188 = ORIENTED_EDGE ( 'NONE', *, *, #7, .T. ) ;
#189 = COORDINATED_UNIVERSAL_TIME_OFFSET ( 1, 0, .AHEAD. ) ;
#190 = CALENDAR_DATE ( 2021, 2, 12 ) ;
#191 = FACE_OUTER_BOUND ( 'NONE', #230, .T. ) ;
#192 = DIRECTION ( 'NONE',  ( -3.491481338843133355E-15, 1.224646799147353454E-16, -1.000000000000000000 ) ) ;
#193 = DIRECTION ( 'NONE',  ( 0.0000000000000000000, -1.000000000000000000, 0.0000000000000000000 ) ) ;
#194 = CIRCLE ( 'NONE', #218, 1.080384493975580007 ) ;
#195 = CARTESIAN_POINT ( 'NONE',  ( 8.728703347107829444E-16, -3.061616997868382402E-17, 0.2499999999999998890 ) ) ;
#196 = LOCAL_TIME ( 8, 9, 10.00000000000000000, #65 ) ;
#197 = DIRECTION ( 'NONE',  ( 4.275831445896959482E-31, 1.000000000000000000, 1.224646799147353207E-16 ) ) ;
#198 = DIRECTION ( 'NONE',  ( 0.0000000000000000000, 1.000000000000000000, 0.0000000000000000000 ) ) ;
#199 = VERTEX_POINT ( 'NONE', #155 ) ;
#200 = CIRCLE ( 'NONE', #60, 1.049999999999999156 ) ;
#201 = DIRECTION ( 'NONE',  ( 4.275831445896959482E-31, 1.000000000000000000, 1.224646799147353454E-16 ) ) ;
#202 = DIRECTION ( 'NONE',  ( 4.275831445896960358E-31, 1.000000000000000000, 1.224646799147353454E-16 ) ) ;
#203 = FACE_OUTER_BOUND ( 'NONE', #23, .T. ) ;
#204 = ADVANCED_FACE ( 'NONE', ( #272, #81 ), #248, .T. ) ;
#205 = LOCAL_TIME ( 8, 9, 10.00000000000000000, #189 ) ;
#206 = PERSON_AND_ORGANIZATION_ROLE ( 'design_supplier' ) ;
#207 = APPROVAL_ROLE ( '' ) ;
#208 = EDGE_LOOP ( 'NONE', ( #233 ) ) ;
#209 = ORIENTED_EDGE ( 'NONE', *, *, #281, .F. ) ;
#210 = DIRECTION ( 'NONE',  ( 1.000000000000000000, 0.0000000000000000000, 0.0000000000000000000 ) ) ;
#211 = MECHANICAL_CONTEXT ( 'NONE', #242, 'mechanical' ) ;
#212 = DIRECTION ( 'NONE',  ( 3.491481338843133355E-15, -1.224646799147353454E-16, 1.000000000000000000 ) ) ;
#213 = EDGE_CURVE ( 'NONE', #125, #125, #108, .T. ) ;
#214 = CLOSED_SHELL ( 'NONE', ( #267, #46, #139, #68, #16, #239, #135, #152 ) ) ;
#215 = DIRECTION ( 'NONE',  ( 0.0000000000000000000, 1.000000000000000000, 0.0000000000000000000 ) ) ;
#216 = CARTESIAN_POINT ( 'NONE',  ( 0.0000000000000000000, 0.0000000000000000000, 0.0000000000000000000 ) ) ;
#217 = DIRECTION ( 'NONE',  ( -3.491481338843133355E-15, 1.224646799147353454E-16, -1.000000000000000000 ) ) ;
#218 = AXIS2_PLACEMENT_3D ( 'NONE', #47, #192, #99 ) ;
#219 = FACE_OUTER_BOUND ( 'NONE', #149, .T. ) ;
#220 = APPROVAL_PERSON_ORGANIZATION ( #116, #114, #284 ) ;
#221 = DIRECTION ( 'NONE',  ( -3.491481338843133355E-15, 1.224646799147353454E-16, -1.000000000000000000 ) ) ;
#222 =( NAMED_UNIT ( * ) PLANE_ANGLE_UNIT ( ) SI_UNIT ( $, .RADIAN. ) );
#223 = AXIS2_PLACEMENT_3D ( 'NONE', #105, #226, #176 ) ;
#224 = FACE_OUTER_BOUND ( 'NONE', #90, .T. ) ;
#225 = APPROVAL ( #183, 'UNSPECIFIED' ) ;
#226 = DIRECTION ( 'NONE',  ( -3.491481338843133355E-15, 1.224646799147353454E-16, -1.000000000000000000 ) ) ;
#227 = LOCAL_TIME ( 8, 9, 10.00000000000000000, #140 ) ;
#228 = EDGE_LOOP ( 'NONE', ( #282 ) ) ;
#229 = PERSON_AND_ORGANIZATION_ROLE ( 'creator' ) ;
#230 = EDGE_LOOP ( 'NONE', ( #138 ) ) ;
#231 = AXIS2_PLACEMENT_3D ( 'NONE', #168, #5, #120 ) ;
#232 = APPROVAL_DATE_TIME ( #89, #225 ) ;
#233 = ORIENTED_EDGE ( 'NONE', *, *, #83, .F. ) ;
#234 = ORIENTED_EDGE ( 'NONE', *, *, #51, .T. ) ;
#235 = ORIENTED_EDGE ( 'NONE', *, *, #257, .F. ) ;
#236 = AXIS2_PLACEMENT_3D ( 'NONE', #72, #26, #95 ) ;
#237 = AXIS2_PLACEMENT_3D ( 'NONE', #181, #129, #274 ) ;
#238 = DIRECTION ( 'NONE',  ( -3.491481338843133355E-15, 1.224646799147353454E-16, -1.000000000000000000 ) ) ;
#239 = ADVANCED_FACE ( 'NONE', ( #224, #106 ), #14, .T. ) ;
#240 = DIRECTION ( 'NONE',  ( -4.567422793013212663E-31, -1.000000000000000000, -1.285615224291113414E-16 ) ) ;
#241 = CARTESIAN_POINT ( 'NONE',  ( 3.621500934903067303E-14, -1.270251534412525622E-15, 10.37239092362731796 ) ) ;
#242 = APPLICATION_CONTEXT ( 'configuration controlled 3d designs of mechanical parts and assemblies' ) ;
#243 = DIRECTION ( 'NONE',  ( 4.275831445896959482E-31, 1.000000000000000000, 1.224646799147353454E-16 ) ) ;
#244 = CC_DESIGN_DATE_AND_TIME_ASSIGNMENT ( #37, #87, ( #133 ) ) ;
#245 = DIRECTION ( 'NONE',  ( -3.491481338843133355E-15, 1.224646799147353454E-16, -1.000000000000000000 ) ) ;
#246 = CARTESIAN_POINT ( 'NONE',  ( 3.491481338843133355E-14, 9.485980625336232401E-33, 10.00000000000000000 ) ) ;
#247 = PRODUCT_DEFINITION_SHAPE ( 'NONE', 'NONE',  #127 ) ;
#248 = CYLINDRICAL_SURFACE ( 'NONE', #49, 1.264999999999999236 ) ;
#249 = CARTESIAN_POINT ( 'NONE',  ( 7.935108543721709220E-14, 1.499999999999992673, 22.72705414587988670 ) ) ;
#250 = CARTESIAN_POINT ( 'NONE',  ( 6.982962677686266711E-14, 1.049999999999998046, 20.00000000000000000 ) ) ;
#251 = EDGE_LOOP ( 'NONE', ( #40 ) ) ;
#252 = PERSON_AND_ORGANIZATION ( #107, #141 ) ;
#253 = EDGE_LOOP ( 'NONE', ( #188 ) ) ;
#254 = APPLICATION_PROTOCOL_DEFINITION ( 'international standard', 'config_control_design', 1994, #298 ) ;
#255 = ORIENTED_EDGE ( 'NONE', *, *, #303, .F. ) ;
#256 = AXIS2_PLACEMENT_3D ( 'NONE', #265, #122, #243 ) ;
#257 = EDGE_CURVE ( 'NONE', #291, #291, #21, .T. ) ;
#258 = AXIS2_PLACEMENT_3D ( 'NONE', #259, #169, #260 ) ;
#259 = CARTESIAN_POINT ( 'NONE',  ( 3.491481338843133355E-14, 9.485980625336232401E-33, 10.00000000000000000 ) ) ;
#260 = DIRECTION ( 'NONE',  ( -4.275831445896959482E-31, -1.000000000000000000, -1.224646799147353454E-16 ) ) ;
#261 = PRODUCT_DEFINITION_FORMATION_WITH_SPECIFIED_SOURCE ( 'ANY', '', #136, .NOT_KNOWN. ) ;
#262 = DATE_AND_TIME ( #44, #177 ) ;
#263 = DIRECTION ( 'NONE',  ( 4.567422793013212663E-31, 1.000000000000000000, 1.285615224291113414E-16 ) ) ;
#264 = MANIFOLD_SOLID_BREP ( 'Corps-Déplacer/Copier1[1]', #214 ) ;
#265 = CARTESIAN_POINT ( 'NONE',  ( 6.982962677686266711E-14, -2.602085213965210642E-15, 20.00000000000000000 ) ) ;
#266 = CYLINDRICAL_SURFACE ( 'NONE', #85, 1.049999999999999822 ) ;
#267 = ADVANCED_FACE ( 'NONE', ( #295 ), #293, .F. ) ;
#268 = DIRECTION ( 'NONE',  ( 0.0000000000000000000, 1.000000000000000000, 0.0000000000000000000 ) ) ;
#269 = CC_DESIGN_SECURITY_CLASSIFICATION ( #133, ( #261 ) ) ;
#270 = VERTEX_POINT ( 'NONE', #250 ) ;
#271 = CARTESIAN_POINT ( 'NONE',  ( 2.119329172677781757E-13, 1.499999999999995559, 60.69999999999999574 ) ) ;
#272 = FACE_OUTER_BOUND ( 'NONE', #301, .T. ) ;
#273 = CIRCLE ( 'NONE', #237, 1.500000000000002887 ) ;
#274 = DIRECTION ( 'NONE',  ( 0.0000000000000000000, 1.000000000000000000, 0.0000000000000000000 ) ) ;
#275 = APPLICATION_PROTOCOL_DEFINITION ( 'international standard', 'config_control_design', 1994, #242 ) ;
#276 = PERSON_AND_ORGANIZATION_ROLE ( 'creator' ) ;
#277 = ORIENTED_EDGE ( 'NONE', *, *, #182, .T. ) ;
#278 = AXIS2_PLACEMENT_3D ( 'NONE', #94, #29, #193 ) ;
#279 = PERSON_AND_ORGANIZATION ( #107, #141 ) ;
#280 = PERSON_AND_ORGANIZATION ( #107, #141 ) ;
#281 = EDGE_CURVE ( 'NONE', #126, #126, #273, .T. ) ;
#282 = ORIENTED_EDGE ( 'NONE', *, *, #51, .F. ) ;
#283 = CIRCLE ( 'NONE', #223, 1.015000000000001679 ) ;
#284 = APPROVAL_ROLE ( '' ) ;
#285 = EDGE_LOOP ( 'NONE', ( #39 ) ) ;
#286 = FACE_BOUND ( 'NONE', #88, .T. ) ;
#287 = CARTESIAN_POINT ( 'NONE',  ( 8.728703347107829444E-16, -3.061616997868382402E-17, 0.2499999999999998890 ) ) ;
#288 = CARTESIAN_POINT ( 'NONE',  ( 2.129803616694311221E-13, 8.998558695971062171E-33, 61.00000000000000000 ) ) ;
#289 = CARTESIAN_POINT ( 'NONE',  ( 1.135641495829896858E-30, 1.015000000000001679, 3.252606517456513302E-16 ) ) ;
#290 = AXIS2_PLACEMENT_3D ( 'NONE', #109, #112, #210 ) ;
#291 = VERTEX_POINT ( 'NONE', #9 ) ;
#292 = APPROVAL ( #134, 'UNSPECIFIED' ) ;
#293 = PLANE ( 'NONE',  #147 ) ;
#294 = PLANE ( 'NONE',  #73 ) ;
#295 = FACE_OUTER_BOUND ( 'NONE', #61, .T. ) ;
#296 = CIRCLE ( 'NONE', #236, 1.264999999999999902 ) ;
#297 = CC_DESIGN_PERSON_AND_ORGANIZATION_ASSIGNMENT ( #187, #206, ( #261 ) ) ;
#298 = APPLICATION_CONTEXT ( 'configuration controlled 3d designs of mechanical parts and assemblies' ) ;
#299 = CALENDAR_DATE ( 2021, 2, 12 ) ;
#300 = APPROVAL_DATE_TIME ( #19, #292 ) ;
#301 = EDGE_LOOP ( 'NONE', ( #20 ) ) ;
#302 = AXIS2_PLACEMENT_3D ( 'NONE', #75, #92, #25 ) ;
#303 = EDGE_CURVE ( 'NONE', #80, #80, #283, .T. ) ;
ENDSEC;
END-ISO-10303-21;
