ISO-10303-21;
HEADER;
FILE_DESCRIPTION (( 'STEP AP203' ),
    '1' );
FILE_NAME ('327082.step',
    '2021-12-01T14:04:20',
    ( '' ),
    ( '' ),
    'SwSTEP 2.0',
    'SolidWorks 2019',
    '' );
FILE_SCHEMA (( 'CONFIG_CONTROL_DESIGN' ));
ENDSEC;

DATA;
#1 = CARTESIAN_POINT ( 'NONE',  ( 7.104220552055900573E-14, 1.115384493975578373, 20.34729635533384240 ) ) ;
#2 = ADVANCED_FACE ( 'NONE', ( #44, #148 ), #167, .T. ) ;
#3 = DIRECTION ( 'NONE',  ( -3.491481338843133355E-15, 1.224646799147353207E-16, -1.000000000000000000 ) ) ;
#4 = CARTESIAN_POINT ( 'NONE',  ( 3.491481338843133355E-14, 9.261016657936953486E-33, 10.00000000000000000 ) ) ;
#5 = FACE_OUTER_BOUND ( 'NONE', #189, .T. ) ;
#6 = ADVANCED_FACE ( 'NONE', ( #220, #173 ), #298, .T. ) ;
#7 = DIRECTION ( 'NONE',  ( -3.491481338843133355E-15, 1.224646799147353207E-16, -1.000000000000000000 ) ) ;
#8 = ORIENTED_EDGE ( 'NONE', *, *, #194, .F. ) ;
#9 = DIRECTION ( 'NONE',  ( -4.275831445896958607E-31, -1.000000000000000000, -1.224646799147353207E-16 ) ) ;
#10 = EDGE_LOOP ( 'NONE', ( #229 ) ) ;
#11 = ORIENTED_EDGE ( 'NONE', *, *, #299, .T. ) ;
#12 = AXIS2_PLACEMENT_3D ( 'NONE', #70, #38, #123 ) ;
#13 = APPROVAL_PERSON_ORGANIZATION ( #195, #15, #153 ) ;
#14 = CARTESIAN_POINT ( 'NONE',  ( 8.728703347107829444E-16, -3.061616997868381785E-17, 0.2499999999999998890 ) ) ;
#15 = APPROVAL ( #300, 'UNSPECIFIED' ) ;
#16 = CLOSED_SHELL ( 'NONE', ( #146, #182, #2, #26, #262, #6, #215, #128 ) ) ;
#17 = EDGE_LOOP ( 'NONE', ( #8 ) ) ;
#18 = DIRECTION ( 'NONE',  ( -3.491481338843133355E-15, 1.224646799147353207E-16, -1.000000000000000000 ) ) ;
#19 = DIRECTION ( 'NONE',  ( 4.275831445896958607E-31, 1.000000000000000000, 1.224646799147353207E-16 ) ) ;
#20 = PLANE ( 'NONE',  #61 ) ;
#21 = DIRECTION ( 'NONE',  ( 0.0000000000000000000, 1.000000000000000000, 0.0000000000000000000 ) ) ;
#22 = CARTESIAN_POINT ( 'NONE',  ( -1.892735826383161356E-31, 1.090662432702594220, -5.421010862427522170E-17 ) ) ;
#23 = DIRECTION ( 'NONE',  ( 4.275831445896958607E-31, 1.000000000000000000, 1.224646799147353207E-16 ) ) ;
#24 = AXIS2_PLACEMENT_3D ( 'NONE', #42, #46, #206 ) ;
#25 = PERSON_AND_ORGANIZATION_ROLE ( 'creator' ) ;
#26 = ADVANCED_FACE ( 'NONE', ( #235, #43 ), #52, .F. ) ;
#27 = CARTESIAN_POINT ( 'NONE',  ( 1.735266225405037467E-13, 1.499999999999995559, 49.70000000000000284 ) ) ;
#28 = EDGE_CURVE ( 'NONE', #234, #234, #239, .T. ) ;
#29 = VERTEX_POINT ( 'NONE', #161 ) ;
#30 = APPROVAL_ROLE ( '' ) ;
#31 = PERSON_AND_ORGANIZATION ( #117, #263 ) ;
#32 = DIRECTION ( 'NONE',  ( -3.491481338843133355E-15, 1.224646799147353207E-16, -1.000000000000000000 ) ) ;
#33 = EDGE_LOOP ( 'NONE', ( #249 ) ) ;
#34 = DIRECTION ( 'NONE',  ( 0.0000000000000000000, 1.000000000000000000, 0.0000000000000000000 ) ) ;
#35 = ORIENTED_EDGE ( 'NONE', *, *, #194, .T. ) ;
#36 = COORDINATED_UNIVERSAL_TIME_OFFSET ( 1, 0, .AHEAD. ) ;
#37 = CIRCLE ( 'NONE', #295, 1.235000000000000098 ) ;
#38 = DIRECTION ( 'NONE',  ( -3.491481338843133355E-15, 1.224646799147353207E-16, -1.000000000000000000 ) ) ;
#39 = DIRECTION ( 'NONE',  ( 0.0000000000000000000, 1.000000000000000000, 0.0000000000000000000 ) ) ;
#40 = EDGE_LOOP ( 'NONE', ( #160 ) ) ;
#41 = ORIENTED_EDGE ( 'NONE', *, *, #73, .T. ) ;
#42 = CARTESIAN_POINT ( 'NONE',  ( 0.0000000000000000000, 0.0000000000000000000, 0.0000000000000000000 ) ) ;
#43 = FACE_OUTER_BOUND ( 'NONE', #232, .T. ) ;
#44 = FACE_OUTER_BOUND ( 'NONE', #74, .T. ) ;
#45 = EDGE_LOOP ( 'NONE', ( #197 ) ) ;
#46 = DIRECTION ( 'NONE',  ( -3.491481338843133355E-15, 1.224646799147353207E-16, -1.000000000000000000 ) ) ;
#47 = AXIS2_PLACEMENT_3D ( 'NONE', #4, #140, #49 ) ;
#48 = DIRECTION ( 'NONE',  ( -3.491481338843133355E-15, 1.224646799147353207E-16, -1.000000000000000000 ) ) ;
#49 = DIRECTION ( 'NONE',  ( -4.275831445896958607E-31, -1.000000000000000000, -1.224646799147353207E-16 ) ) ;
#50 = ORIENTED_EDGE ( 'NONE', *, *, #99, .F. ) ;
#51 = CARTESIAN_POINT ( 'NONE',  ( 3.582192684931459116E-14, -1.256464056309101033E-15, 10.25980762113533729 ) ) ;
#52 = TOROIDAL_SURFACE ( 'NONE', #12, 3.084999999999999964, 2.000000000000000000 ) ;
#53 = DIRECTION ( 'NONE',  ( -4.275831445896958607E-31, -1.000000000000000000, -1.224646799147353207E-16 ) ) ;
#54 = CARTESIAN_POINT ( 'NONE',  ( 0.0000000000000000000, 0.0000000000000000000, 0.0000000000000000000 ) ) ;
#55 = DIRECTION ( 'NONE',  ( 3.491481338843133355E-15, -1.224646799147353207E-16, 1.000000000000000000 ) ) ;
#56 = DATE_TIME_ROLE ( 'creation_date' ) ;
#57 = FACE_OUTER_BOUND ( 'NONE', #118, .T. ) ;
#58 = CALENDAR_DATE ( 2021, 1, 12 ) ;
#59 = CARTESIAN_POINT ( 'NONE',  ( 7.865804432479903975E-14, -2.758952801433937596E-15, 22.52855928219326387 ) ) ;
#60 = APPLICATION_PROTOCOL_DEFINITION ( 'international standard', 'config_control_design', 1994, #107 ) ;
#61 = AXIS2_PLACEMENT_3D ( 'NONE', #131, #200, #19 ) ;
#62 = DIRECTION ( 'NONE',  ( -4.678372334543896445E-31, -1.000000000000000000, -1.316844743909520592E-16 ) ) ;
#63 = VERTEX_POINT ( 'NONE', #96 ) ;
#64 = EDGE_LOOP ( 'NONE', ( #11 ) ) ;
#65 = AXIS2_PLACEMENT_3D ( 'NONE', #177, #145, #9 ) ;
#66 = SHAPE_DEFINITION_REPRESENTATION ( #82, #255 ) ;
#67 = ORIENTED_EDGE ( 'NONE', *, *, #170, .T. ) ;
#68 = CONICAL_SURFACE ( 'NONE', #196, 1.084999999999998854, 0.5235987755982940417 ) ;
#69 = DIRECTION ( 'NONE',  ( 0.0000000000000000000, 1.000000000000000000, 0.0000000000000000000 ) ) ;
#70 = CARTESIAN_POINT ( 'NONE',  ( 6.982962677686266711E-14, -2.602085213965210642E-15, 20.00000000000000000 ) ) ;
#71 = APPLICATION_CONTEXT ( 'configuration controlled 3d designs of mechanical parts and assemblies' ) ;
#72 = CC_DESIGN_PERSON_AND_ORGANIZATION_ASSIGNMENT ( #280, #292, ( #183 ) ) ;
#73 = EDGE_CURVE ( 'NONE', #63, #63, #224, .T. ) ;
#74 = EDGE_LOOP ( 'NONE', ( #208 ) ) ;
#75 = CARTESIAN_POINT ( 'NONE',  ( 7.104220552055900573E-14, -2.491825135286219437E-15, 20.34729635533384240 ) ) ;
#76 = EDGE_CURVE ( 'NONE', #80, #80, #168, .T. ) ;
#77 = AXIS2_PLACEMENT_3D ( 'NONE', #59, #273, #163 ) ;
#78 = PLANE ( 'NONE',  #65 ) ;
#79 = PERSON_AND_ORGANIZATION_ROLE ( 'design_owner' ) ;
#80 = VERTEX_POINT ( 'NONE', #1 ) ;
#81 = CARTESIAN_POINT ( 'NONE',  ( 3.582192684931459116E-14, 1.084999999999997744, 10.25980762113533729 ) ) ;
#82 = PRODUCT_DEFINITION_SHAPE ( 'NONE', 'NONE',  #174 ) ;
#83 =( LENGTH_UNIT ( ) NAMED_UNIT ( * ) SI_UNIT ( .MILLI., .METRE. ) );
#84 = DIRECTION ( 'NONE',  ( 4.275831445896959482E-31, 1.000000000000000000, 1.224646799147353454E-16 ) ) ;
#85 = CARTESIAN_POINT ( 'NONE',  ( 1.745740669421566678E-13, 1.199999999999995515, 50.00000000000000000 ) ) ;
#86 = DATE_TIME_ROLE ( 'classification_date' ) ;
#87 = AXIS2_PLACEMENT_3D ( 'NONE', #166, #147, #84 ) ;
#88 = CARTESIAN_POINT ( 'NONE',  ( 0.0000000000000000000, 0.0000000000000000000, 0.0000000000000000000 ) ) ;
#89 = PERSON_AND_ORGANIZATION ( #117, #263 ) ;
#90 = EDGE_LOOP ( 'NONE', ( #141 ) ) ;
#91 = AXIS2_PLACEMENT_3D ( 'NONE', #144, #171, #34 ) ;
#92 = EDGE_CURVE ( 'NONE', #245, #245, #209, .T. ) ;
#93 = FACE_OUTER_BOUND ( 'NONE', #17, .T. ) ;
#94 = CARTESIAN_POINT ( 'NONE',  ( 7.865804432479903975E-14, -2.758952801433937596E-15, 22.52855928219326387 ) ) ;
#95 = ORIENTED_EDGE ( 'NONE', *, *, #92, .F. ) ;
#96 = CARTESIAN_POINT ( 'NONE',  ( 3.491481338843133355E-14, 1.234999999999998987, 10.00000000000000000 ) ) ;
#97 = COORDINATED_UNIVERSAL_TIME_OFFSET ( 1, 0, .AHEAD. ) ;
#98 = FACE_BOUND ( 'NONE', #175, .T. ) ;
#99 = EDGE_CURVE ( 'NONE', #180, #180, #254, .T. ) ;
#100 = ORIENTED_EDGE ( 'NONE', *, *, #99, .T. ) ;
#101 = PLANE ( 'NONE',  #277 ) ;
#102 = CARTESIAN_POINT ( 'NONE',  ( 6.982962677686266711E-14, -2.449293598294706513E-15, 20.00000000000000000 ) ) ;
#103 = DIRECTION ( 'NONE',  ( 4.275831445896958607E-31, 1.000000000000000000, 1.224646799147352961E-16 ) ) ;
#104 = DATE_AND_TIME ( #214, #143 ) ;
#105 = UNCERTAINTY_MEASURE_WITH_UNIT (LENGTH_MEASURE( 1.000000000000000082E-05 ), #83, 'distance_accuracy_value', 'NONE');
#106 = APPLICATION_PROTOCOL_DEFINITION ( 'international standard', 'config_control_design', 1994, #71 ) ;
#107 = APPLICATION_CONTEXT ( 'configuration controlled 3d designs of mechanical parts and assemblies' ) ;
#108 = ORIENTED_EDGE ( 'NONE', *, *, #76, .T. ) ;
#109 = EDGE_LOOP ( 'NONE', ( #274 ) ) ;
#110 = AXIS2_PLACEMENT_3D ( 'NONE', #151, #18, #276 ) ;
#111 = LOCAL_TIME ( 15, 4, 20.00000000000000000, #230 ) ;
#112 = APPROVAL_DATE_TIME ( #158, #303 ) ;
#113 = CARTESIAN_POINT ( 'NONE',  ( 1.745740669421566678E-13, -6.123233995736766085E-15, 50.00000000000000000 ) ) ;
#114 = ADVANCED_FACE ( 'NONE', ( #188, #5 ), #159, .T. ) ;
#115 = EDGE_LOOP ( 'NONE', ( #95 ) ) ;
#116 = DIRECTION ( 'NONE',  ( 0.0000000000000000000, 1.000000000000000000, 0.0000000000000000000 ) ) ;
#117 = PERSON ( 'UNSPECIFIED', 'UNSPECIFIED', 'UNSPECIFIED', ('UNSPECIFIED'), ('UNSPECIFIED'), ('UNSPECIFIED') ) ;
#118 = EDGE_LOOP ( 'NONE', ( #100 ) ) ;
#119 = CARTESIAN_POINT ( 'NONE',  ( 3.491481338843133355E-14, -1.224646799147353256E-15, 10.00000000000000000 ) ) ;
#120 = DIRECTION ( 'NONE',  ( 0.0000000000000000000, 1.000000000000000000, 0.0000000000000000000 ) ) ;
#121 = CC_DESIGN_PERSON_AND_ORGANIZATION_ASSIGNMENT ( #269, #252, ( #237 ) ) ;
#122 = AXIS2_PLACEMENT_3D ( 'NONE', #75, #301, #69 ) ;
#123 = DIRECTION ( 'NONE',  ( 4.275831445896958607E-31, 1.000000000000000000, 1.224646799147353207E-16 ) ) ;
#124 = DIRECTION ( 'NONE',  ( 3.491481338843133355E-15, -1.224646799147353207E-16, 1.000000000000000000 ) ) ;
#125 = AXIS2_PLACEMENT_3D ( 'NONE', #192, #48, #150 ) ;
#126 = DIRECTION ( 'NONE',  ( -3.491481338843133355E-15, 1.224646799147353207E-16, -1.000000000000000000 ) ) ;
#127 = EDGE_LOOP ( 'NONE', ( #67 ) ) ;
#128 = ADVANCED_FACE ( 'NONE', ( #179 ), #20, .F. ) ;
#129 = PERSON_AND_ORGANIZATION ( #117, #263 ) ;
#130 = APPROVAL_PERSON_ORGANIZATION ( #89, #186, #165 ) ;
#131 = CARTESIAN_POINT ( 'NONE',  ( 1.745740669421566678E-13, 8.998558695971067645E-33, 50.00000000000000000 ) ) ;
#132 = CARTESIAN_POINT ( 'NONE',  ( 3.491481338843133355E-14, 1.234999999999998987, 10.00000000000000000 ) ) ;
#133 = CC_DESIGN_DATE_AND_TIME_ASSIGNMENT ( #104, #56, ( #174 ) ) ;
#134 = DIRECTION ( 'NONE',  ( -3.491481338843133355E-15, 1.224646799147353207E-16, -1.000000000000000000 ) ) ;
#135 = VERTEX_POINT ( 'NONE', #81 ) ;
#136 = AXIS2_PLACEMENT_3D ( 'NONE', #88, #155, #23 ) ;
#137 = LOCAL_TIME ( 15, 4, 20.00000000000000000, #97 ) ;
#138 = APPROVAL_DATE_TIME ( #226, #186 ) ;
#139 = FACE_BOUND ( 'NONE', #10, .T. ) ;
#140 = DIRECTION ( 'NONE',  ( 3.491481338843133355E-15, -1.224646799147353207E-16, 1.000000000000000000 ) ) ;
#141 = ORIENTED_EDGE ( 'NONE', *, *, #170, .F. ) ;
#142 = PERSON_AND_ORGANIZATION_ROLE ( 'design_supplier' ) ;
#143 = LOCAL_TIME ( 15, 4, 20.00000000000000000, #288 ) ;
#144 = CARTESIAN_POINT ( 'NONE',  ( 1.745740669421566678E-13, -6.123233995736766085E-15, 50.00000000000000000 ) ) ;
#145 = DIRECTION ( 'NONE',  ( 3.491481338843133355E-15, -1.224646799147353207E-16, 1.000000000000000000 ) ) ;
#146 = ADVANCED_FACE ( 'NONE', ( #284 ), #78, .F. ) ;
#147 = DIRECTION ( 'NONE',  ( -3.491481338843133355E-15, 1.224646799147353207E-16, -1.000000000000000000 ) ) ;
#148 = FACE_OUTER_BOUND ( 'NONE', #64, .T. ) ;
#149 = LOCAL_TIME ( 15, 4, 20.00000000000000000, #185 ) ;
#150 = DIRECTION ( 'NONE',  ( 4.678372334543896445E-31, 1.000000000000000000, 1.316844743909520592E-16 ) ) ;
#151 = CARTESIAN_POINT ( 'NONE',  ( 1.735266225405037467E-13, -6.086494591762345225E-15, 49.70000000000000284 ) ) ;
#152 = CC_DESIGN_PERSON_AND_ORGANIZATION_ASSIGNMENT ( #199, #79, ( #219 ) ) ;
#153 = APPROVAL_ROLE ( '' ) ;
#154 = FACE_BOUND ( 'NONE', #45, .T. ) ;
#155 = DIRECTION ( 'NONE',  ( -3.491481338843133355E-15, 1.224646799147353207E-16, -1.000000000000000000 ) ) ;
#156 =( NAMED_UNIT ( * ) PLANE_ANGLE_UNIT ( ) SI_UNIT ( $, .RADIAN. ) );
#157 = AXIS2_PLACEMENT_3D ( 'NONE', #14, #124, #62 ) ;
#158 = DATE_AND_TIME ( #58, #149 ) ;
#160 = ORIENTED_EDGE ( 'NONE', *, *, #253, .T. ) ;
#159 = CYLINDRICAL_SURFACE ( 'NONE', #172, 1.234999999999999654 ) ;
#161 = CARTESIAN_POINT ( 'NONE',  ( 7.865804432479903975E-14, 1.499999999999994005, 22.52855928219326387 ) ) ;
#162 = DESIGN_CONTEXT ( 'detailed design', #71, 'design' ) ;
#163 = DIRECTION ( 'NONE',  ( 0.0000000000000000000, -1.000000000000000000, 0.0000000000000000000 ) ) ;
#164 = CIRCLE ( 'NONE', #278, 1.084999999999998854 ) ;
#165 = APPROVAL_ROLE ( '' ) ;
#166 = CARTESIAN_POINT ( 'NONE',  ( -6.556224552991389419E-31, 2.299614013108985531E-32, -1.877777343402249948E-16 ) ) ;
#167 = CYLINDRICAL_SURFACE ( 'NONE', #136, 1.084999999999999298 ) ;
#168 = CIRCLE ( 'NONE', #122, 1.115384493975580815 ) ;
#169 = SECURITY_CLASSIFICATION_LEVEL ( 'unclassified' ) ;
#170 = EDGE_CURVE ( 'NONE', #261, #261, #37, .T. ) ;
#171 = DIRECTION ( 'NONE',  ( -3.491481338843133355E-15, 1.224646799147353207E-16, -1.000000000000000000 ) ) ;
#172 = AXIS2_PLACEMENT_3D ( 'NONE', #198, #3, #103 ) ;
#173 = FACE_OUTER_BOUND ( 'NONE', #251, .T. ) ;
#174 = PRODUCT_DEFINITION ( 'UNKNOWN', '', #183, #162 ) ;
#175 = EDGE_LOOP ( 'NONE', ( #294 ) ) ;
#176 = AXIS2_PLACEMENT_3D ( 'NONE', #102, #211, #238 ) ;
#177 = CARTESIAN_POINT ( 'NONE',  ( 3.491481338843133355E-14, 9.261016657936953486E-33, 10.00000000000000000 ) ) ;
#178 = DATE_AND_TIME ( #279, #137 ) ;
#179 = FACE_OUTER_BOUND ( 'NONE', #115, .T. ) ;
#180 = VERTEX_POINT ( 'NONE', #22 ) ;
#181 = PERSON_AND_ORGANIZATION ( #117, #263 ) ;
#182 = ADVANCED_FACE ( 'NONE', ( #205, #139 ), #68, .T. ) ;
#183 = PRODUCT_DEFINITION_FORMATION_WITH_SPECIFIED_SOURCE ( 'ANY', '', #219, .NOT_KNOWN. ) ;
#184 = DIRECTION ( 'NONE',  ( 0.0000000000000000000, 1.000000000000000000, 0.0000000000000000000 ) ) ;
#185 = COORDINATED_UNIVERSAL_TIME_OFFSET ( 1, 0, .AHEAD. ) ;
#186 = APPROVAL ( #207, 'UNSPECIFIED' ) ;
#187 = CALENDAR_DATE ( 2021, 1, 12 ) ;
#188 = FACE_OUTER_BOUND ( 'NONE', #256, .T. ) ;
#189 = EDGE_LOOP ( 'NONE', ( #41 ) ) ;
#190 = EDGE_LOOP ( 'NONE', ( #281 ) ) ;
#191 = CLOSED_SHELL ( 'NONE', ( #275, #267, #114, #201 ) ) ;
#192 = CARTESIAN_POINT ( 'NONE',  ( 8.728703347107829444E-16, -3.061616997868381785E-17, 0.2499999999999998890 ) ) ;
#193 = AXIS2_PLACEMENT_3D ( 'NONE', #113, #126, #21 ) ;
#194 = EDGE_CURVE ( 'NONE', #241, #241, #202, .T. ) ;
#195 = PERSON_AND_ORGANIZATION ( #117, #263 ) ;
#196 = AXIS2_PLACEMENT_3D ( 'NONE', #290, #7, #39 ) ;
#197 = ORIENTED_EDGE ( 'NONE', *, *, #92, .T. ) ;
#198 = CARTESIAN_POINT ( 'NONE',  ( 0.0000000000000000000, 0.0000000000000000000, 0.0000000000000000000 ) ) ;
#199 = PERSON_AND_ORGANIZATION ( #117, #263 ) ;
#200 = DIRECTION ( 'NONE',  ( -3.491481338843133355E-15, 1.224646799147353207E-16, -1.000000000000000000 ) ) ;
#201 = ADVANCED_FACE ( 'NONE', ( #216 ), #242, .T. ) ;
#202 = CIRCLE ( 'NONE', #110, 1.500000000000001554 ) ;
#203 = MECHANICAL_CONTEXT ( 'NONE', #107, 'mechanical' ) ;
#204 = CC_DESIGN_PERSON_AND_ORGANIZATION_ASSIGNMENT ( #181, #25, ( #174 ) ) ;
#205 = FACE_OUTER_BOUND ( 'NONE', #90, .T. ) ;
#206 = DIRECTION ( 'NONE',  ( 4.275831445896958607E-31, 1.000000000000000000, 1.224646799147353454E-16 ) ) ;
#207 = APPROVAL_STATUS ( 'not_yet_approved' ) ;
#208 = ORIENTED_EDGE ( 'NONE', *, *, #289, .F. ) ;
#209 = CIRCLE ( 'NONE', #91, 1.200000000000001732 ) ;
#210 = MANIFOLD_SOLID_BREP ( 'Corps-Déplacer/Copier1[1]', #16 ) ;
#211 = DIRECTION ( 'NONE',  ( -3.491481338843133355E-15, 1.224646799147353207E-16, -1.000000000000000000 ) ) ;
#212 = MANIFOLD_SOLID_BREP ( 'Corps-Déplacer/Copier1[2]', #191 ) ;
#213 = PRODUCT_RELATED_PRODUCT_CATEGORY ( 'detail', '', ( #219 ) ) ;
#214 = CALENDAR_DATE ( 2021, 1, 12 ) ;
#215 = ADVANCED_FACE ( 'NONE', ( #93, #154 ), #236, .T. ) ;
#216 = FACE_OUTER_BOUND ( 'NONE', #109, .T. ) ;
#217 = CARTESIAN_POINT ( 'NONE',  ( 6.982962677686266711E-14, 1.084999999999997522, 20.00000000000000000 ) ) ;
#218 = AXIS2_PLACEMENT_3D ( 'NONE', #94, #134, #222 ) ;
#219 = PRODUCT ( '327082', '327082', '', ( #203 ) ) ;
#220 = FACE_OUTER_BOUND ( 'NONE', #266, .T. ) ;
#221 = DIRECTION ( 'NONE',  ( -3.491481338843133355E-15, 1.224646799147353207E-16, -1.000000000000000000 ) ) ;
#222 = DIRECTION ( 'NONE',  ( 0.0000000000000000000, 1.000000000000000000, 0.0000000000000000000 ) ) ;
#223 = VERTEX_POINT ( 'NONE', #217 ) ;
#224 = CIRCLE ( 'NONE', #286, 1.235000000000000098 ) ;
#225 = FACE_OUTER_BOUND ( 'NONE', #40, .T. ) ;
#226 = DATE_AND_TIME ( #248, #111 ) ;
#227 = CARTESIAN_POINT ( 'NONE',  ( 8.728703347107835360E-16, 1.234999999999998987, 0.2500000000000000555 ) ) ;
#228 = AXIS2_PLACEMENT_3D ( 'NONE', #54, #259, #285 ) ;
#229 = ORIENTED_EDGE ( 'NONE', *, *, #289, .T. ) ;
#230 = COORDINATED_UNIVERSAL_TIME_OFFSET ( 1, 0, .AHEAD. ) ;
#231 = CARTESIAN_POINT ( 'NONE',  ( 3.491481338843133355E-14, -1.224646799147353256E-15, 10.00000000000000000 ) ) ;
#232 = EDGE_LOOP ( 'NONE', ( #108 ) ) ;
#233 = CC_DESIGN_DATE_AND_TIME_ASSIGNMENT ( #264, #86, ( #237 ) ) ;
#234 = VERTEX_POINT ( 'NONE', #227 ) ;
#235 = FACE_OUTER_BOUND ( 'NONE', #33, .T. ) ;
#236 = CONICAL_SURFACE ( 'NONE', #193, 1.200000000000001732, 0.7853981633974453924 ) ;
#237 = SECURITY_CLASSIFICATION ( '', '', #169 ) ;
#238 = DIRECTION ( 'NONE',  ( 0.0000000000000000000, 1.000000000000000000, 0.0000000000000000000 ) ) ;
#239 = CIRCLE ( 'NONE', #125, 1.234999999999998987 ) ;
#240 = CC_DESIGN_PERSON_AND_ORGANIZATION_ASSIGNMENT ( #31, #142, ( #183 ) ) ;
#241 = VERTEX_POINT ( 'NONE', #27 ) ;
#242 = PLANE ( 'NONE',  #47 ) ;
#243 = APPROVAL_STATUS ( 'not_yet_approved' ) ;
#244 = CIRCLE ( 'NONE', #218, 1.499999999999996669 ) ;
#245 = VERTEX_POINT ( 'NONE', #85 ) ;
#246 = DIRECTION ( 'NONE',  ( -3.491481338843133355E-15, 1.224646799147353207E-16, -1.000000000000000000 ) ) ;
#247 = CONICAL_SURFACE ( 'NONE', #157, 1.234999999999998987, 0.5235987755982932645 ) ;
#248 = CALENDAR_DATE ( 2021, 1, 12 ) ;
#249 = ORIENTED_EDGE ( 'NONE', *, *, #299, .F. ) ;
#250 = CC_DESIGN_APPROVAL ( #186, ( #237 ) ) ;
#251 = EDGE_LOOP ( 'NONE', ( #35 ) ) ;
#252 = PERSON_AND_ORGANIZATION_ROLE ( 'classification_officer' ) ;
#253 = EDGE_CURVE ( 'NONE', #29, #29, #244, .T. ) ;
#254 = CIRCLE ( 'NONE', #87, 1.090662432702594220 ) ;
#255 = ADVANCED_BREP_SHAPE_REPRESENTATION ( '327082', ( #210, #212, #228 ), #297 ) ;
#256 = EDGE_LOOP ( 'NONE', ( #291 ) ) ;
#257 = APPROVAL_DATE_TIME ( #178, #15 ) ;
#258 = FACE_OUTER_BOUND ( 'NONE', #190, .T. ) ;
#259 = DIRECTION ( 'NONE',  ( 0.0000000000000000000, 0.0000000000000000000, 1.000000000000000000 ) ) ;
#260 = CONICAL_SURFACE ( 'NONE', #77, 1.499999999999996669, 0.1745329251994262032 ) ;
#261 = VERTEX_POINT ( 'NONE', #132 ) ;
#262 = ADVANCED_FACE ( 'NONE', ( #98, #225 ), #260, .T. ) ;
#263 = ORGANIZATION ( 'UNSPECIFIED', 'UNSPECIFIED', '' ) ;
#264 = DATE_AND_TIME ( #187, #287 ) ;
#265 = ORIENTED_EDGE ( 'NONE', *, *, #253, .F. ) ;
#266 = EDGE_LOOP ( 'NONE', ( #265 ) ) ;
#267 = ADVANCED_FACE ( 'NONE', ( #282, #258 ), #247, .T. ) ;
#268 = APPROVAL_PERSON_ORGANIZATION ( #129, #303, #30 ) ;
#269 = PERSON_AND_ORGANIZATION ( #117, #263 ) ;
#270 = CIRCLE ( 'NONE', #176, 1.084999999999999742 ) ;
#271 = CC_DESIGN_SECURITY_CLASSIFICATION ( #237, ( #183 ) ) ;
#272 = EDGE_LOOP ( 'NONE', ( #50 ) ) ;
#273 = DIRECTION ( 'NONE',  ( 3.491481338843133355E-15, -1.224646799147353207E-16, 1.000000000000000000 ) ) ;
#274 = ORIENTED_EDGE ( 'NONE', *, *, #73, .F. ) ;
#275 = ADVANCED_FACE ( 'NONE', ( #57 ), #101, .F. ) ;
#276 = DIRECTION ( 'NONE',  ( 0.0000000000000000000, 1.000000000000000000, 0.0000000000000000000 ) ) ;
#277 = AXIS2_PLACEMENT_3D ( 'NONE', #293, #55, #53 ) ;
#278 = AXIS2_PLACEMENT_3D ( 'NONE', #51, #246, #184 ) ;
#279 = CALENDAR_DATE ( 2021, 1, 12 ) ;
#280 = PERSON_AND_ORGANIZATION ( #117, #263 ) ;
#281 = ORIENTED_EDGE ( 'NONE', *, *, #28, .T. ) ;
#282 = FACE_BOUND ( 'NONE', #272, .T. ) ;
#283 =( NAMED_UNIT ( * ) SI_UNIT ( $, .STERADIAN. ) SOLID_ANGLE_UNIT ( ) );
#284 = FACE_OUTER_BOUND ( 'NONE', #127, .T. ) ;
#285 = DIRECTION ( 'NONE',  ( 1.000000000000000000, 0.0000000000000000000, 0.0000000000000000000 ) ) ;
#286 = AXIS2_PLACEMENT_3D ( 'NONE', #119, #221, #120 ) ;
#287 = LOCAL_TIME ( 15, 4, 20.00000000000000000, #36 ) ;
#288 = COORDINATED_UNIVERSAL_TIME_OFFSET ( 1, 0, .AHEAD. ) ;
#289 = EDGE_CURVE ( 'NONE', #135, #135, #164, .T. ) ;
#290 = CARTESIAN_POINT ( 'NONE',  ( 3.582192684931459116E-14, -1.256464056309101033E-15, 10.25980762113533729 ) ) ;
#291 = ORIENTED_EDGE ( 'NONE', *, *, #28, .F. ) ;
#292 = PERSON_AND_ORGANIZATION_ROLE ( 'creator' ) ;
#293 = CARTESIAN_POINT ( 'NONE',  ( -3.278112276495694710E-31, 1.149807006554492765E-32, -9.388886717011249741E-17 ) ) ;
#294 = ORIENTED_EDGE ( 'NONE', *, *, #76, .F. ) ;
#295 = AXIS2_PLACEMENT_3D ( 'NONE', #231, #32, #116 ) ;
#296 = CC_DESIGN_APPROVAL ( #15, ( #183 ) ) ;
#297 =( GEOMETRIC_REPRESENTATION_CONTEXT ( 3 ) GLOBAL_UNCERTAINTY_ASSIGNED_CONTEXT ( ( #105 ) ) GLOBAL_UNIT_ASSIGNED_CONTEXT ( ( #83, #156, #283 ) ) REPRESENTATION_CONTEXT ( 'NONE', 'WORKASPACE' ) );
#298 = CYLINDRICAL_SURFACE ( 'NONE', #24, 1.499999999999999112 ) ;
#299 = EDGE_CURVE ( 'NONE', #223, #223, #270, .T. ) ;
#300 = APPROVAL_STATUS ( 'not_yet_approved' ) ;
#301 = DIRECTION ( 'NONE',  ( -3.491481338843133355E-15, 1.224646799147353207E-16, -1.000000000000000000 ) ) ;
#302 = CC_DESIGN_APPROVAL ( #303, ( #174 ) ) ;
#303 = APPROVAL ( #243, 'UNSPECIFIED' ) ;
ENDSEC;
END-ISO-10303-21;
