ISO-10303-21;
HEADER;
FILE_DESCRIPTION (( 'STEP AP203' ),
    '1' );
FILE_NAME ('327081.step',
    '2021-12-01T14:04:19',
    ( '' ),
    ( '' ),
    'SwSTEP 2.0',
    'SolidWorks 2019',
    '' );
FILE_SCHEMA (( 'CONFIG_CONTROL_DESIGN' ));
ENDSEC;

DATA;
#1 = PERSON_AND_ORGANIZATION ( #242, #21 ) ;
#2 = VERTEX_POINT ( 'NONE', #159 ) ;
#3 = AXIS2_PLACEMENT_3D ( 'NONE', #46, #269, #232 ) ;
#4 = DIRECTION ( 'NONE',  ( -3.491481338843133355E-15, 1.224646799147353207E-16, -1.000000000000000000 ) ) ;
#5 = APPROVAL_STATUS ( 'not_yet_approved' ) ;
#6 = AXIS2_PLACEMENT_3D ( 'NONE', #288, #69, #41 ) ;
#7 = EDGE_CURVE ( 'NONE', #171, #171, #36, .T. ) ;
#8 = CC_DESIGN_APPROVAL ( #246, ( #90 ) ) ;
#9 = PRODUCT_DEFINITION ( 'UNKNOWN', '', #90, #153 ) ;
#10 = FACE_OUTER_BOUND ( 'NONE', #230, .T. ) ;
#11 = AXIS2_PLACEMENT_3D ( 'NONE', #14, #239, #139 ) ;
#12 = DATE_AND_TIME ( #233, #112 ) ;
#13 = CARTESIAN_POINT ( 'NONE',  ( 1.745740669421566678E-13, -6.123233995736766085E-15, 50.00000000000000000 ) ) ;
#14 = CARTESIAN_POINT ( 'NONE',  ( 1.745740669421566678E-13, 8.998558695971067645E-33, 50.00000000000000000 ) ) ;
#15 = ORIENTED_EDGE ( 'NONE', *, *, #97, .T. ) ;
#16 = FACE_OUTER_BOUND ( 'NONE', #296, .T. ) ;
#17 = EDGE_LOOP ( 'NONE', ( #45 ) ) ;
#18 = AXIS2_PLACEMENT_3D ( 'NONE', #39, #188, #293 ) ;
#19 = FACE_BOUND ( 'NONE', #147, .T. ) ;
#20 = CC_DESIGN_PERSON_AND_ORGANIZATION_ASSIGNMENT ( #75, #99, ( #90 ) ) ;
#21 = ORGANIZATION ( 'UNSPECIFIED', 'UNSPECIFIED', '' ) ;
#22 = ORIENTED_EDGE ( 'NONE', *, *, #103, .T. ) ;
#23 = FACE_OUTER_BOUND ( 'NONE', #118, .T. ) ;
#24 = APPROVAL_ROLE ( '' ) ;
#25 = DATE_TIME_ROLE ( 'creation_date' ) ;
#26 = CARTESIAN_POINT ( 'NONE',  ( 3.491481338843133355E-14, 1.229999999999998650, 10.00000000000000000 ) ) ;
#27 = CIRCLE ( 'NONE', #150, 1.110384493975580478 ) ;
#28 = EDGE_LOOP ( 'NONE', ( #87 ) ) ;
#29 = ADVANCED_FACE ( 'NONE', ( #206 ), #284, .F. ) ;
#30 = CONICAL_SURFACE ( 'NONE', #56, 1.499999999999996669, 0.1745329251994260922 ) ;
#31 = DIRECTION ( 'NONE',  ( 3.491481338843133355E-15, -1.224646799147353207E-16, 1.000000000000000000 ) ) ;
#32 = APPROVAL_DATE_TIME ( #203, #298 ) ;
#33 = VERTEX_POINT ( 'NONE', #263 ) ;
#34 = DATE_TIME_ROLE ( 'classification_date' ) ;
#35 = CARTESIAN_POINT ( 'NONE',  ( 7.104220552055900573E-14, 1.110384493975578257, 20.34729635533384240 ) ) ;
#36 = CIRCLE ( 'NONE', #149, 1.229999999999999982 ) ;
#37 = APPROVAL_ROLE ( '' ) ;
#38 = CARTESIAN_POINT ( 'NONE',  ( 0.0000000000000000000, 0.0000000000000000000, 0.0000000000000000000 ) ) ;
#39 = CARTESIAN_POINT ( 'NONE',  ( 3.491481338843133355E-14, -1.224646799147353256E-15, 10.00000000000000000 ) ) ;
#40 = APPLICATION_PROTOCOL_DEFINITION ( 'international standard', 'config_control_design', 1994, #224 ) ;
#41 = DIRECTION ( 'NONE',  ( 0.0000000000000000000, 1.000000000000000000, 0.0000000000000000000 ) ) ;
#42 = ORIENTED_EDGE ( 'NONE', *, *, #66, .T. ) ;
#43 = APPROVAL_STATUS ( 'not_yet_approved' ) ;
#44 = DIRECTION ( 'NONE',  ( 4.697390108261556073E-31, 1.000000000000000000, 1.322197771323787362E-16 ) ) ;
#45 = ORIENTED_EDGE ( 'NONE', *, *, #162, .F. ) ;
#46 = CARTESIAN_POINT ( 'NONE',  ( 0.0000000000000000000, 0.0000000000000000000, 0.0000000000000000000 ) ) ;
#47 = CC_DESIGN_PERSON_AND_ORGANIZATION_ASSIGNMENT ( #289, #141, ( #9 ) ) ;
#48 = FACE_OUTER_BOUND ( 'NONE', #192, .T. ) ;
#49 = EDGE_LOOP ( 'NONE', ( #22 ) ) ;
#50 = CARTESIAN_POINT ( 'NONE',  ( 0.0000000000000000000, 0.0000000000000000000, 0.0000000000000000000 ) ) ;
#51 = ORIENTED_EDGE ( 'NONE', *, *, #102, .F. ) ;
#52 = ADVANCED_FACE ( 'NONE', ( #48, #109 ), #285, .T. ) ;
#53 = APPROVAL ( #43, 'UNSPECIFIED' ) ;
#54 = ORIENTED_EDGE ( 'NONE', *, *, #126, .F. ) ;
#55 = AXIS2_PLACEMENT_3D ( 'NONE', #262, #277, #122 ) ;
#56 = AXIS2_PLACEMENT_3D ( 'NONE', #117, #273, #167 ) ;
#57 = ADVANCED_FACE ( 'NONE', ( #190, #16 ), #89, .F. ) ;
#58 = CIRCLE ( 'NONE', #244, 1.080000000000000071 ) ;
#59 = CARTESIAN_POINT ( 'NONE',  ( 1.745740669421566678E-13, -6.123233995736766085E-15, 50.00000000000000000 ) ) ;
#60 = EDGE_LOOP ( 'NONE', ( #80 ) ) ;
#61 = DIRECTION ( 'NONE',  ( -3.491481338843133355E-15, 1.224646799147353207E-16, -1.000000000000000000 ) ) ;
#62 = EDGE_LOOP ( 'NONE', ( #256 ) ) ;
#63 = PERSON_AND_ORGANIZATION_ROLE ( 'classification_officer' ) ;
#64 = COORDINATED_UNIVERSAL_TIME_OFFSET ( 1, 0, .AHEAD. ) ;
#65 = DIRECTION ( 'NONE',  ( -3.491481338843133355E-15, 1.224646799147353207E-16, -1.000000000000000000 ) ) ;
#66 = EDGE_CURVE ( 'NONE', #295, #295, #264, .T. ) ;
#67 = DIRECTION ( 'NONE',  ( -3.491481338843133355E-15, 1.224646799147353207E-16, -1.000000000000000000 ) ) ;
#68 = ORIENTED_EDGE ( 'NONE', *, *, #97, .F. ) ;
#69 = DIRECTION ( 'NONE',  ( -3.491481338843133355E-15, 1.224646799147353207E-16, -1.000000000000000000 ) ) ;
#70 = SECURITY_CLASSIFICATION_LEVEL ( 'unclassified' ) ;
#71 = EDGE_LOOP ( 'NONE', ( #51 ) ) ;
#72 = ADVANCED_FACE ( 'NONE', ( #88 ), #255, .F. ) ;
#73 = PLANE ( 'NONE',  #55 ) ;
#74 = CC_DESIGN_SECURITY_CLASSIFICATION ( #161, ( #90 ) ) ;
#75 = PERSON_AND_ORGANIZATION ( #242, #21 ) ;
#76 = CC_DESIGN_PERSON_AND_ORGANIZATION_ASSIGNMENT ( #199, #177, ( #90 ) ) ;
#77 = VERTEX_POINT ( 'NONE', #251 ) ;
#78 = COORDINATED_UNIVERSAL_TIME_OFFSET ( 1, 0, .AHEAD. ) ;
#79 = CC_DESIGN_DATE_AND_TIME_ASSIGNMENT ( #165, #34, ( #161 ) ) ;
#80 = ORIENTED_EDGE ( 'NONE', *, *, #102, .T. ) ;
#81 = CLOSED_SHELL ( 'NONE', ( #29, #164, #195, #205 ) ) ;
#82 = CC_DESIGN_APPROVAL ( #53, ( #9 ) ) ;
#83 = PERSON_AND_ORGANIZATION ( #242, #21 ) ;
#84 = FACE_BOUND ( 'NONE', #62, .T. ) ;
#85 = DIRECTION ( 'NONE',  ( 3.491481338843133355E-15, -1.224646799147353207E-16, 1.000000000000000000 ) ) ;
#86 = DIRECTION ( 'NONE',  ( -3.491481338843133355E-15, 1.224646799147353207E-16, -1.000000000000000000 ) ) ;
#87 = ORIENTED_EDGE ( 'NONE', *, *, #228, .T. ) ;
#88 = FACE_OUTER_BOUND ( 'NONE', #275, .T. ) ;
#89 = TOROIDAL_SURFACE ( 'NONE', #110, 3.080000000000000071, 2.000000000000000000 ) ;
#90 = PRODUCT_DEFINITION_FORMATION_WITH_SPECIFIED_SOURCE ( 'ANY', '', #283, .NOT_KNOWN. ) ;
#91 = CARTESIAN_POINT ( 'NONE',  ( 6.982962677686266711E-14, -2.449293598294706513E-15, 20.00000000000000000 ) ) ;
#92 = CARTESIAN_POINT ( 'NONE',  ( 1.735266225405037467E-13, 1.499999999999995559, 49.70000000000000284 ) ) ;
#93 = EDGE_LOOP ( 'NONE', ( #115 ) ) ;
#94 = FACE_OUTER_BOUND ( 'NONE', #121, .T. ) ;
#95 = DIRECTION ( 'NONE',  ( 4.275831445896958607E-31, 1.000000000000000000, 1.224646799147353207E-16 ) ) ;
#96 = DIRECTION ( 'NONE',  ( 1.000000000000000000, 0.0000000000000000000, 0.0000000000000000000 ) ) ;
#97 = EDGE_CURVE ( 'NONE', #191, #191, #168, .T. ) ;
#98 = VERTEX_POINT ( 'NONE', #270 ) ;
#99 = PERSON_AND_ORGANIZATION_ROLE ( 'creator' ) ;
#100 = UNCERTAINTY_MEASURE_WITH_UNIT (LENGTH_MEASURE( 1.000000000000000082E-05 ), #207, 'distance_accuracy_value', 'NONE');
#101 = DIRECTION ( 'NONE',  ( 0.0000000000000000000, 1.000000000000000000, 0.0000000000000000000 ) ) ;
#102 = EDGE_CURVE ( 'NONE', #98, #98, #302, .T. ) ;
#103 = EDGE_CURVE ( 'NONE', #200, #200, #133, .T. ) ;
#104 = DIRECTION ( 'NONE',  ( 0.0000000000000000000, 1.000000000000000000, 0.0000000000000000000 ) ) ;
#105 =( NAMED_UNIT ( * ) PLANE_ANGLE_UNIT ( ) SI_UNIT ( $, .RADIAN. ) );
#106 = COORDINATED_UNIVERSAL_TIME_OFFSET ( 1, 0, .AHEAD. ) ;
#107 = CALENDAR_DATE ( 2021, 1, 12 ) ;
#108 = CC_DESIGN_DATE_AND_TIME_ASSIGNMENT ( #204, #25, ( #9 ) ) ;
#109 = FACE_BOUND ( 'NONE', #28, .T. ) ;
#110 = AXIS2_PLACEMENT_3D ( 'NONE', #213, #67, #210 ) ;
#111 = ADVANCED_FACE ( 'NONE', ( #116, #292 ), #137, .T. ) ;
#112 = LOCAL_TIME ( 15, 4, 19.00000000000000000, #106 ) ;
#113 = APPROVAL_DATE_TIME ( #12, #53 ) ;
#114 = DIRECTION ( 'NONE',  ( 0.0000000000000000000, 1.000000000000000000, 0.0000000000000000000 ) ) ;
#115 = ORIENTED_EDGE ( 'NONE', *, *, #223, .T. ) ;
#116 = FACE_OUTER_BOUND ( 'NONE', #291, .T. ) ;
#117 = CARTESIAN_POINT ( 'NONE',  ( 7.875705019800163670E-14, -2.762425459997666779E-15, 22.55691569129135843 ) ) ;
#118 = EDGE_LOOP ( 'NONE', ( #68 ) ) ;
#119 = DIRECTION ( 'NONE',  ( 0.0000000000000000000, 1.000000000000000000, 0.0000000000000000000 ) ) ;
#120 = DIRECTION ( 'NONE',  ( 3.491481338843133355E-15, -1.224646799147353207E-16, 1.000000000000000000 ) ) ;
#121 = EDGE_LOOP ( 'NONE', ( #15 ) ) ;
#122 = DIRECTION ( 'NONE',  ( -4.275831445896958607E-31, -1.000000000000000000, -1.224646799147353207E-16 ) ) ;
#123 = CIRCLE ( 'NONE', #156, 1.085662432702594327 ) ;
#124 = LOCAL_TIME ( 15, 4, 19.00000000000000000, #78 ) ;
#125 = APPROVAL_DATE_TIME ( #281, #246 ) ;
#126 = EDGE_CURVE ( 'NONE', #77, #77, #58, .T. ) ;
#127 = EDGE_LOOP ( 'NONE', ( #54 ) ) ;
#128 = ADVANCED_FACE ( 'NONE', ( #268, #290 ), #274, .T. ) ;
#129 = AXIS2_PLACEMENT_3D ( 'NONE', #260, #61, #44 ) ;
#130 = SHAPE_DEFINITION_REPRESENTATION ( #154, #183 ) ;
#131 = ORIENTED_EDGE ( 'NONE', *, *, #280, .T. ) ;
#132 = CARTESIAN_POINT ( 'NONE',  ( 3.582192684931459116E-14, -1.256464056309101033E-15, 10.25980762113533729 ) ) ;
#133 = CIRCLE ( 'NONE', #6, 1.499999999999996669 ) ;
#134 = APPLICATION_PROTOCOL_DEFINITION ( 'international standard', 'config_control_design', 1994, #217 ) ;
#135 = LOCAL_TIME ( 15, 4, 19.00000000000000000, #64 ) ;
#136 = PERSON_AND_ORGANIZATION ( #242, #21 ) ;
#137 = CYLINDRICAL_SURFACE ( 'NONE', #201, 1.079999999999999405 ) ;
#138 = CALENDAR_DATE ( 2021, 1, 12 ) ;
#139 = DIRECTION ( 'NONE',  ( 4.275831445896958607E-31, 1.000000000000000000, 1.224646799147353207E-16 ) ) ;
#140 = ORIENTED_EDGE ( 'NONE', *, *, #228, .F. ) ;
#141 = PERSON_AND_ORGANIZATION_ROLE ( 'creator' ) ;
#142 = CARTESIAN_POINT ( 'NONE',  ( 8.728703347107829444E-16, -3.061616997868381785E-17, 0.2499999999999998890 ) ) ;
#143 = DIRECTION ( 'NONE',  ( -4.697390108261556073E-31, -1.000000000000000000, -1.322197771323787362E-16 ) ) ;
#144 = ORIENTED_EDGE ( 'NONE', *, *, #66, .F. ) ;
#145 = CARTESIAN_POINT ( 'NONE',  ( 0.0000000000000000000, 0.0000000000000000000, 0.0000000000000000000 ) ) ;
#146 = DIRECTION ( 'NONE',  ( 4.275831445896958607E-31, 1.000000000000000000, 1.224646799147353207E-16 ) ) ;
#147 = EDGE_LOOP ( 'NONE', ( #243 ) ) ;
#148 = ADVANCED_FACE ( 'NONE', ( #163, #172 ), #175, .T. ) ;
#149 = AXIS2_PLACEMENT_3D ( 'NONE', #250, #4, #101 ) ;
#150 = AXIS2_PLACEMENT_3D ( 'NONE', #180, #209, #266 ) ;
#151 = APPROVAL_STATUS ( 'not_yet_approved' ) ;
#152 = MANIFOLD_SOLID_BREP ( 'Corps-Déplacer/Copier1[2]', #81 ) ;
#153 = DESIGN_CONTEXT ( 'detailed design', #224, 'design' ) ;
#154 = PRODUCT_DEFINITION_SHAPE ( 'NONE', 'NONE',  #9 ) ;
#155 = AXIS2_PLACEMENT_3D ( 'NONE', #142, #120, #143 ) ;
#156 = AXIS2_PLACEMENT_3D ( 'NONE', #222, #299, #95 ) ;
#157 = CARTESIAN_POINT ( 'NONE',  ( -3.267422697880952352E-31, 1.146057607097838231E-32, -9.358270547032565363E-17 ) ) ;
#158 = DIRECTION ( 'NONE',  ( -3.491481338843133355E-15, 1.224646799147353207E-16, -1.000000000000000000 ) ) ;
#159 = CARTESIAN_POINT ( 'NONE',  ( 3.582192684931459116E-14, 1.079999999999997629, 10.25980762113533729 ) ) ;
#160 = COORDINATED_UNIVERSAL_TIME_OFFSET ( 1, 0, .AHEAD. ) ;
#161 = SECURITY_CLASSIFICATION ( '', '', #70 ) ;
#162 = EDGE_CURVE ( 'NONE', #33, #33, #278, .T. ) ;
#163 = FACE_OUTER_BOUND ( 'NONE', #186, .T. ) ;
#164 = ADVANCED_FACE ( 'NONE', ( #19, #10 ), #248, .T. ) ;
#165 = DATE_AND_TIME ( #138, #169 ) ;
#166 = DIRECTION ( 'NONE',  ( 4.275831445896958607E-31, 1.000000000000000000, 1.224646799147353207E-16 ) ) ;
#167 = DIRECTION ( 'NONE',  ( 0.0000000000000000000, -1.000000000000000000, 0.0000000000000000000 ) ) ;
#168 = CIRCLE ( 'NONE', #18, 1.229999999999999982 ) ;
#169 = LOCAL_TIME ( 15, 4, 19.00000000000000000, #160 ) ;
#170 = DIRECTION ( 'NONE',  ( -3.491481338843133355E-15, 1.224646799147353207E-16, -1.000000000000000000 ) ) ;
#171 = VERTEX_POINT ( 'NONE', #219 ) ;
#172 = FACE_BOUND ( 'NONE', #60, .T. ) ;
#173 = ORIENTED_EDGE ( 'NONE', *, *, #162, .T. ) ;
#174 = CARTESIAN_POINT ( 'NONE',  ( 3.582192684931459116E-14, -1.256464056309101033E-15, 10.25980762113533729 ) ) ;
#175 = CONICAL_SURFACE ( 'NONE', #211, 1.200000000000001732, 0.7853981633974453924 ) ;
#176 = CIRCLE ( 'NONE', #272, 1.079999999999998961 ) ;
#177 = PERSON_AND_ORGANIZATION_ROLE ( 'design_supplier' ) ;
#178 = PRODUCT_RELATED_PRODUCT_CATEGORY ( 'detail', '', ( #283 ) ) ;
#179 = CALENDAR_DATE ( 2021, 1, 12 ) ;
#180 = CARTESIAN_POINT ( 'NONE',  ( 7.104220552055900573E-14, -2.491825135286219437E-15, 20.34729635533384240 ) ) ;
#181 = AXIS2_PLACEMENT_3D ( 'NONE', #215, #257, #119 ) ;
#182 = APPROVAL_ROLE ( '' ) ;
#183 = ADVANCED_BREP_SHAPE_REPRESENTATION ( '327081', ( #216, #152, #235 ), #286 ) ;
#184 = PERSON_AND_ORGANIZATION_ROLE ( 'design_owner' ) ;
#185 = ORIENTED_EDGE ( 'NONE', *, *, #7, .F. ) ;
#186 = EDGE_LOOP ( 'NONE', ( #144 ) ) ;
#187 = PERSON_AND_ORGANIZATION ( #242, #21 ) ;
#188 = DIRECTION ( 'NONE',  ( -3.491481338843133355E-15, 1.224646799147353207E-16, -1.000000000000000000 ) ) ;
#189 = DIRECTION ( 'NONE',  ( -3.491481338843133355E-15, 1.224646799147353207E-16, -1.000000000000000000 ) ) ;
#190 = FACE_OUTER_BOUND ( 'NONE', #127, .T. ) ;
#191 = VERTEX_POINT ( 'NONE', #26 ) ;
#192 = EDGE_LOOP ( 'NONE', ( #185 ) ) ;
#193 = ADVANCED_FACE ( 'NONE', ( #221 ), #236, .F. ) ;
#194 = DIRECTION ( 'NONE',  ( -3.491481338843133355E-15, 1.224646799147353207E-16, -1.000000000000000000 ) ) ;
#195 = ADVANCED_FACE ( 'NONE', ( #297, #94 ), #245, .T. ) ;
#196 = DIRECTION ( 'NONE',  ( -3.491481338843133355E-15, 1.224646799147353207E-16, -1.000000000000000000 ) ) ;
#197 = MECHANICAL_CONTEXT ( 'NONE', #217, 'mechanical' ) ;
#198 = COORDINATED_UNIVERSAL_TIME_OFFSET ( 1, 0, .AHEAD. ) ;
#199 = PERSON_AND_ORGANIZATION ( #242, #21 ) ;
#200 = VERTEX_POINT ( 'NONE', #282 ) ;
#201 = AXIS2_PLACEMENT_3D ( 'NONE', #145, #189, #166 ) ;
#202 = CC_DESIGN_APPROVAL ( #298, ( #161 ) ) ;
#203 = DATE_AND_TIME ( #107, #124 ) ;
#204 = DATE_AND_TIME ( #225, #135 ) ;
#205 = ADVANCED_FACE ( 'NONE', ( #23 ), #73, .T. ) ;
#206 = FACE_OUTER_BOUND ( 'NONE', #93, .T. ) ;
#207 =( LENGTH_UNIT ( ) NAMED_UNIT ( * ) SI_UNIT ( .MILLI., .METRE. ) );
#208 = EDGE_LOOP ( 'NONE', ( #265 ) ) ;
#209 = DIRECTION ( 'NONE',  ( -3.491481338843133355E-15, 1.224646799147353207E-16, -1.000000000000000000 ) ) ;
#210 = DIRECTION ( 'NONE',  ( 4.275831445896958607E-31, 1.000000000000000000, 1.224646799147353207E-16 ) ) ;
#211 = AXIS2_PLACEMENT_3D ( 'NONE', #59, #65, #259 ) ;
#212 = APPROVAL_PERSON_ORGANIZATION ( #1, #246, #24 ) ;
#213 = CARTESIAN_POINT ( 'NONE',  ( 6.982962677686266711E-14, -2.602085213965210642E-15, 20.00000000000000000 ) ) ;
#214 = FACE_OUTER_BOUND ( 'NONE', #49, .T. ) ;
#215 = CARTESIAN_POINT ( 'NONE',  ( 1.735266225405037467E-13, -6.086494591762345225E-15, 49.70000000000000284 ) ) ;
#216 = MANIFOLD_SOLID_BREP ( 'Corps-Déplacer/Copier1[1]', #300 ) ;
#217 = APPLICATION_CONTEXT ( 'configuration controlled 3d designs of mechanical parts and assemblies' ) ;
#218 = DIRECTION ( 'NONE',  ( 0.0000000000000000000, 1.000000000000000000, 0.0000000000000000000 ) ) ;
#219 = CARTESIAN_POINT ( 'NONE',  ( 3.491481338843133355E-14, 1.229999999999998650, 10.00000000000000000 ) ) ;
#220 = AXIS2_PLACEMENT_3D ( 'NONE', #174, #86, #218 ) ;
#221 = FACE_OUTER_BOUND ( 'NONE', #71, .T. ) ;
#222 = CARTESIAN_POINT ( 'NONE',  ( -6.534845395761904705E-31, 2.292115214195676461E-32, -1.871654109406513073E-16 ) ) ;
#223 = EDGE_CURVE ( 'NONE', #279, #279, #123, .T. ) ;
#224 = APPLICATION_CONTEXT ( 'configuration controlled 3d designs of mechanical parts and assemblies' ) ;
#225 = CALENDAR_DATE ( 2021, 1, 12 ) ;
#226 = APPROVAL_PERSON_ORGANIZATION ( #136, #298, #182 ) ;
#227 = EDGE_LOOP ( 'NONE', ( #42 ) ) ;
#228 = EDGE_CURVE ( 'NONE', #2, #2, #176, .T. ) ;
#229 = AXIS2_PLACEMENT_3D ( 'NONE', #13, #194, #114 ) ;
#230 = EDGE_LOOP ( 'NONE', ( #173 ) ) ;
#231 = DIRECTION ( 'NONE',  ( 0.0000000000000000000, 0.0000000000000000000, 1.000000000000000000 ) ) ;
#232 = DIRECTION ( 'NONE',  ( 4.275831445896958607E-31, 1.000000000000000000, 1.224646799147353454E-16 ) ) ;
#233 = CALENDAR_DATE ( 2021, 1, 12 ) ;
#234 = DIRECTION ( 'NONE',  ( -4.275831445896958607E-31, -1.000000000000000000, -1.224646799147353207E-16 ) ) ;
#235 = AXIS2_PLACEMENT_3D ( 'NONE', #38, #231, #96 ) ;
#236 = PLANE ( 'NONE',  #11 ) ;
#237 = ORIENTED_EDGE ( 'NONE', *, *, #7, .T. ) ;
#238 = CC_DESIGN_PERSON_AND_ORGANIZATION_ASSIGNMENT ( #301, #63, ( #161 ) ) ;
#239 = DIRECTION ( 'NONE',  ( -3.491481338843133355E-15, 1.224646799147353207E-16, -1.000000000000000000 ) ) ;
#240 = ORIENTED_EDGE ( 'NONE', *, *, #126, .T. ) ;
#241 = CARTESIAN_POINT ( 'NONE',  ( 3.491481338843133355E-14, 9.223522663370405404E-33, 10.00000000000000000 ) ) ;
#242 = PERSON ( 'UNSPECIFIED', 'UNSPECIFIED', 'UNSPECIFIED', ('UNSPECIFIED'), ('UNSPECIFIED'), ('UNSPECIFIED') ) ;
#243 = ORIENTED_EDGE ( 'NONE', *, *, #223, .F. ) ;
#244 = AXIS2_PLACEMENT_3D ( 'NONE', #91, #170, #271 ) ;
#245 = CYLINDRICAL_SURFACE ( 'NONE', #249, 1.229999999999999316 ) ;
#246 = APPROVAL ( #151, 'UNSPECIFIED' ) ;
#247 = CARTESIAN_POINT ( 'NONE',  ( -1.892735826383161356E-31, 1.085662432702594327, -5.421010862427522170E-17 ) ) ;
#248 = CONICAL_SURFACE ( 'NONE', #155, 1.229999999999998650, 0.5235987755982925984 ) ;
#249 = AXIS2_PLACEMENT_3D ( 'NONE', #50, #196, #146 ) ;
#250 = CARTESIAN_POINT ( 'NONE',  ( 3.491481338843133355E-14, -1.224646799147353256E-15, 10.00000000000000000 ) ) ;
#251 = CARTESIAN_POINT ( 'NONE',  ( 6.982962677686266711E-14, 1.079999999999997629, 20.00000000000000000 ) ) ;
#252 = VERTEX_POINT ( 'NONE', #35 ) ;
#253 = AXIS2_PLACEMENT_3D ( 'NONE', #241, #85, #276 ) ;
#254 = CC_DESIGN_PERSON_AND_ORGANIZATION_ASSIGNMENT ( #83, #184, ( #283 ) ) ;
#255 = PLANE ( 'NONE',  #253 ) ;
#256 = ORIENTED_EDGE ( 'NONE', *, *, #280, .F. ) ;
#257 = DIRECTION ( 'NONE',  ( -3.491481338843133355E-15, 1.224646799147353207E-16, -1.000000000000000000 ) ) ;
#258 = APPROVAL_PERSON_ORGANIZATION ( #187, #53, #37 ) ;
#259 = DIRECTION ( 'NONE',  ( 0.0000000000000000000, 1.000000000000000000, 0.0000000000000000000 ) ) ;
#260 = CARTESIAN_POINT ( 'NONE',  ( 8.728703347107829444E-16, -3.061616997868381785E-17, 0.2499999999999998890 ) ) ;
#261 = EDGE_LOOP ( 'NONE', ( #240 ) ) ;
#262 = CARTESIAN_POINT ( 'NONE',  ( 3.491481338843133355E-14, 9.223522663370405404E-33, 10.00000000000000000 ) ) ;
#263 = CARTESIAN_POINT ( 'NONE',  ( 8.728703347107835360E-16, 1.229999999999998650, 0.2500000000000000555 ) ) ;
#264 = CIRCLE ( 'NONE', #181, 1.500000000000001554 ) ;
#265 = ORIENTED_EDGE ( 'NONE', *, *, #103, .F. ) ;
#266 = DIRECTION ( 'NONE',  ( 0.0000000000000000000, 1.000000000000000000, 0.0000000000000000000 ) ) ;
#267 =( NAMED_UNIT ( * ) SI_UNIT ( $, .STERADIAN. ) SOLID_ANGLE_UNIT ( ) );
#268 = FACE_OUTER_BOUND ( 'NONE', #208, .T. ) ;
#269 = DIRECTION ( 'NONE',  ( -3.491481338843133355E-15, 1.224646799147353207E-16, -1.000000000000000000 ) ) ;
#270 = CARTESIAN_POINT ( 'NONE',  ( 1.745740669421566678E-13, 1.199999999999995515, 50.00000000000000000 ) ) ;
#271 = DIRECTION ( 'NONE',  ( 0.0000000000000000000, 1.000000000000000000, 0.0000000000000000000 ) ) ;
#272 = AXIS2_PLACEMENT_3D ( 'NONE', #132, #158, #104 ) ;
#273 = DIRECTION ( 'NONE',  ( 3.491481338843133355E-15, -1.224646799147353207E-16, 1.000000000000000000 ) ) ;
#274 = CYLINDRICAL_SURFACE ( 'NONE', #3, 1.499999999999999112 ) ;
#275 = EDGE_LOOP ( 'NONE', ( #237 ) ) ;
#276 = DIRECTION ( 'NONE',  ( -4.275831445896958607E-31, -1.000000000000000000, -1.224646799147353207E-16 ) ) ;
#277 = DIRECTION ( 'NONE',  ( 3.491481338843133355E-15, -1.224646799147353207E-16, 1.000000000000000000 ) ) ;
#278 = CIRCLE ( 'NONE', #129, 1.229999999999998650 ) ;
#279 = VERTEX_POINT ( 'NONE', #247 ) ;
#280 = EDGE_CURVE ( 'NONE', #252, #252, #27, .T. ) ;
#281 = DATE_AND_TIME ( #179, #294 ) ;
#282 = CARTESIAN_POINT ( 'NONE',  ( 7.875705019800163670E-14, 1.499999999999994005, 22.55691569129135843 ) ) ;
#283 = PRODUCT ( '327081', '327081', '', ( #197 ) ) ;
#284 = PLANE ( 'NONE',  #287 ) ;
#285 = CONICAL_SURFACE ( 'NONE', #220, 1.079999999999998961, 0.5235987755982934866 ) ;
#286 =( GEOMETRIC_REPRESENTATION_CONTEXT ( 3 ) GLOBAL_UNCERTAINTY_ASSIGNED_CONTEXT ( ( #100 ) ) GLOBAL_UNIT_ASSIGNED_CONTEXT ( ( #207, #105, #267 ) ) REPRESENTATION_CONTEXT ( 'NONE', 'WORKASPACE' ) );
#287 = AXIS2_PLACEMENT_3D ( 'NONE', #157, #31, #234 ) ;
#288 = CARTESIAN_POINT ( 'NONE',  ( 7.875705019800163670E-14, -2.762425459997666779E-15, 22.55691569129135843 ) ) ;
#289 = PERSON_AND_ORGANIZATION ( #242, #21 ) ;
#290 = FACE_OUTER_BOUND ( 'NONE', #227, .T. ) ;
#291 = EDGE_LOOP ( 'NONE', ( #140 ) ) ;
#292 = FACE_OUTER_BOUND ( 'NONE', #261, .T. ) ;
#293 = DIRECTION ( 'NONE',  ( 0.0000000000000000000, 1.000000000000000000, 0.0000000000000000000 ) ) ;
#294 = LOCAL_TIME ( 15, 4, 19.00000000000000000, #198 ) ;
#295 = VERTEX_POINT ( 'NONE', #92 ) ;
#296 = EDGE_LOOP ( 'NONE', ( #131 ) ) ;
#297 = FACE_OUTER_BOUND ( 'NONE', #17, .T. ) ;
#298 = APPROVAL ( #5, 'UNSPECIFIED' ) ;
#299 = DIRECTION ( 'NONE',  ( -3.491481338843133355E-15, 1.224646799147353207E-16, -1.000000000000000000 ) ) ;
#300 = CLOSED_SHELL ( 'NONE', ( #72, #52, #111, #57, #303, #128, #148, #193 ) ) ;
#301 = PERSON_AND_ORGANIZATION ( #242, #21 ) ;
#302 = CIRCLE ( 'NONE', #229, 1.200000000000001732 ) ;
#303 = ADVANCED_FACE ( 'NONE', ( #84, #214 ), #30, .T. ) ;
ENDSEC;
END-ISO-10303-21;
