ISO-10303-21;
HEADER;
FILE_DESCRIPTION (( 'STEP AP203' ),
    '1' );
FILE_NAME ('327080.step',
    '2021-12-01T14:04:19',
    ( '' ),
    ( '' ),
    'SwSTEP 2.0',
    'SolidWorks 2019',
    '' );
FILE_SCHEMA (( 'CONFIG_CONTROL_DESIGN' ));
ENDSEC;

DATA;
#1 = DIRECTION ( 'NONE',  ( -3.491481338843133355E-15, 1.224646799147353207E-16, -1.000000000000000000 ) ) ;
#2 = FACE_OUTER_BOUND ( 'NONE', #300, .T. ) ;
#3 = APPROVAL ( #233, 'UNSPECIFIED' ) ;
#4 = APPLICATION_CONTEXT ( 'configuration controlled 3d designs of mechanical parts and assemblies' ) ;
#5 = CARTESIAN_POINT ( 'NONE',  ( 7.895506194440679275E-14, -2.769370777125123962E-15, 22.61362850948753689 ) ) ;
#6 = DIRECTION ( 'NONE',  ( 0.0000000000000000000, 1.000000000000000000, 0.0000000000000000000 ) ) ;
#7 = CC_DESIGN_PERSON_AND_ORGANIZATION_ASSIGNMENT ( #88, #297, ( #123 ) ) ;
#8 = CARTESIAN_POINT ( 'NONE',  ( 0.0000000000000000000, 0.0000000000000000000, 0.0000000000000000000 ) ) ;
#9 = FACE_BOUND ( 'NONE', #262, .T. ) ;
#10 = AXIS2_PLACEMENT_3D ( 'NONE', #176, #154, #56 ) ;
#11 = ADVANCED_FACE ( 'NONE', ( #97 ), #241, .T. ) ;
#12 = VERTEX_POINT ( 'NONE', #111 ) ;
#13 = FACE_OUTER_BOUND ( 'NONE', #15, .T. ) ;
#14 = APPLICATION_PROTOCOL_DEFINITION ( 'international standard', 'config_control_design', 1994, #194 ) ;
#15 = EDGE_LOOP ( 'NONE', ( #238 ) ) ;
#16 = EDGE_CURVE ( 'NONE', #267, #267, #174, .T. ) ;
#17 =( NAMED_UNIT ( * ) PLANE_ANGLE_UNIT ( ) SI_UNIT ( $, .RADIAN. ) );
#18 = COORDINATED_UNIVERSAL_TIME_OFFSET ( 1, 0, .AHEAD. ) ;
#19 = PRODUCT_DEFINITION_FORMATION_WITH_SPECIFIED_SOURCE ( 'ANY', '', #276, .NOT_KNOWN. ) ;
#20 = EDGE_LOOP ( 'NONE', ( #298 ) ) ;
#21 = APPROVAL_DATE_TIME ( #236, #27 ) ;
#22 = DIRECTION ( 'NONE',  ( -3.491481338843133355E-15, 1.224646799147353207E-16, -1.000000000000000000 ) ) ;
#23 = AXIS2_PLACEMENT_3D ( 'NONE', #60, #107, #175 ) ;
#24 = DIRECTION ( 'NONE',  ( -4.275831445896958607E-31, -1.000000000000000000, -1.224646799147353207E-16 ) ) ;
#25 = EDGE_CURVE ( 'NONE', #291, #291, #39, .T. ) ;
#26 = DIRECTION ( 'NONE',  ( -4.275831445896958607E-31, -1.000000000000000000, -1.224646799147353207E-16 ) ) ;
#27 = APPROVAL ( #255, 'UNSPECIFIED' ) ;
#28 = ORIENTED_EDGE ( 'NONE', *, *, #16, .F. ) ;
#29 = FACE_OUTER_BOUND ( 'NONE', #51, .T. ) ;
#30 = CIRCLE ( 'NONE', #23, 1.219999999999999973 ) ;
#31 = CYLINDRICAL_SURFACE ( 'NONE', #158, 1.069999999999999396 ) ;
#32 = CARTESIAN_POINT ( 'NONE',  ( 8.728703347107835360E-16, 1.219999999999998641, 0.2500000000000000555 ) ) ;
#33 = VERTEX_POINT ( 'NONE', #135 ) ;
#34 = AXIS2_PLACEMENT_3D ( 'NONE', #80, #1, #281 ) ;
#35 = AXIS2_PLACEMENT_3D ( 'NONE', #257, #48, #147 ) ;
#36 = CARTESIAN_POINT ( 'NONE',  ( 7.104220552055901835E-14, -2.491825135286219831E-15, 20.34729635533384595 ) ) ;
#37 = VERTEX_POINT ( 'NONE', #272 ) ;
#38 = DATE_TIME_ROLE ( 'creation_date' ) ;
#39 = CIRCLE ( 'NONE', #222, 1.219999999999999973 ) ;
#40 = AXIS2_PLACEMENT_3D ( 'NONE', #8, #173, #133 ) ;
#41 = EDGE_LOOP ( 'NONE', ( #235 ) ) ;
#42 = COORDINATED_UNIVERSAL_TIME_OFFSET ( 1, 0, .AHEAD. ) ;
#43 = PERSON_AND_ORGANIZATION ( #112, #66 ) ;
#44 = PRODUCT_DEFINITION_SHAPE ( 'NONE', 'NONE',  #123 ) ;
#45 = CC_DESIGN_SECURITY_CLASSIFICATION ( #92, ( #19 ) ) ;
#46 = COORDINATED_UNIVERSAL_TIME_OFFSET ( 1, 0, .AHEAD. ) ;
#47 = EDGE_LOOP ( 'NONE', ( #49 ) ) ;
#48 = DIRECTION ( 'NONE',  ( -3.491481338843133355E-15, 1.224646799147353207E-16, -1.000000000000000000 ) ) ;
#49 = ORIENTED_EDGE ( 'NONE', *, *, #110, .T. ) ;
#50 = CC_DESIGN_APPROVAL ( #3, ( #123 ) ) ;
#51 = EDGE_LOOP ( 'NONE', ( #96 ) ) ;
#52 = FACE_OUTER_BOUND ( 'NONE', #214, .T. ) ;
#53 = EDGE_CURVE ( 'NONE', #265, #265, #183, .T. ) ;
#54 = DIRECTION ( 'NONE',  ( 0.0000000000000000000, 1.000000000000000000, 0.0000000000000000000 ) ) ;
#55 = CLOSED_SHELL ( 'NONE', ( #83, #98, #144, #61, #215, #69, #278, #130 ) ) ;
#56 = DIRECTION ( 'NONE',  ( 0.0000000000000000000, 1.000000000000000000, 0.0000000000000000000 ) ) ;
#57 = CONICAL_SURFACE ( 'NONE', #73, 1.219999999999998641, 0.5235987755982919323 ) ;
#58 = DIRECTION ( 'NONE',  ( -3.491481338843133355E-15, 1.224646799147353207E-16, -1.000000000000000000 ) ) ;
#59 = CARTESIAN_POINT ( 'NONE',  ( 3.491481338843133355E-14, 1.219999999999998641, 10.00000000000000000 ) ) ;
#60 = CARTESIAN_POINT ( 'NONE',  ( 3.491481338843133355E-14, -1.224646799147353256E-15, 10.00000000000000000 ) ) ;
#61 = ADVANCED_FACE ( 'NONE', ( #220, #2 ), #170, .F. ) ;
#62 = CARTESIAN_POINT ( 'NONE',  ( 1.745740669421566678E-13, 8.998558695971067645E-33, 50.00000000000000000 ) ) ;
#63 = PERSON_AND_ORGANIZATION ( #112, #66 ) ;
#64 = DATE_TIME_ROLE ( 'classification_date' ) ;
#65 = ORIENTED_EDGE ( 'NONE', *, *, #25, .F. ) ;
#66 = ORGANIZATION ( 'UNSPECIFIED', 'UNSPECIFIED', '' ) ;
#67 = APPROVAL_ROLE ( '' ) ;
#68 = DIRECTION ( 'NONE',  ( 1.000000000000000000, 0.0000000000000000000, 0.0000000000000000000 ) ) ;
#69 = ADVANCED_FACE ( 'NONE', ( #78, #29 ), #102, .T. ) ;
#70 = CALENDAR_DATE ( 2021, 1, 12 ) ;
#71 = EDGE_LOOP ( 'NONE', ( #89 ) ) ;
#72 = CIRCLE ( 'NONE', #244, 1.100384493975581357 ) ;
#73 = AXIS2_PLACEMENT_3D ( 'NONE', #178, #108, #159 ) ;
#74 = PERSON_AND_ORGANIZATION ( #112, #66 ) ;
#75 = ORIENTED_EDGE ( 'NONE', *, *, #167, .F. ) ;
#76 = CARTESIAN_POINT ( 'NONE',  ( 0.0000000000000000000, 0.0000000000000000000, 0.0000000000000000000 ) ) ;
#77 = LOCAL_TIME ( 15, 4, 19.00000000000000000, #18 ) ;
#78 = FACE_OUTER_BOUND ( 'NONE', #273, .T. ) ;
#79 = EDGE_CURVE ( 'NONE', #226, #226, #249, .T. ) ;
#80 = CARTESIAN_POINT ( 'NONE',  ( 6.982962677686266711E-14, -2.602085213965210642E-15, 20.00000000000000000 ) ) ;
#81 = DIRECTION ( 'NONE',  ( 0.0000000000000000000, -1.000000000000000000, 0.0000000000000000000 ) ) ;
#82 = DIRECTION ( 'NONE',  ( -4.275831445896958607E-31, -1.000000000000000000, -1.224646799147353207E-16 ) ) ;
#83 = ADVANCED_FACE ( 'NONE', ( #52 ), #286, .F. ) ;
#84 = DIRECTION ( 'NONE',  ( -3.491481338843133355E-15, 1.224646799147353207E-16, -1.000000000000000000 ) ) ;
#85 = CYLINDRICAL_SURFACE ( 'NONE', #40, 1.219999999999999307 ) ;
#86 = FACE_OUTER_BOUND ( 'NONE', #259, .T. ) ;
#87 = CC_DESIGN_PERSON_AND_ORGANIZATION_ASSIGNMENT ( #91, #141, ( #276 ) ) ;
#88 = PERSON_AND_ORGANIZATION ( #112, #66 ) ;
#89 = ORIENTED_EDGE ( 'NONE', *, *, #79, .T. ) ;
#90 = PERSON_AND_ORGANIZATION ( #112, #66 ) ;
#91 = PERSON_AND_ORGANIZATION ( #112, #66 ) ;
#92 = SECURITY_CLASSIFICATION ( '', '', #179 ) ;
#93 = CALENDAR_DATE ( 2021, 1, 12 ) ;
#94 = EDGE_LOOP ( 'NONE', ( #296 ) ) ;
#95 = APPROVAL_DATE_TIME ( #121, #237 ) ;
#96 = ORIENTED_EDGE ( 'NONE', *, *, #127, .T. ) ;
#97 = FACE_OUTER_BOUND ( 'NONE', #117, .T. ) ;
#98 = ADVANCED_FACE ( 'NONE', ( #104, #172 ), #189, .T. ) ;
#99 = AXIS2_PLACEMENT_3D ( 'NONE', #258, #242, #26 ) ;
#100 = CC_DESIGN_DATE_AND_TIME_ASSIGNMENT ( #186, #38, ( #123 ) ) ;
#101 = DIRECTION ( 'NONE',  ( -3.491481338843133355E-15, 1.224646799147353207E-16, -1.000000000000000000 ) ) ;
#102 = CYLINDRICAL_SURFACE ( 'NONE', #119, 1.499999999999999112 ) ;
#103 = DIRECTION ( 'NONE',  ( 4.275831445896958607E-31, 1.000000000000000000, 1.224646799147353454E-16 ) ) ;
#104 = FACE_OUTER_BOUND ( 'NONE', #143, .T. ) ;
#105 = DIRECTION ( 'NONE',  ( -3.491481338843133355E-15, 1.224646799147353207E-16, -1.000000000000000000 ) ) ;
#106 = CC_DESIGN_PERSON_AND_ORGANIZATION_ASSIGNMENT ( #204, #293, ( #19 ) ) ;
#107 = DIRECTION ( 'NONE',  ( -3.491481338843133355E-15, 1.224646799147353207E-16, -1.000000000000000000 ) ) ;
#108 = DIRECTION ( 'NONE',  ( 3.491481338843133355E-15, -1.224646799147353207E-16, 1.000000000000000000 ) ) ;
#109 = APPROVAL_PERSON_ORGANIZATION ( #43, #3, #67 ) ;
#110 = EDGE_CURVE ( 'NONE', #230, #230, #240, .T. ) ;
#111 = CARTESIAN_POINT ( 'NONE',  ( 1.735266225405037467E-13, 1.499999999999995559, 49.70000000000000284 ) ) ;
#112 = PERSON ( 'UNSPECIFIED', 'UNSPECIFIED', 'UNSPECIFIED', ('UNSPECIFIED'), ('UNSPECIFIED'), ('UNSPECIFIED') ) ;
#113 = EDGE_CURVE ( 'NONE', #33, #33, #125, .T. ) ;
#114 = DIRECTION ( 'NONE',  ( 4.275831445896958607E-31, 1.000000000000000000, 1.224646799147352961E-16 ) ) ;
#115 = APPROVAL_PERSON_ORGANIZATION ( #90, #237, #275 ) ;
#116 = APPROVAL_DATE_TIME ( #163, #3 ) ;
#117 = EDGE_LOOP ( 'NONE', ( #211 ) ) ;
#118 = CARTESIAN_POINT ( 'NONE',  ( 3.491481338843133355E-14, 1.219999999999998641, 10.00000000000000000 ) ) ;
#119 = AXIS2_PLACEMENT_3D ( 'NONE', #76, #168, #103 ) ;
#120 = CONICAL_SURFACE ( 'NONE', #245, 1.499999999999996669, 0.1745329251994260922 ) ;
#121 = DATE_AND_TIME ( #140, #223 ) ;
#122 = SHAPE_DEFINITION_REPRESENTATION ( #44, #266 ) ;
#123 = PRODUCT_DEFINITION ( 'UNKNOWN', '', #19, #153 ) ;
#124 = CARTESIAN_POINT ( 'NONE',  ( 3.582192684931458485E-14, -1.256464056309100836E-15, 10.25980762113533551 ) ) ;
#125 = CIRCLE ( 'NONE', #205, 1.070000000000000062 ) ;
#126 = DIRECTION ( 'NONE',  ( 0.0000000000000000000, 1.000000000000000000, 0.0000000000000000000 ) ) ;
#127 = EDGE_CURVE ( 'NONE', #12, #12, #184, .T. ) ;
#128 = CARTESIAN_POINT ( 'NONE',  ( 8.728703347107829444E-16, -3.061616997868381785E-17, 0.2499999999999998890 ) ) ;
#129 = DIRECTION ( 'NONE',  ( 3.491481338843133355E-15, -1.224646799147353207E-16, 1.000000000000000000 ) ) ;
#130 = ADVANCED_FACE ( 'NONE', ( #250 ), #288, .F. ) ;
#131 = CC_DESIGN_APPROVAL ( #237, ( #19 ) ) ;
#132 = CARTESIAN_POINT ( 'NONE',  ( 0.0000000000000000000, 0.0000000000000000000, 0.0000000000000000000 ) ) ;
#133 = DIRECTION ( 'NONE',  ( 4.275831445896958607E-31, 1.000000000000000000, 1.224646799147353207E-16 ) ) ;
#134 = FACE_OUTER_BOUND ( 'NONE', #213, .T. ) ;
#135 = CARTESIAN_POINT ( 'NONE',  ( 6.982962677686266711E-14, 1.069999999999997620, 20.00000000000000000 ) ) ;
#136 = AXIS2_PLACEMENT_3D ( 'NONE', #199, #270, #6 ) ;
#137 = FACE_OUTER_BOUND ( 'NONE', #219, .T. ) ;
#138 = VERTEX_POINT ( 'NONE', #253 ) ;
#139 = PRODUCT_RELATED_PRODUCT_CATEGORY ( 'detail', '', ( #276 ) ) ;
#140 = CALENDAR_DATE ( 2021, 1, 12 ) ;
#141 = PERSON_AND_ORGANIZATION_ROLE ( 'design_owner' ) ;
#142 = MECHANICAL_CONTEXT ( 'NONE', #4, 'mechanical' ) ;
#143 = EDGE_LOOP ( 'NONE', ( #65 ) ) ;
#144 = ADVANCED_FACE ( 'NONE', ( #13, #86 ), #31, .T. ) ;
#145 = APPROVAL_ROLE ( '' ) ;
#146 = ORIENTED_EDGE ( 'NONE', *, *, #269, .T. ) ;
#147 = DIRECTION ( 'NONE',  ( 0.0000000000000000000, 1.000000000000000000, 0.0000000000000000000 ) ) ;
#148 = CARTESIAN_POINT ( 'NONE',  ( 3.491481338843133355E-14, 9.148534674237313344E-33, 10.00000000000000000 ) ) ;
#149 = AXIS2_PLACEMENT_3D ( 'NONE', #62, #58, #292 ) ;
#150 = DIRECTION ( 'NONE',  ( -3.491481338843133355E-15, 1.224646799147353207E-16, -1.000000000000000000 ) ) ;
#151 = ORIENTED_EDGE ( 'NONE', *, *, #167, .T. ) ;
#152 = EDGE_LOOP ( 'NONE', ( #28 ) ) ;
#153 = DESIGN_CONTEXT ( 'detailed design', #194, 'design' ) ;
#154 = DIRECTION ( 'NONE',  ( -3.491481338843133355E-15, 1.224646799147353207E-16, -1.000000000000000000 ) ) ;
#155 = FACE_OUTER_BOUND ( 'NONE', #195, .T. ) ;
#156 = CARTESIAN_POINT ( 'NONE',  ( 7.895506194440679275E-14, 1.499999999999994005, 22.61362850948753689 ) ) ;
#157 = DIRECTION ( 'NONE',  ( -3.491481338843133355E-15, 1.224646799147353207E-16, -1.000000000000000000 ) ) ;
#158 = AXIS2_PLACEMENT_3D ( 'NONE', #132, #157, #229 ) ;
#159 = DIRECTION ( 'NONE',  ( -4.735893305870256979E-31, -1.000000000000000000, -1.333035457973982236E-16 ) ) ;
#160 = PERSON_AND_ORGANIZATION_ROLE ( 'classification_officer' ) ;
#161 =( NAMED_UNIT ( * ) SI_UNIT ( $, .STERADIAN. ) SOLID_ANGLE_UNIT ( ) );
#162 = CIRCLE ( 'NONE', #274, 1.075662432702594540 ) ;
#163 = DATE_AND_TIME ( #70, #77 ) ;
#164 = APPROVAL_PERSON_ORGANIZATION ( #74, #27, #145 ) ;
#165 = ORIENTED_EDGE ( 'NONE', *, *, #53, .T. ) ;
#166 = CARTESIAN_POINT ( 'NONE',  ( 1.745740669421566678E-13, -6.123233995736766085E-15, 50.00000000000000000 ) ) ;
#167 = EDGE_CURVE ( 'NONE', #138, #138, #162, .T. ) ;
#168 = DIRECTION ( 'NONE',  ( -3.491481338843133355E-15, 1.224646799147353207E-16, -1.000000000000000000 ) ) ;
#169 = ADVANCED_FACE ( 'NONE', ( #9, #264 ), #57, .T. ) ;
#170 = TOROIDAL_SURFACE ( 'NONE', #34, 3.070000000000000284, 2.000000000000000000 ) ;
#171 = AXIS2_PLACEMENT_3D ( 'NONE', #124, #217, #282 ) ;
#172 = FACE_BOUND ( 'NONE', #47, .T. ) ;
#173 = DIRECTION ( 'NONE',  ( -3.491481338843133355E-15, 1.224646799147353207E-16, -1.000000000000000000 ) ) ;
#174 = CIRCLE ( 'NONE', #210, 1.200000000000001732 ) ;
#175 = DIRECTION ( 'NONE',  ( 0.0000000000000000000, 1.000000000000000000, 0.0000000000000000000 ) ) ;
#176 = CARTESIAN_POINT ( 'NONE',  ( 1.745740669421566678E-13, -6.123233995736766085E-15, 50.00000000000000000 ) ) ;
#177 = DIRECTION ( 'NONE',  ( 3.491481338843133355E-15, -1.224646799147353207E-16, 1.000000000000000000 ) ) ;
#178 = CARTESIAN_POINT ( 'NONE',  ( 8.728703347107829444E-16, -3.061616997868381785E-17, 0.2499999999999998890 ) ) ;
#179 = SECURITY_CLASSIFICATION_LEVEL ( 'unclassified' ) ;
#180 = DATE_AND_TIME ( #295, #212 ) ;
#181 = ORIENTED_EDGE ( 'NONE', *, *, #113, .T. ) ;
#182 = VERTEX_POINT ( 'NONE', #118 ) ;
#183 = CIRCLE ( 'NONE', #227, 1.219999999999998641 ) ;
#184 = CIRCLE ( 'NONE', #136, 1.500000000000001554 ) ;
#185 = APPROVAL_STATUS ( 'not_yet_approved' ) ;
#186 = DATE_AND_TIME ( #93, #228 ) ;
#187 = CC_DESIGN_DATE_AND_TIME_ASSIGNMENT ( #180, #64, ( #92 ) ) ;
#188 = DIRECTION ( 'NONE',  ( 4.735893305870256979E-31, 1.000000000000000000, 1.333035457973982236E-16 ) ) ;
#189 = CONICAL_SURFACE ( 'NONE', #35, 1.069999999999998952, 0.5235987755982963732 ) ;
#190 = CARTESIAN_POINT ( 'NONE',  ( 3.491481338843133355E-14, -1.224646799147353256E-15, 10.00000000000000000 ) ) ;
#191 = EDGE_LOOP ( 'NONE', ( #239 ) ) ;
#192 = ORIENTED_EDGE ( 'NONE', *, *, #25, .T. ) ;
#193 = CC_DESIGN_PERSON_AND_ORGANIZATION_ASSIGNMENT ( #63, #160, ( #92 ) ) ;
#194 = APPLICATION_CONTEXT ( 'configuration controlled 3d designs of mechanical parts and assemblies' ) ;
#195 = EDGE_LOOP ( 'NONE', ( #294 ) ) ;
#196 = FACE_OUTER_BOUND ( 'NONE', #41, .T. ) ;
#197 = MANIFOLD_SOLID_BREP ( 'Corps-Déplacer/Copier1[2]', #203 ) ;
#198 = DIRECTION ( 'NONE',  ( 3.491481338843133355E-15, -1.224646799147353207E-16, 1.000000000000000000 ) ) ;
#199 = CARTESIAN_POINT ( 'NONE',  ( 1.735266225405037467E-13, -6.086494591762345225E-15, 49.70000000000000284 ) ) ;
#200 = MANIFOLD_SOLID_BREP ( 'Corps-Déplacer/Copier1[1]', #55 ) ;
#201 = CARTESIAN_POINT ( 'NONE',  ( -6.492087081302935277E-31, 2.277117616369058050E-32, -1.859407641415039568E-16 ) ) ;
#202 = PLANE ( 'NONE',  #285 ) ;
#203 = CLOSED_SHELL ( 'NONE', ( #299, #169, #256, #11 ) ) ;
#204 = PERSON_AND_ORGANIZATION ( #112, #66 ) ;
#205 = AXIS2_PLACEMENT_3D ( 'NONE', #303, #101, #290 ) ;
#206 = PERSON_AND_ORGANIZATION_ROLE ( 'creator' ) ;
#207 = EDGE_LOOP ( 'NONE', ( #165 ) ) ;
#208 =( LENGTH_UNIT ( ) NAMED_UNIT ( * ) SI_UNIT ( .MILLI., .METRE. ) );
#209 = CARTESIAN_POINT ( 'NONE',  ( 0.0000000000000000000, 0.0000000000000000000, 0.0000000000000000000 ) ) ;
#210 = AXIS2_PLACEMENT_3D ( 'NONE', #166, #22, #54 ) ;
#211 = ORIENTED_EDGE ( 'NONE', *, *, #252, .F. ) ;
#212 = LOCAL_TIME ( 15, 4, 19.00000000000000000, #232 ) ;
#213 = EDGE_LOOP ( 'NONE', ( #221 ) ) ;
#214 = EDGE_LOOP ( 'NONE', ( #192 ) ) ;
#215 = ADVANCED_FACE ( 'NONE', ( #251, #224 ), #120, .T. ) ;
#216 = CC_DESIGN_PERSON_AND_ORGANIZATION_ASSIGNMENT ( #277, #206, ( #19 ) ) ;
#217 = DIRECTION ( 'NONE',  ( -3.491481338843133355E-15, 1.224646799147353207E-16, -1.000000000000000000 ) ) ;
#218 = CONICAL_SURFACE ( 'NONE', #10, 1.200000000000001732, 0.7853981633974453924 ) ;
#219 = EDGE_LOOP ( 'NONE', ( #151 ) ) ;
#220 = FACE_OUTER_BOUND ( 'NONE', #20, .T. ) ;
#221 = ORIENTED_EDGE ( 'NONE', *, *, #127, .F. ) ;
#222 = AXIS2_PLACEMENT_3D ( 'NONE', #190, #284, #126 ) ;
#223 = LOCAL_TIME ( 15, 4, 19.00000000000000000, #234 ) ;
#224 = FACE_OUTER_BOUND ( 'NONE', #71, .T. ) ;
#225 = FACE_BOUND ( 'NONE', #94, .T. ) ;
#226 = VERTEX_POINT ( 'NONE', #156 ) ;
#227 = AXIS2_PLACEMENT_3D ( 'NONE', #128, #283, #188 ) ;
#228 = LOCAL_TIME ( 15, 4, 19.00000000000000000, #42 ) ;
#229 = DIRECTION ( 'NONE',  ( 4.275831445896958607E-31, 1.000000000000000000, 1.224646799147353207E-16 ) ) ;
#230 = VERTEX_POINT ( 'NONE', #248 ) ;
#231 = APPLICATION_PROTOCOL_DEFINITION ( 'international standard', 'config_control_design', 1994, #4 ) ;
#232 = COORDINATED_UNIVERSAL_TIME_OFFSET ( 1, 0, .AHEAD. ) ;
#233 = APPROVAL_STATUS ( 'not_yet_approved' ) ;
#234 = COORDINATED_UNIVERSAL_TIME_OFFSET ( 1, 0, .AHEAD. ) ;
#235 = ORIENTED_EDGE ( 'NONE', *, *, #252, .T. ) ;
#236 = DATE_AND_TIME ( #279, #260 ) ;
#237 = APPROVAL ( #185, 'UNSPECIFIED' ) ;
#238 = ORIENTED_EDGE ( 'NONE', *, *, #110, .F. ) ;
#239 = ORIENTED_EDGE ( 'NONE', *, *, #269, .F. ) ;
#240 = CIRCLE ( 'NONE', #171, 1.069999999999998952 ) ;
#241 = PLANE ( 'NONE',  #301 ) ;
#242 = DIRECTION ( 'NONE',  ( 3.491481338843133355E-15, -1.224646799147353207E-16, 1.000000000000000000 ) ) ;
#243 = DIRECTION ( 'NONE',  ( 0.0000000000000000000, 1.000000000000000000, 0.0000000000000000000 ) ) ;
#244 = AXIS2_PLACEMENT_3D ( 'NONE', #36, #84, #268 ) ;
#245 = AXIS2_PLACEMENT_3D ( 'NONE', #287, #177, #81 ) ;
#246 = CARTESIAN_POINT ( 'NONE',  ( -3.246043540651467638E-31, 1.138558808184529025E-32, -9.297038207075197838E-17 ) ) ;
#247 = CARTESIAN_POINT ( 'NONE',  ( 1.745740669421566678E-13, 1.199999999999995515, 50.00000000000000000 ) ) ;
#248 = CARTESIAN_POINT ( 'NONE',  ( 3.582192684931458485E-14, 1.069999999999997620, 10.25980762113533551 ) ) ;
#249 = CIRCLE ( 'NONE', #302, 1.499999999999996669 ) ;
#250 = FACE_OUTER_BOUND ( 'NONE', #152, .T. ) ;
#251 = FACE_BOUND ( 'NONE', #191, .T. ) ;
#252 = EDGE_CURVE ( 'NONE', #182, #182, #30, .T. ) ;
#253 = CARTESIAN_POINT ( 'NONE',  ( -1.892735826383160481E-31, 1.075662432702594540, -5.421010862427522170E-17 ) ) ;
#254 =( GEOMETRIC_REPRESENTATION_CONTEXT ( 3 ) GLOBAL_UNCERTAINTY_ASSIGNED_CONTEXT ( ( #263 ) ) GLOBAL_UNIT_ASSIGNED_CONTEXT ( ( #208, #17, #161 ) ) REPRESENTATION_CONTEXT ( 'NONE', 'WORKASPACE' ) );
#255 = APPROVAL_STATUS ( 'not_yet_approved' ) ;
#256 = ADVANCED_FACE ( 'NONE', ( #155, #196 ), #85, .T. ) ;
#257 = CARTESIAN_POINT ( 'NONE',  ( 3.582192684931458485E-14, -1.256464056309100836E-15, 10.25980762113533551 ) ) ;
#258 = CARTESIAN_POINT ( 'NONE',  ( 3.491481338843133355E-14, 9.148534674237313344E-33, 10.00000000000000000 ) ) ;
#259 = EDGE_LOOP ( 'NONE', ( #181 ) ) ;
#260 = LOCAL_TIME ( 15, 4, 19.00000000000000000, #46 ) ;
#261 = ORIENTED_EDGE ( 'NONE', *, *, #79, .F. ) ;
#262 = EDGE_LOOP ( 'NONE', ( #75 ) ) ;
#263 = UNCERTAINTY_MEASURE_WITH_UNIT (LENGTH_MEASURE( 1.000000000000000082E-05 ), #208, 'distance_accuracy_value', 'NONE');
#264 = FACE_OUTER_BOUND ( 'NONE', #207, .T. ) ;
#265 = VERTEX_POINT ( 'NONE', #32 ) ;
#266 = ADVANCED_BREP_SHAPE_REPRESENTATION ( '327080', ( #200, #197, #289 ), #254 ) ;
#267 = VERTEX_POINT ( 'NONE', #247 ) ;
#268 = DIRECTION ( 'NONE',  ( 0.0000000000000000000, 1.000000000000000000, 0.0000000000000000000 ) ) ;
#269 = EDGE_CURVE ( 'NONE', #37, #37, #72, .T. ) ;
#270 = DIRECTION ( 'NONE',  ( -3.491481338843133355E-15, 1.224646799147353207E-16, -1.000000000000000000 ) ) ;
#271 = DIRECTION ( 'NONE',  ( 0.0000000000000000000, 0.0000000000000000000, 1.000000000000000000 ) ) ;
#272 = CARTESIAN_POINT ( 'NONE',  ( 7.104220552055901835E-14, 1.100384493975578915, 20.34729635533384595 ) ) ;
#273 = EDGE_LOOP ( 'NONE', ( #261 ) ) ;
#274 = AXIS2_PLACEMENT_3D ( 'NONE', #201, #105, #114 ) ;
#275 = APPROVAL_ROLE ( '' ) ;
#276 = PRODUCT ( '327080', '327080', '', ( #142 ) ) ;
#277 = PERSON_AND_ORGANIZATION ( #112, #66 ) ;
#278 = ADVANCED_FACE ( 'NONE', ( #134, #225 ), #218, .T. ) ;
#279 = CALENDAR_DATE ( 2021, 1, 12 ) ;
#280 = CC_DESIGN_APPROVAL ( #27, ( #92 ) ) ;
#281 = DIRECTION ( 'NONE',  ( 4.275831445896958607E-31, 1.000000000000000000, 1.224646799147353207E-16 ) ) ;
#282 = DIRECTION ( 'NONE',  ( 0.0000000000000000000, 1.000000000000000000, 0.0000000000000000000 ) ) ;
#283 = DIRECTION ( 'NONE',  ( -3.491481338843133355E-15, 1.224646799147353207E-16, -1.000000000000000000 ) ) ;
#284 = DIRECTION ( 'NONE',  ( -3.491481338843133355E-15, 1.224646799147353207E-16, -1.000000000000000000 ) ) ;
#285 = AXIS2_PLACEMENT_3D ( 'NONE', #246, #198, #82 ) ;
#286 = PLANE ( 'NONE',  #99 ) ;
#287 = CARTESIAN_POINT ( 'NONE',  ( 7.895506194440679275E-14, -2.769370777125123962E-15, 22.61362850948753689 ) ) ;
#288 = PLANE ( 'NONE',  #149 ) ;
#289 = AXIS2_PLACEMENT_3D ( 'NONE', #209, #271, #68 ) ;
#290 = DIRECTION ( 'NONE',  ( 0.0000000000000000000, 1.000000000000000000, 0.0000000000000000000 ) ) ;
#291 = VERTEX_POINT ( 'NONE', #59 ) ;
#292 = DIRECTION ( 'NONE',  ( 4.275831445896958607E-31, 1.000000000000000000, 1.224646799147353207E-16 ) ) ;
#293 = PERSON_AND_ORGANIZATION_ROLE ( 'design_supplier' ) ;
#294 = ORIENTED_EDGE ( 'NONE', *, *, #53, .F. ) ;
#295 = CALENDAR_DATE ( 2021, 1, 12 ) ;
#296 = ORIENTED_EDGE ( 'NONE', *, *, #16, .T. ) ;
#297 = PERSON_AND_ORGANIZATION_ROLE ( 'creator' ) ;
#298 = ORIENTED_EDGE ( 'NONE', *, *, #113, .F. ) ;
#299 = ADVANCED_FACE ( 'NONE', ( #137 ), #202, .F. ) ;
#300 = EDGE_LOOP ( 'NONE', ( #146 ) ) ;
#301 = AXIS2_PLACEMENT_3D ( 'NONE', #148, #129, #24 ) ;
#302 = AXIS2_PLACEMENT_3D ( 'NONE', #5, #150, #243 ) ;
#303 = CARTESIAN_POINT ( 'NONE',  ( 6.982962677686266711E-14, -2.449293598294706513E-15, 20.00000000000000000 ) ) ;
ENDSEC;
END-ISO-10303-21;
