ISO-10303-21;
HEADER;
FILE_DESCRIPTION (( 'STEP AP203' ),
    '1' );
FILE_NAME ('327079.step',
    '2021-12-01T14:04:18',
    ( '' ),
    ( '' ),
    'SwSTEP 2.0',
    'SolidWorks 2019',
    '' );
FILE_SCHEMA (( 'CONFIG_CONTROL_DESIGN' ));
ENDSEC;

DATA;
#1 = FACE_OUTER_BOUND ( 'NONE', #258, .T. ) ;
#2 = DIRECTION ( 'NONE',  ( 0.0000000000000000000, 1.000000000000000000, 0.0000000000000000000 ) ) ;
#3 = EDGE_LOOP ( 'NONE', ( #68 ) ) ;
#4 = CC_DESIGN_APPROVAL ( #92, ( #124 ) ) ;
#5 = CARTESIAN_POINT ( 'NONE',  ( 1.745740669421566678E-13, 1.199999999999995515, 50.00000000000000000 ) ) ;
#6 = CARTESIAN_POINT ( 'NONE',  ( 0.0000000000000000000, 0.0000000000000000000, 0.0000000000000000000 ) ) ;
#7 = CARTESIAN_POINT ( 'NONE',  ( 8.728703347107829444E-16, -3.061616997868381785E-17, 0.2499999999999998890 ) ) ;
#8 = AXIS2_PLACEMENT_3D ( 'NONE', #187, #144, #73 ) ;
#9 = CC_DESIGN_APPROVAL ( #134, ( #161 ) ) ;
#10 = ADVANCED_FACE ( 'NONE', ( #277 ), #90, .F. ) ;
#11 = DIRECTION ( 'NONE',  ( 0.0000000000000000000, 1.000000000000000000, 0.0000000000000000000 ) ) ;
#12 = VERTEX_POINT ( 'NONE', #200 ) ;
#13 = DIRECTION ( 'NONE',  ( 0.0000000000000000000, 0.0000000000000000000, 1.000000000000000000 ) ) ;
#14 = AXIS2_PLACEMENT_3D ( 'NONE', #231, #27, #121 ) ;
#15 = APPROVAL_DATE_TIME ( #158, #134 ) ;
#16 = EDGE_CURVE ( 'NONE', #34, #34, #169, .T. ) ;
#17 = EDGE_CURVE ( 'NONE', #12, #12, #180, .T. ) ;
#18 = COORDINATED_UNIVERSAL_TIME_OFFSET ( 1, 0, .AHEAD. ) ;
#19 = PERSON_AND_ORGANIZATION ( #283, #229 ) ;
#20 = EDGE_LOOP ( 'NONE', ( #157 ) ) ;
#21 = CIRCLE ( 'NONE', #282, 1.200000000000001732 ) ;
#22 = CARTESIAN_POINT ( 'NONE',  ( 1.735266225405037467E-13, 1.499999999999995559, 49.70000000000000284 ) ) ;
#23 = PRODUCT_RELATED_PRODUCT_CATEGORY ( 'detail', '', ( #44 ) ) ;
#24 = ORIENTED_EDGE ( 'NONE', *, *, #17, .F. ) ;
#25 = COORDINATED_UNIVERSAL_TIME_OFFSET ( 1, 0, .AHEAD. ) ;
#26 = DIRECTION ( 'NONE',  ( -3.491481338843133355E-15, 1.224646799147353207E-16, -1.000000000000000000 ) ) ;
#27 = DIRECTION ( 'NONE',  ( -3.491481338843133355E-15, 1.224646799147353207E-16, -1.000000000000000000 ) ) ;
#28 = EDGE_LOOP ( 'NONE', ( #135 ) ) ;
#29 = FACE_OUTER_BOUND ( 'NONE', #58, .T. ) ;
#30 = VERTEX_POINT ( 'NONE', #126 ) ;
#31 = DIRECTION ( 'NONE',  ( -3.491481338843133355E-15, 1.224646799147353207E-16, -1.000000000000000000 ) ) ;
#32 = FACE_BOUND ( 'NONE', #20, .T. ) ;
#33 = APPROVAL_PERSON_ORGANIZATION ( #111, #92, #141 ) ;
#34 = VERTEX_POINT ( 'NONE', #263 ) ;
#35 = SECURITY_CLASSIFICATION_LEVEL ( 'unclassified' ) ;
#36 = AXIS2_PLACEMENT_3D ( 'NONE', #257, #160, #212 ) ;
#37 = APPROVAL_PERSON_ORGANIZATION ( #179, #134, #252 ) ;
#38 = CALENDAR_DATE ( 2021, 1, 12 ) ;
#39 = ORIENTED_EDGE ( 'NONE', *, *, #17, .T. ) ;
#40 = CIRCLE ( 'NONE', #271, 1.499999999999996669 ) ;
#41 = DIRECTION ( 'NONE',  ( -3.491481338843133355E-15, 1.224646799147353207E-16, -1.000000000000000000 ) ) ;
#42 = DIRECTION ( 'NONE',  ( 0.0000000000000000000, 1.000000000000000000, 0.0000000000000000000 ) ) ;
#43 = DIRECTION ( 'NONE',  ( -3.491481338843133355E-15, 1.224646799147353207E-16, -1.000000000000000000 ) ) ;
#44 = PRODUCT ( '327079', '327079', '', ( #155 ) ) ;
#45 = DIRECTION ( 'NONE',  ( -3.491481338843133355E-15, 1.224646799147353207E-16, -1.000000000000000000 ) ) ;
#46 = EDGE_CURVE ( 'NONE', #105, #105, #219, .T. ) ;
#47 = EDGE_LOOP ( 'NONE', ( #234 ) ) ;
#48 = DIRECTION ( 'NONE',  ( -3.491481338843133355E-15, 1.224646799147353207E-16, -1.000000000000000000 ) ) ;
#49 = DIRECTION ( 'NONE',  ( 4.275831445896958607E-31, 1.000000000000000000, 1.224646799147353454E-16 ) ) ;
#50 = EDGE_CURVE ( 'NONE', #154, #154, #113, .T. ) ;
#51 = PLANE ( 'NONE',  #159 ) ;
#52 = FACE_OUTER_BOUND ( 'NONE', #28, .T. ) ;
#53 = CIRCLE ( 'NONE', #302, 1.095384493975579909 ) ;
#54 = FACE_OUTER_BOUND ( 'NONE', #115, .T. ) ;
#55 = CC_DESIGN_PERSON_AND_ORGANIZATION_ASSIGNMENT ( #109, #295, ( #124 ) ) ;
#56 = PERSON_AND_ORGANIZATION_ROLE ( 'design_supplier' ) ;
#57 = DIRECTION ( 'NONE',  ( 1.000000000000000000, 0.0000000000000000000, 0.0000000000000000000 ) ) ;
#58 = EDGE_LOOP ( 'NONE', ( #186 ) ) ;
#59 = CIRCLE ( 'NONE', #232, 1.500000000000001554 ) ;
#60 = APPROVAL_ROLE ( '' ) ;
#61 = CC_DESIGN_DATE_AND_TIME_ASSIGNMENT ( #156, #136, ( #124 ) ) ;
#62 = CALENDAR_DATE ( 2021, 1, 12 ) ;
#63 = COORDINATED_UNIVERSAL_TIME_OFFSET ( 1, 0, .AHEAD. ) ;
#64 = AXIS2_PLACEMENT_3D ( 'NONE', #220, #288, #266 ) ;
#65 = DATE_AND_TIME ( #276, #139 ) ;
#66 = ORIENTED_EDGE ( 'NONE', *, *, #67, .F. ) ;
#67 = EDGE_CURVE ( 'NONE', #215, #215, #209, .T. ) ;
#68 = ORIENTED_EDGE ( 'NONE', *, *, #50, .F. ) ;
#69 = CARTESIAN_POINT ( 'NONE',  ( 6.982962677686266711E-14, -2.449293598294706513E-15, 20.00000000000000000 ) ) ;
#70 = AXIS2_PLACEMENT_3D ( 'NONE', #7, #99, #286 ) ;
#71 = CARTESIAN_POINT ( 'NONE',  ( 1.745740669421566678E-13, 8.998558695971067645E-33, 50.00000000000000000 ) ) ;
#72 = EDGE_CURVE ( 'NONE', #285, #285, #21, .T. ) ;
#73 = DIRECTION ( 'NONE',  ( -4.275831445896958607E-31, -1.000000000000000000, -1.224646799147353207E-16 ) ) ;
#74 = VERTEX_POINT ( 'NONE', #150 ) ;
#75 = DIRECTION ( 'NONE',  ( -3.491481338843133355E-15, 1.224646799147353207E-16, -1.000000000000000000 ) ) ;
#76 = LOCAL_TIME ( 15, 4, 18.00000000000000000, #63 ) ;
#77 = ADVANCED_FACE ( 'NONE', ( #281 ), #191, .F. ) ;
#78 = DIRECTION ( 'NONE',  ( 0.0000000000000000000, 1.000000000000000000, 0.0000000000000000000 ) ) ;
#79 = DIRECTION ( 'NONE',  ( 3.491481338843133355E-15, -1.224646799147353207E-16, 1.000000000000000000 ) ) ;
#80 = DIRECTION ( 'NONE',  ( 0.0000000000000000000, 1.000000000000000000, 0.0000000000000000000 ) ) ;
#81 = DATE_AND_TIME ( #292, #95 ) ;
#82 = EDGE_LOOP ( 'NONE', ( #189 ) ) ;
#83 = CARTESIAN_POINT ( 'NONE',  ( 7.104220552055900573E-14, 1.095384493975577467, 20.34729635533384240 ) ) ;
#84 = AXIS2_PLACEMENT_3D ( 'NONE', #290, #75, #49 ) ;
#85 = DATE_TIME_ROLE ( 'creation_date' ) ;
#86 =( LENGTH_UNIT ( ) NAMED_UNIT ( * ) SI_UNIT ( .MILLI., .METRE. ) );
#87 = CYLINDRICAL_SURFACE ( 'NONE', #14, 1.499999999999999112 ) ;
#88 = ADVANCED_FACE ( 'NONE', ( #261, #148 ), #259, .T. ) ;
#89 = AXIS2_PLACEMENT_3D ( 'NONE', #71, #45, #207 ) ;
#90 = PLANE ( 'NONE',  #8 ) ;
#91 = CARTESIAN_POINT ( 'NONE',  ( 7.905406781760937708E-14, -2.772843435688853539E-15, 22.64198491858562790 ) ) ;
#92 = APPROVAL ( #205, 'UNSPECIFIED' ) ;
#93 = ORIENTED_EDGE ( 'NONE', *, *, #72, .F. ) ;
#94 = AXIS2_PLACEMENT_3D ( 'NONE', #96, #146, #278 ) ;
#95 = LOCAL_TIME ( 15, 4, 18.00000000000000000, #178 ) ;
#96 = CARTESIAN_POINT ( 'NONE',  ( 3.491481338843133355E-14, -1.224646799147353256E-15, 10.00000000000000000 ) ) ;
#97 = DIRECTION ( 'NONE',  ( -4.275831445896958607E-31, -1.000000000000000000, -1.224646799147353207E-16 ) ) ;
#98 = DIRECTION ( 'NONE',  ( -3.491481338843133355E-15, 1.224646799147353207E-16, -1.000000000000000000 ) ) ;
#99 = DIRECTION ( 'NONE',  ( 3.491481338843133355E-15, -1.224646799147353207E-16, 1.000000000000000000 ) ) ;
#100 = TOROIDAL_SURFACE ( 'NONE', #64, 3.064999999999999947, 2.000000000000000444 ) ;
#101 = DIRECTION ( 'NONE',  ( -3.491481338843133355E-15, 1.224646799147353207E-16, -1.000000000000000000 ) ) ;
#102 = PRODUCT_DEFINITION_SHAPE ( 'NONE', 'NONE',  #161 ) ;
#103 = ADVANCED_BREP_SHAPE_REPRESENTATION ( '327079', ( #194, #294, #114 ), #236 ) ;
#104 = ADVANCED_FACE ( 'NONE', ( #29, #300 ), #87, .T. ) ;
#105 = VERTEX_POINT ( 'NONE', #201 ) ;
#106 = ADVANCED_FACE ( 'NONE', ( #210, #1 ), #190, .T. ) ;
#107 = CARTESIAN_POINT ( 'NONE',  ( 0.0000000000000000000, 0.0000000000000000000, 0.0000000000000000000 ) ) ;
#108 = LOCAL_TIME ( 15, 4, 18.00000000000000000, #204 ) ;
#109 = PERSON_AND_ORGANIZATION ( #283, #229 ) ;
#110 = APPROVAL_DATE_TIME ( #224, #249 ) ;
#111 = PERSON_AND_ORGANIZATION ( #283, #229 ) ;
#112 = ORIENTED_EDGE ( 'NONE', *, *, #67, .T. ) ;
#113 = CIRCLE ( 'NONE', #94, 1.215000000000000080 ) ;
#114 = AXIS2_PLACEMENT_3D ( 'NONE', #107, #13, #57 ) ;
#115 = EDGE_LOOP ( 'NONE', ( #137 ) ) ;
#116 = SHAPE_DEFINITION_REPRESENTATION ( #102, #103 ) ;
#117 = EDGE_LOOP ( 'NONE', ( #112 ) ) ;
#118 = EDGE_CURVE ( 'NONE', #74, #74, #40, .T. ) ;
#119 = DIRECTION ( 'NONE',  ( 0.0000000000000000000, 1.000000000000000000, 0.0000000000000000000 ) ) ;
#120 = LOCAL_TIME ( 15, 4, 18.00000000000000000, #18 ) ;
#121 = DIRECTION ( 'NONE',  ( 4.275831445896958607E-31, 1.000000000000000000, 1.224646799147353454E-16 ) ) ;
#122 = DIRECTION ( 'NONE',  ( -3.491481338843133355E-15, 1.224646799147353207E-16, -1.000000000000000000 ) ) ;
#123 = ORIENTED_EDGE ( 'NONE', *, *, #217, .F. ) ;
#124 = SECURITY_CLASSIFICATION ( '', '', #35 ) ;
#125 = FACE_OUTER_BOUND ( 'NONE', #177, .T. ) ;
#126 = CARTESIAN_POINT ( 'NONE',  ( -3.785471652766322713E-31, 1.070662432702594202, -1.084202172485504434E-16 ) ) ;
#127 = CARTESIAN_POINT ( 'NONE',  ( 1.735266225405037467E-13, -6.086494591762345225E-15, 49.70000000000000284 ) ) ;
#128 = CARTESIAN_POINT ( 'NONE',  ( -8.363443750456610824E-31, 2.933501177537238366E-32, -2.395385493662054909E-16 ) ) ;
#129 = APPLICATION_CONTEXT ( 'configuration controlled 3d designs of mechanical parts and assemblies' ) ;
#130 = FACE_OUTER_BOUND ( 'NONE', #3, .T. ) ;
#131 = PERSON_AND_ORGANIZATION ( #283, #229 ) ;
#132 = EDGE_CURVE ( 'NONE', #30, #30, #197, .T. ) ;
#133 = CONICAL_SURFACE ( 'NONE', #70, 1.214999999999998748, 0.5235987755982931535 ) ;
#134 = APPROVAL ( #222, 'UNSPECIFIED' ) ;
#135 = ORIENTED_EDGE ( 'NONE', *, *, #16, .T. ) ;
#136 = DATE_TIME_ROLE ( 'classification_date' ) ;
#137 = ORIENTED_EDGE ( 'NONE', *, *, #46, .F. ) ;
#138 = EDGE_LOOP ( 'NONE', ( #298 ) ) ;
#139 = LOCAL_TIME ( 15, 4, 18.00000000000000000, #25 ) ;
#140 = ADVANCED_FACE ( 'NONE', ( #168, #171 ), #152, .T. ) ;
#141 = APPROVAL_ROLE ( '' ) ;
#142 = DIRECTION ( 'NONE',  ( -3.491481338843133355E-15, 1.224646799147353207E-16, -1.000000000000000000 ) ) ;
#143 = ADVANCED_FACE ( 'NONE', ( #265, #173 ), #170, .T. ) ;
#144 = DIRECTION ( 'NONE',  ( 3.491481338843133355E-15, -1.224646799147353207E-16, 1.000000000000000000 ) ) ;
#145 = AXIS2_PLACEMENT_3D ( 'NONE', #6, #98, #216 ) ;
#146 = DIRECTION ( 'NONE',  ( -3.491481338843133355E-15, 1.224646799147353207E-16, -1.000000000000000000 ) ) ;
#147 = DIRECTION ( 'NONE',  ( 0.0000000000000000000, 1.000000000000000000, 0.0000000000000000000 ) ) ;
#148 = FACE_BOUND ( 'NONE', #82, .T. ) ;
#149 = DESIGN_CONTEXT ( 'detailed design', #129, 'design' ) ;
#150 = CARTESIAN_POINT ( 'NONE',  ( 7.905406781760937708E-14, 1.499999999999994005, 22.64198491858562790 ) ) ;
#151 = DIRECTION ( 'NONE',  ( 0.0000000000000000000, 1.000000000000000000, 0.0000000000000000000 ) ) ;
#152 = CYLINDRICAL_SURFACE ( 'NONE', #145, 1.064999999999999281 ) ;
#153 = AXIS2_PLACEMENT_3D ( 'NONE', #128, #101, #218 ) ;
#154 = VERTEX_POINT ( 'NONE', #244 ) ;
#155 = MECHANICAL_CONTEXT ( 'NONE', #165, 'mechanical' ) ;
#156 = DATE_AND_TIME ( #272, #108 ) ;
#157 = ORIENTED_EDGE ( 'NONE', *, *, #132, .F. ) ;
#158 = DATE_AND_TIME ( #62, #76 ) ;
#159 = AXIS2_PLACEMENT_3D ( 'NONE', #196, #79, #97 ) ;
#160 = DIRECTION ( 'NONE',  ( -3.491481338843133355E-15, 1.224646799147353207E-16, -1.000000000000000000 ) ) ;
#161 = PRODUCT_DEFINITION ( 'UNKNOWN', '', #246, #149 ) ;
#162 = CARTESIAN_POINT ( 'NONE',  ( 3.491481338843133355E-14, -1.224646799147353256E-15, 10.00000000000000000 ) ) ;
#163 = ADVANCED_FACE ( 'NONE', ( #174 ), #51, .F. ) ;
#164 = CARTESIAN_POINT ( 'NONE',  ( 7.905406781760937708E-14, -2.772843435688853539E-15, 22.64198491858562790 ) ) ;
#165 = APPLICATION_CONTEXT ( 'configuration controlled 3d designs of mechanical parts and assemblies' ) ;
#166 = ORIENTED_EDGE ( 'NONE', *, *, #132, .T. ) ;
#167 = ORIENTED_EDGE ( 'NONE', *, *, #217, .T. ) ;
#168 = FACE_OUTER_BOUND ( 'NONE', #228, .T. ) ;
#169 = CIRCLE ( 'NONE', #36, 1.214999999999998748 ) ;
#170 = CYLINDRICAL_SURFACE ( 'NONE', #84, 1.214999999999999414 ) ;
#171 = FACE_OUTER_BOUND ( 'NONE', #138, .T. ) ;
#172 = ADVANCED_FACE ( 'NONE', ( #54, #267 ), #100, .F. ) ;
#173 = FACE_OUTER_BOUND ( 'NONE', #117, .T. ) ;
#174 = FACE_OUTER_BOUND ( 'NONE', #208, .T. ) ;
#175 = CONICAL_SURFACE ( 'NONE', #214, 1.064999999999998836, 0.5235987755982911551 ) ;
#176 = APPROVAL_STATUS ( 'not_yet_approved' ) ;
#177 = EDGE_LOOP ( 'NONE', ( #66 ) ) ;
#178 = COORDINATED_UNIVERSAL_TIME_OFFSET ( 1, 0, .AHEAD. ) ;
#179 = PERSON_AND_ORGANIZATION ( #283, #229 ) ;
#180 = CIRCLE ( 'NONE', #202, 1.064999999999998836 ) ;
#181 = CC_DESIGN_APPROVAL ( #249, ( #246 ) ) ;
#182 = PERSON_AND_ORGANIZATION_ROLE ( 'creator' ) ;
#183 = EDGE_LOOP ( 'NONE', ( #93 ) ) ;
#184 = APPLICATION_PROTOCOL_DEFINITION ( 'international standard', 'config_control_design', 1994, #165 ) ;
#185 = ADVANCED_FACE ( 'NONE', ( #32, #52 ), #133, .T. ) ;
#186 = ORIENTED_EDGE ( 'NONE', *, *, #118, .F. ) ;
#187 = CARTESIAN_POINT ( 'NONE',  ( 3.491481338843133355E-14, 9.111040679670767999E-33, 10.00000000000000000 ) ) ;
#188 = DIRECTION ( 'NONE',  ( 3.491481338843133355E-15, -1.224646799147353207E-16, 1.000000000000000000 ) ) ;
#189 = ORIENTED_EDGE ( 'NONE', *, *, #72, .T. ) ;
#190 = CONICAL_SURFACE ( 'NONE', #237, 1.499999999999996669, 0.1745329251994262865 ) ;
#191 = PLANE ( 'NONE',  #89 ) ;
#192 = CC_DESIGN_PERSON_AND_ORGANIZATION_ASSIGNMENT ( #273, #182, ( #161 ) ) ;
#193 = DIRECTION ( 'NONE',  ( -4.275831445896958607E-31, -1.000000000000000000, -1.224646799147353207E-16 ) ) ;
#194 = MANIFOLD_SOLID_BREP ( 'Corps-Déplacer/Copier1[1]', #213 ) ;
#195 = ADVANCED_FACE ( 'NONE', ( #125 ), #243, .T. ) ;
#196 = CARTESIAN_POINT ( 'NONE',  ( -4.181721875228305412E-31, 1.466750588768619183E-32, -1.197692746831027454E-16 ) ) ;
#197 = CIRCLE ( 'NONE', #153, 1.070662432702594202 ) ;
#198 = EDGE_CURVE ( 'NONE', #247, #247, #53, .T. ) ;
#199 = CARTESIAN_POINT ( 'NONE',  ( 3.491481338843133355E-14, 9.111040679670767999E-33, 10.00000000000000000 ) ) ;
#200 = CARTESIAN_POINT ( 'NONE',  ( 3.582192684931459747E-14, 1.064999999999997504, 10.25980762113533906 ) ) ;
#201 = CARTESIAN_POINT ( 'NONE',  ( 6.982962677686266711E-14, 1.064999999999997282, 20.00000000000000000 ) ) ;
#202 = AXIS2_PLACEMENT_3D ( 'NONE', #256, #122, #284 ) ;
#203 =( NAMED_UNIT ( * ) SI_UNIT ( $, .STERADIAN. ) SOLID_ANGLE_UNIT ( ) );
#204 = COORDINATED_UNIVERSAL_TIME_OFFSET ( 1, 0, .AHEAD. ) ;
#205 = APPROVAL_STATUS ( 'not_yet_approved' ) ;
#206 = ORIENTED_EDGE ( 'NONE', *, *, #118, .T. ) ;
#207 = DIRECTION ( 'NONE',  ( 4.275831445896958607E-31, 1.000000000000000000, 1.224646799147353207E-16 ) ) ;
#208 = EDGE_LOOP ( 'NONE', ( #166 ) ) ;
#209 = CIRCLE ( 'NONE', #264, 1.215000000000000080 ) ;
#210 = FACE_BOUND ( 'NONE', #233, .T. ) ;
#211 = DIRECTION ( 'NONE',  ( -3.491481338843133355E-15, 1.224646799147353207E-16, -1.000000000000000000 ) ) ;
#212 = DIRECTION ( 'NONE',  ( 4.755382578733920931E-31, 1.000000000000000000, 1.338521200599389666E-16 ) ) ;
#213 = CLOSED_SHELL ( 'NONE', ( #10, #255, #140, #172, #106, #104, #88, #77 ) ) ;
#214 = AXIS2_PLACEMENT_3D ( 'NONE', #221, #48, #11 ) ;
#215 = VERTEX_POINT ( 'NONE', #238 ) ;
#216 = DIRECTION ( 'NONE',  ( 4.275831445896958607E-31, 1.000000000000000000, 1.224646799147353207E-16 ) ) ;
#217 = EDGE_CURVE ( 'NONE', #245, #245, #59, .T. ) ;
#218 = DIRECTION ( 'NONE',  ( 4.275831445896958607E-31, 1.000000000000000000, 1.224646799147353207E-16 ) ) ;
#219 = CIRCLE ( 'NONE', #242, 1.064999999999999725 ) ;
#220 = CARTESIAN_POINT ( 'NONE',  ( 6.982962677686266711E-14, -2.602085213965210642E-15, 20.00000000000000000 ) ) ;
#221 = CARTESIAN_POINT ( 'NONE',  ( 3.582192684931459747E-14, -1.256464056309101231E-15, 10.25980762113533906 ) ) ;
#222 = APPROVAL_STATUS ( 'not_yet_approved' ) ;
#223 = CC_DESIGN_SECURITY_CLASSIFICATION ( #124, ( #246 ) ) ;
#224 = DATE_AND_TIME ( #38, #120 ) ;
#225 = CC_DESIGN_PERSON_AND_ORGANIZATION_ASSIGNMENT ( #131, #299, ( #44 ) ) ;
#226 = PERSON_AND_ORGANIZATION ( #283, #229 ) ;
#227 = EDGE_LOOP ( 'NONE', ( #248 ) ) ;
#228 = EDGE_LOOP ( 'NONE', ( #24 ) ) ;
#229 = ORGANIZATION ( 'UNSPECIFIED', 'UNSPECIFIED', '' ) ;
#230 = CARTESIAN_POINT ( 'NONE',  ( 1.745740669421566678E-13, -6.123233995736766085E-15, 50.00000000000000000 ) ) ;
#231 = CARTESIAN_POINT ( 'NONE',  ( 0.0000000000000000000, 0.0000000000000000000, 0.0000000000000000000 ) ) ;
#232 = AXIS2_PLACEMENT_3D ( 'NONE', #127, #287, #151 ) ;
#233 = EDGE_LOOP ( 'NONE', ( #270 ) ) ;
#234 = ORIENTED_EDGE ( 'NONE', *, *, #50, .T. ) ;
#235 = CARTESIAN_POINT ( 'NONE',  ( 1.745740669421566678E-13, -6.123233995736766085E-15, 50.00000000000000000 ) ) ;
#236 =( GEOMETRIC_REPRESENTATION_CONTEXT ( 3 ) GLOBAL_UNCERTAINTY_ASSIGNED_CONTEXT ( ( #262 ) ) GLOBAL_UNIT_ASSIGNED_CONTEXT ( ( #86, #296, #203 ) ) REPRESENTATION_CONTEXT ( 'NONE', 'WORKASPACE' ) );
#237 = AXIS2_PLACEMENT_3D ( 'NONE', #91, #188, #280 ) ;
#238 = CARTESIAN_POINT ( 'NONE',  ( 3.491481338843133355E-14, 1.214999999999998748, 10.00000000000000000 ) ) ;
#239 = CC_DESIGN_PERSON_AND_ORGANIZATION_ASSIGNMENT ( #19, #56, ( #246 ) ) ;
#240 = DIRECTION ( 'NONE',  ( 3.491481338843133355E-15, -1.224646799147353207E-16, 1.000000000000000000 ) ) ;
#241 = FACE_BOUND ( 'NONE', #293, .T. ) ;
#242 = AXIS2_PLACEMENT_3D ( 'NONE', #69, #41, #119 ) ;
#243 = PLANE ( 'NONE',  #291 ) ;
#244 = CARTESIAN_POINT ( 'NONE',  ( 3.491481338843133355E-14, 1.214999999999998748, 10.00000000000000000 ) ) ;
#245 = VERTEX_POINT ( 'NONE', #22 ) ;
#246 = PRODUCT_DEFINITION_FORMATION_WITH_SPECIFIED_SOURCE ( 'ANY', '', #44, .NOT_KNOWN. ) ;
#247 = VERTEX_POINT ( 'NONE', #83 ) ;
#248 = ORIENTED_EDGE ( 'NONE', *, *, #16, .F. ) ;
#249 = APPROVAL ( #176, 'UNSPECIFIED' ) ;
#250 = PERSON_AND_ORGANIZATION ( #283, #229 ) ;
#251 = EDGE_LOOP ( 'NONE', ( #167 ) ) ;
#252 = APPROVAL_ROLE ( '' ) ;
#253 = APPROVAL_DATE_TIME ( #65, #92 ) ;
#254 = AXIS2_PLACEMENT_3D ( 'NONE', #235, #26, #42 ) ;
#255 = ADVANCED_FACE ( 'NONE', ( #130, #241 ), #175, .T. ) ;
#256 = CARTESIAN_POINT ( 'NONE',  ( 3.582192684931459747E-14, -1.256464056309101231E-15, 10.25980762113533906 ) ) ;
#257 = CARTESIAN_POINT ( 'NONE',  ( 8.728703347107829444E-16, -3.061616997868381785E-17, 0.2499999999999998890 ) ) ;
#258 = EDGE_LOOP ( 'NONE', ( #206 ) ) ;
#259 = CONICAL_SURFACE ( 'NONE', #254, 1.200000000000001732, 0.7853981633974453924 ) ;
#260 = ORIENTED_EDGE ( 'NONE', *, *, #198, .T. ) ;
#261 = FACE_OUTER_BOUND ( 'NONE', #303, .T. ) ;
#262 = UNCERTAINTY_MEASURE_WITH_UNIT (LENGTH_MEASURE( 1.000000000000000082E-05 ), #86, 'distance_accuracy_value', 'NONE');
#263 = CARTESIAN_POINT ( 'NONE',  ( 8.728703347107835360E-16, 1.214999999999998748, 0.2500000000000000555 ) ) ;
#264 = AXIS2_PLACEMENT_3D ( 'NONE', #162, #142, #147 ) ;
#265 = FACE_OUTER_BOUND ( 'NONE', #227, .T. ) ;
#266 = DIRECTION ( 'NONE',  ( 4.275831445896958607E-31, 1.000000000000000000, 1.224646799147353207E-16 ) ) ;
#267 = FACE_OUTER_BOUND ( 'NONE', #274, .T. ) ;
#268 = CARTESIAN_POINT ( 'NONE',  ( 7.104220552055900573E-14, -2.491825135286219437E-15, 20.34729635533384240 ) ) ;
#269 = PERSON_AND_ORGANIZATION_ROLE ( 'creator' ) ;
#270 = ORIENTED_EDGE ( 'NONE', *, *, #198, .F. ) ;
#271 = AXIS2_PLACEMENT_3D ( 'NONE', #164, #43, #80 ) ;
#272 = CALENDAR_DATE ( 2021, 1, 12 ) ;
#273 = PERSON_AND_ORGANIZATION ( #283, #229 ) ;
#274 = EDGE_LOOP ( 'NONE', ( #260 ) ) ;
#275 = APPLICATION_PROTOCOL_DEFINITION ( 'international standard', 'config_control_design', 1994, #129 ) ;
#276 = CALENDAR_DATE ( 2021, 1, 12 ) ;
#277 = FACE_OUTER_BOUND ( 'NONE', #47, .T. ) ;
#278 = DIRECTION ( 'NONE',  ( 0.0000000000000000000, 1.000000000000000000, 0.0000000000000000000 ) ) ;
#279 = CC_DESIGN_PERSON_AND_ORGANIZATION_ASSIGNMENT ( #226, #269, ( #246 ) ) ;
#280 = DIRECTION ( 'NONE',  ( 0.0000000000000000000, -1.000000000000000000, 0.0000000000000000000 ) ) ;
#281 = FACE_OUTER_BOUND ( 'NONE', #183, .T. ) ;
#282 = AXIS2_PLACEMENT_3D ( 'NONE', #230, #211, #2 ) ;
#283 = PERSON ( 'UNSPECIFIED', 'UNSPECIFIED', 'UNSPECIFIED', ('UNSPECIFIED'), ('UNSPECIFIED'), ('UNSPECIFIED') ) ;
#284 = DIRECTION ( 'NONE',  ( 0.0000000000000000000, 1.000000000000000000, 0.0000000000000000000 ) ) ;
#285 = VERTEX_POINT ( 'NONE', #5 ) ;
#286 = DIRECTION ( 'NONE',  ( -4.755382578733920931E-31, -1.000000000000000000, -1.338521200599389666E-16 ) ) ;
#287 = DIRECTION ( 'NONE',  ( -3.491481338843133355E-15, 1.224646799147353207E-16, -1.000000000000000000 ) ) ;
#288 = DIRECTION ( 'NONE',  ( -3.491481338843133355E-15, 1.224646799147353207E-16, -1.000000000000000000 ) ) ;
#289 = CC_DESIGN_DATE_AND_TIME_ASSIGNMENT ( #81, #85, ( #161 ) ) ;
#290 = CARTESIAN_POINT ( 'NONE',  ( 0.0000000000000000000, 0.0000000000000000000, 0.0000000000000000000 ) ) ;
#291 = AXIS2_PLACEMENT_3D ( 'NONE', #199, #240, #193 ) ;
#292 = CALENDAR_DATE ( 2021, 1, 12 ) ;
#293 = EDGE_LOOP ( 'NONE', ( #39 ) ) ;
#294 = MANIFOLD_SOLID_BREP ( 'Corps-Déplacer/Copier1[2]', #301 ) ;
#295 = PERSON_AND_ORGANIZATION_ROLE ( 'classification_officer' ) ;
#296 =( NAMED_UNIT ( * ) PLANE_ANGLE_UNIT ( ) SI_UNIT ( $, .RADIAN. ) );
#297 = APPROVAL_PERSON_ORGANIZATION ( #250, #249, #60 ) ;
#298 = ORIENTED_EDGE ( 'NONE', *, *, #46, .T. ) ;
#299 = PERSON_AND_ORGANIZATION_ROLE ( 'design_owner' ) ;
#300 = FACE_OUTER_BOUND ( 'NONE', #251, .T. ) ;
#301 = CLOSED_SHELL ( 'NONE', ( #163, #185, #143, #195 ) ) ;
#302 = AXIS2_PLACEMENT_3D ( 'NONE', #268, #31, #78 ) ;
#303 = EDGE_LOOP ( 'NONE', ( #123 ) ) ;
ENDSEC;
END-ISO-10303-21;
