ISO-10303-21;
HEADER;
FILE_DESCRIPTION (( 'STEP AP203' ),
    '1' );
FILE_NAME ('327078.step',
    '2021-12-01T14:04:17',
    ( '' ),
    ( '' ),
    'SwSTEP 2.0',
    'SolidWorks 2019',
    '' );
FILE_SCHEMA (( 'CONFIG_CONTROL_DESIGN' ));
ENDSEC;

DATA;
#1 = APPROVAL_STATUS ( 'not_yet_approved' ) ;
#2 = EDGE_LOOP ( 'NONE', ( #263 ) ) ;
#3 = AXIS2_PLACEMENT_3D ( 'NONE', #243, #109, #251 ) ;
#4 = EDGE_CURVE ( 'NONE', #13, #13, #279, .T. ) ;
#5 = DIRECTION ( 'NONE',  ( 0.0000000000000000000, 1.000000000000000000, 0.0000000000000000000 ) ) ;
#6 = FACE_OUTER_BOUND ( 'NONE', #282, .T. ) ;
#7 = AXIS2_PLACEMENT_3D ( 'NONE', #76, #151, #285 ) ;
#8 = PLANE ( 'NONE',  #186 ) ;
#9 = ORIENTED_EDGE ( 'NONE', *, *, #107, .F. ) ;
#10 = DIRECTION ( 'NONE',  ( -3.491481338843133355E-15, 1.224646799147353207E-16, -1.000000000000000000 ) ) ;
#11 = CARTESIAN_POINT ( 'NONE',  ( 7.104220552055901835E-14, 1.090384493975578462, 20.34729635533384595 ) ) ;
#12 = PRODUCT_DEFINITION ( 'UNKNOWN', '', #210, #26 ) ;
#13 = VERTEX_POINT ( 'NONE', #11 ) ;
#14 = DIRECTION ( 'NONE',  ( 4.275831445896959482E-31, 1.000000000000000000, 1.224646799147352961E-16 ) ) ;
#15 = AXIS2_PLACEMENT_3D ( 'NONE', #65, #118, #185 ) ;
#16 = ORGANIZATION ( 'UNSPECIFIED', 'UNSPECIFIED', '' ) ;
#17 = APPROVAL ( #266, 'UNSPECIFIED' ) ;
#18 = DIRECTION ( 'NONE',  ( -3.491481338843133355E-15, 1.224646799147353207E-16, -1.000000000000000000 ) ) ;
#19 = PERSON_AND_ORGANIZATION_ROLE ( 'creator' ) ;
#20 = CC_DESIGN_PERSON_AND_ORGANIZATION_ASSIGNMENT ( #165, #67, ( #12 ) ) ;
#21 = AXIS2_PLACEMENT_3D ( 'NONE', #277, #56, #41 ) ;
#22 = CARTESIAN_POINT ( 'NONE',  ( 7.915307369081196141E-14, 1.499999999999994005, 22.67034132768371535 ) ) ;
#23 = CARTESIAN_POINT ( 'NONE',  ( 3.491481338843133355E-14, 1.209999999999998632, 10.00000000000000000 ) ) ;
#24 = CIRCLE ( 'NONE', #7, 1.209999999999998632 ) ;
#25 = DATE_AND_TIME ( #261, #117 ) ;
#26 = DESIGN_CONTEXT ( 'detailed design', #39, 'design' ) ;
#27 = DIRECTION ( 'NONE',  ( 0.0000000000000000000, 1.000000000000000000, 0.0000000000000000000 ) ) ;
#28 = DIRECTION ( 'NONE',  ( 0.0000000000000000000, 1.000000000000000000, 0.0000000000000000000 ) ) ;
#29 = EDGE_LOOP ( 'NONE', ( #127 ) ) ;
#30 = CLOSED_SHELL ( 'NONE', ( #294, #262, #240, #202 ) ) ;
#31 = EDGE_LOOP ( 'NONE', ( #219 ) ) ;
#32 = FACE_OUTER_BOUND ( 'NONE', #45, .T. ) ;
#33 = CC_DESIGN_DATE_AND_TIME_ASSIGNMENT ( #220, #99, ( #205 ) ) ;
#34 = DIRECTION ( 'NONE',  ( -4.775032919968358812E-31, -1.000000000000000000, -1.344052279940709512E-16 ) ) ;
#35 = AXIS2_PLACEMENT_3D ( 'NONE', #222, #10, #5 ) ;
#36 = CARTESIAN_POINT ( 'NONE',  ( 7.915307369081196141E-14, -2.776316094252581933E-15, 22.67034132768371535 ) ) ;
#37 = DIRECTION ( 'NONE',  ( 0.0000000000000000000, 1.000000000000000000, 0.0000000000000000000 ) ) ;
#38 = CARTESIAN_POINT ( 'NONE',  ( 1.745740669421566678E-13, -6.123233995736766085E-15, 50.00000000000000000 ) ) ;
#39 = APPLICATION_CONTEXT ( 'configuration controlled 3d designs of mechanical parts and assemblies' ) ;
#40 = AXIS2_PLACEMENT_3D ( 'NONE', #55, #170, #27 ) ;
#41 = DIRECTION ( 'NONE',  ( 0.0000000000000000000, 1.000000000000000000, 0.0000000000000000000 ) ) ;
#42 = APPLICATION_PROTOCOL_DEFINITION ( 'international standard', 'config_control_design', 1994, #71 ) ;
#43 = EDGE_LOOP ( 'NONE', ( #66 ) ) ;
#44 = VERTEX_POINT ( 'NONE', #283 ) ;
#45 = EDGE_LOOP ( 'NONE', ( #272 ) ) ;
#46 = TOROIDAL_SURFACE ( 'NONE', #68, 3.060000000000000053, 2.000000000000000444 ) ;
#47 = CC_DESIGN_APPROVAL ( #17, ( #205 ) ) ;
#48 = PERSON_AND_ORGANIZATION ( #227, #16 ) ;
#49 = AXIS2_PLACEMENT_3D ( 'NONE', #298, #157, #37 ) ;
#50 = FACE_OUTER_BOUND ( 'NONE', #43, .T. ) ;
#51 = ORIENTED_EDGE ( 'NONE', *, *, #100, .T. ) ;
#52 = PLANE ( 'NONE',  #3 ) ;
#53 = DIRECTION ( 'NONE',  ( 4.275831445896958607E-31, 1.000000000000000000, 1.224646799147352961E-16 ) ) ;
#54 = CIRCLE ( 'NONE', #134, 1.209999999999999964 ) ;
#55 = CARTESIAN_POINT ( 'NONE',  ( 7.104220552055901835E-14, -2.491825135286219831E-15, 20.34729635533384595 ) ) ;
#56 = DIRECTION ( 'NONE',  ( -3.491481338843133355E-15, 1.224646799147353207E-16, -1.000000000000000000 ) ) ;
#57 = DIRECTION ( 'NONE',  ( -3.491481338843133355E-15, 1.224646799147353207E-16, -1.000000000000000000 ) ) ;
#58 = CONICAL_SURFACE ( 'NONE', #21, 1.059999999999998943, 0.5235987755982906000 ) ;
#59 = DIRECTION ( 'NONE',  ( -3.491481338843133355E-15, 1.224646799147353207E-16, -1.000000000000000000 ) ) ;
#60 = CARTESIAN_POINT ( 'NONE',  ( 0.0000000000000000000, 0.0000000000000000000, 0.0000000000000000000 ) ) ;
#61 = DIRECTION ( 'NONE',  ( -4.275831445896958607E-31, -1.000000000000000000, -1.224646799147353207E-16 ) ) ;
#62 = AXIS2_PLACEMENT_3D ( 'NONE', #267, #124, #102 ) ;
#63 = ADVANCED_FACE ( 'NONE', ( #247 ), #8, .F. ) ;
#64 = PERSON_AND_ORGANIZATION ( #227, #16 ) ;
#65 = CARTESIAN_POINT ( 'NONE',  ( 0.0000000000000000000, 0.0000000000000000000, 0.0000000000000000000 ) ) ;
#66 = ORIENTED_EDGE ( 'NONE', *, *, #137, .T. ) ;
#67 = PERSON_AND_ORGANIZATION_ROLE ( 'creator' ) ;
#68 = AXIS2_PLACEMENT_3D ( 'NONE', #296, #59, #293 ) ;
#69 = VERTEX_POINT ( 'NONE', #23 ) ;
#70 = COORDINATED_UNIVERSAL_TIME_OFFSET ( 1, 0, .AHEAD. ) ;
#71 = APPLICATION_CONTEXT ( 'configuration controlled 3d designs of mechanical parts and assemblies' ) ;
#72 = ORIENTED_EDGE ( 'NONE', *, *, #257, .T. ) ;
#73 = COORDINATED_UNIVERSAL_TIME_OFFSET ( 1, 0, .AHEAD. ) ;
#74 = EDGE_LOOP ( 'NONE', ( #139 ) ) ;
#75 = CARTESIAN_POINT ( 'NONE',  ( 6.982962677686266711E-14, -2.449293598294706513E-15, 20.00000000000000000 ) ) ;
#76 = CARTESIAN_POINT ( 'NONE',  ( 8.728703347107829444E-16, -3.061616997868381785E-17, 0.2499999999999998890 ) ) ;
#77 = ORIENTED_EDGE ( 'NONE', *, *, #144, .T. ) ;
#78 = CYLINDRICAL_SURFACE ( 'NONE', #171, 1.059999999999999387 ) ;
#79 = CC_DESIGN_PERSON_AND_ORGANIZATION_ASSIGNMENT ( #301, #120, ( #161 ) ) ;
#80 = FACE_OUTER_BOUND ( 'NONE', #289, .T. ) ;
#81 = FACE_BOUND ( 'NONE', #183, .T. ) ;
#82 = CC_DESIGN_PERSON_AND_ORGANIZATION_ASSIGNMENT ( #115, #209, ( #210 ) ) ;
#83 = FACE_OUTER_BOUND ( 'NONE', #199, .T. ) ;
#84 =( GEOMETRIC_REPRESENTATION_CONTEXT ( 3 ) GLOBAL_UNCERTAINTY_ASSIGNED_CONTEXT ( ( #98 ) ) GLOBAL_UNIT_ASSIGNED_CONTEXT ( ( #211, #256, #207 ) ) REPRESENTATION_CONTEXT ( 'NONE', 'WORKASPACE' ) );
#85 = DIRECTION ( 'NONE',  ( 0.0000000000000000000, 1.000000000000000000, 0.0000000000000000000 ) ) ;
#86 = DIRECTION ( 'NONE',  ( 3.491481338843133355E-15, -1.224646799147353207E-16, 1.000000000000000000 ) ) ;
#87 = COORDINATED_UNIVERSAL_TIME_OFFSET ( 1, 0, .AHEAD. ) ;
#88 = CC_DESIGN_PERSON_AND_ORGANIZATION_ASSIGNMENT ( #48, #233, ( #205 ) ) ;
#89 = ADVANCED_BREP_SHAPE_REPRESENTATION ( '327078', ( #299, #94, #15 ), #84 ) ;
#90 = PERSON_AND_ORGANIZATION ( #227, #16 ) ;
#91 = EDGE_LOOP ( 'NONE', ( #150 ) ) ;
#92 = EDGE_CURVE ( 'NONE', #200, #200, #231, .T. ) ;
#93 = APPROVAL_ROLE ( '' ) ;
#94 = MANIFOLD_SOLID_BREP ( 'Corps-Déplacer/Copier1[2]', #30 ) ;
#95 = EDGE_LOOP ( 'NONE', ( #166 ) ) ;
#96 = ADVANCED_FACE ( 'NONE', ( #32, #50 ), #78, .T. ) ;
#97 = VERTEX_POINT ( 'NONE', #235 ) ;
#98 = UNCERTAINTY_MEASURE_WITH_UNIT (LENGTH_MEASURE( 1.000000000000000082E-05 ), #211, 'distance_accuracy_value', 'NONE');
#99 = DATE_TIME_ROLE ( 'classification_date' ) ;
#100 = EDGE_CURVE ( 'NONE', #295, #295, #24, .T. ) ;
#101 = DIRECTION ( 'NONE',  ( -3.491481338843133355E-15, 1.224646799147353207E-16, -1.000000000000000000 ) ) ;
#102 = DIRECTION ( 'NONE',  ( 0.0000000000000000000, 1.000000000000000000, 0.0000000000000000000 ) ) ;
#103 = CARTESIAN_POINT ( 'NONE',  ( 3.491481338843133355E-14, -1.224646799147353256E-15, 10.00000000000000000 ) ) ;
#104 = ORIENTED_EDGE ( 'NONE', *, *, #144, .F. ) ;
#105 = EDGE_LOOP ( 'NONE', ( #126 ) ) ;
#106 = LOCAL_TIME ( 15, 4, 17.00000000000000000, #184 ) ;
#107 = EDGE_CURVE ( 'NONE', #156, #156, #54, .T. ) ;
#108 = FACE_OUTER_BOUND ( 'NONE', #234, .T. ) ;
#109 = DIRECTION ( 'NONE',  ( 3.491481338843133355E-15, -1.224646799147353207E-16, 1.000000000000000000 ) ) ;
#110 = CARTESIAN_POINT ( 'NONE',  ( 3.582192684931459747E-14, 1.059999999999997611, 10.25980762113533906 ) ) ;
#111 = PLANE ( 'NONE',  #140 ) ;
#112 = CYLINDRICAL_SURFACE ( 'NONE', #260, 1.209999999999999298 ) ;
#113 = CC_DESIGN_PERSON_AND_ORGANIZATION_ASSIGNMENT ( #90, #19, ( #210 ) ) ;
#114 = ADVANCED_FACE ( 'NONE', ( #172, #147 ), #302, .T. ) ;
#115 = PERSON_AND_ORGANIZATION ( #227, #16 ) ;
#116 = CIRCLE ( 'NONE', #223, 1.499999999999996669 ) ;
#117 = LOCAL_TIME ( 15, 4, 17.00000000000000000, #70 ) ;
#118 = DIRECTION ( 'NONE',  ( 0.0000000000000000000, 0.0000000000000000000, 1.000000000000000000 ) ) ;
#119 = ORIENTED_EDGE ( 'NONE', *, *, #128, .T. ) ;
#120 = PERSON_AND_ORGANIZATION_ROLE ( 'design_owner' ) ;
#121 = APPROVAL_PERSON_ORGANIZATION ( #169, #17, #290 ) ;
#122 = APPROVAL_DATE_TIME ( #287, #17 ) ;
#123 = CARTESIAN_POINT ( 'NONE',  ( 1.745740669421566678E-13, 8.998558695971067645E-33, 50.00000000000000000 ) ) ;
#124 = DIRECTION ( 'NONE',  ( -3.491481338843133355E-15, 1.224646799147353207E-16, -1.000000000000000000 ) ) ;
#125 = AXIS2_PLACEMENT_3D ( 'NONE', #168, #194, #216 ) ;
#126 = ORIENTED_EDGE ( 'NONE', *, *, #4, .F. ) ;
#127 = ORIENTED_EDGE ( 'NONE', *, *, #92, .F. ) ;
#128 = EDGE_CURVE ( 'NONE', #226, #226, #291, .T. ) ;
#129 = DIRECTION ( 'NONE',  ( 0.0000000000000000000, -1.000000000000000000, 0.0000000000000000000 ) ) ;
#130 = CARTESIAN_POINT ( 'NONE',  ( -4.171032296613563055E-31, 1.463001189311964238E-32, -1.194631129833159017E-16 ) ) ;
#131 = DIRECTION ( 'NONE',  ( 3.491481338843133355E-15, -1.224646799147353207E-16, 1.000000000000000000 ) ) ;
#132 = CARTESIAN_POINT ( 'NONE',  ( 3.491481338843133355E-14, 1.209999999999998632, 10.00000000000000000 ) ) ;
#133 = FACE_BOUND ( 'NONE', #29, .T. ) ;
#134 = AXIS2_PLACEMENT_3D ( 'NONE', #103, #218, #268 ) ;
#135 = FACE_OUTER_BOUND ( 'NONE', #31, .T. ) ;
#136 = CALENDAR_DATE ( 2021, 1, 12 ) ;
#137 = EDGE_CURVE ( 'NONE', #187, #187, #284, .T. ) ;
#138 = MECHANICAL_CONTEXT ( 'NONE', #71, 'mechanical' ) ;
#139 = ORIENTED_EDGE ( 'NONE', *, *, #213, .T. ) ;
#140 = AXIS2_PLACEMENT_3D ( 'NONE', #130, #225, #228 ) ;
#141 = APPROVAL_DATE_TIME ( #230, #158 ) ;
#142 = EDGE_LOOP ( 'NONE', ( #221 ) ) ;
#143 = DATE_TIME_ROLE ( 'creation_date' ) ;
#144 = EDGE_CURVE ( 'NONE', #69, #69, #149, .T. ) ;
#145 = ORIENTED_EDGE ( 'NONE', *, *, #92, .T. ) ;
#146 = CARTESIAN_POINT ( 'NONE',  ( 0.0000000000000000000, 0.0000000000000000000, 0.0000000000000000000 ) ) ;
#147 = FACE_OUTER_BOUND ( 'NONE', #162, .T. ) ;
#148 = APPROVAL ( #163, 'UNSPECIFIED' ) ;
#149 = CIRCLE ( 'NONE', #62, 1.209999999999999964 ) ;
#150 = ORIENTED_EDGE ( 'NONE', *, *, #4, .T. ) ;
#151 = DIRECTION ( 'NONE',  ( -3.491481338843133355E-15, 1.224646799147353207E-16, -1.000000000000000000 ) ) ;
#152 = ADVANCED_FACE ( 'NONE', ( #6 ), #52, .F. ) ;
#153 = FACE_OUTER_BOUND ( 'NONE', #196, .T. ) ;
#154 = AXIS2_PLACEMENT_3D ( 'NONE', #38, #159, #253 ) ;
#155 = DIRECTION ( 'NONE',  ( -3.491481338843133355E-15, 1.224646799147353207E-16, -1.000000000000000000 ) ) ;
#156 = VERTEX_POINT ( 'NONE', #132 ) ;
#157 = DIRECTION ( 'NONE',  ( -3.491481338843133355E-15, 1.224646799147353207E-16, -1.000000000000000000 ) ) ;
#158 = APPROVAL ( #1, 'UNSPECIFIED' ) ;
#159 = DIRECTION ( 'NONE',  ( -3.491481338843133355E-15, 1.224646799147353207E-16, -1.000000000000000000 ) ) ;
#160 = CARTESIAN_POINT ( 'NONE',  ( 6.982962677686266711E-14, 1.059999999999997611, 20.00000000000000000 ) ) ;
#161 = PRODUCT ( '327078', '327078', '', ( #138 ) ) ;
#162 = EDGE_LOOP ( 'NONE', ( #72 ) ) ;
#163 = APPROVAL_STATUS ( 'not_yet_approved' ) ;
#164 = VERTEX_POINT ( 'NONE', #22 ) ;
#165 = PERSON_AND_ORGANIZATION ( #227, #16 ) ;
#166 = ORIENTED_EDGE ( 'NONE', *, *, #257, .F. ) ;
#167 = DIRECTION ( 'NONE',  ( -3.491481338843133355E-15, 1.224646799147353207E-16, -1.000000000000000000 ) ) ;
#168 = CARTESIAN_POINT ( 'NONE',  ( -8.342064593227126110E-31, 2.926002378623928475E-32, -2.389262259666318033E-16 ) ) ;
#169 = PERSON_AND_ORGANIZATION ( #227, #16 ) ;
#170 = DIRECTION ( 'NONE',  ( -3.491481338843133355E-15, 1.224646799147353207E-16, -1.000000000000000000 ) ) ;
#171 = AXIS2_PLACEMENT_3D ( 'NONE', #146, #288, #53 ) ;
#172 = FACE_BOUND ( 'NONE', #105, .T. ) ;
#173 = CARTESIAN_POINT ( 'NONE',  ( 1.745740669421566678E-13, -6.123233995736766085E-15, 50.00000000000000000 ) ) ;
#174 = CARTESIAN_POINT ( 'NONE',  ( 3.491481338843133355E-14, 9.073546685104218548E-33, 10.00000000000000000 ) ) ;
#175 = DIRECTION ( 'NONE',  ( -3.491481338843133355E-15, 1.224646799147353207E-16, -1.000000000000000000 ) ) ;
#176 = FACE_OUTER_BOUND ( 'NONE', #195, .T. ) ;
#177 = FACE_OUTER_BOUND ( 'NONE', #241, .T. ) ;
#178 = ADVANCED_FACE ( 'NONE', ( #274, #206 ), #215, .T. ) ;
#179 = CALENDAR_DATE ( 2021, 1, 12 ) ;
#180 = CIRCLE ( 'NONE', #154, 1.200000000000001732 ) ;
#181 = CC_DESIGN_SECURITY_CLASSIFICATION ( #205, ( #210 ) ) ;
#182 = SECURITY_CLASSIFICATION_LEVEL ( 'unclassified' ) ;
#183 = EDGE_LOOP ( 'NONE', ( #119 ) ) ;
#184 = COORDINATED_UNIVERSAL_TIME_OFFSET ( 1, 0, .AHEAD. ) ;
#185 = DIRECTION ( 'NONE',  ( 1.000000000000000000, 0.0000000000000000000, 0.0000000000000000000 ) ) ;
#186 = AXIS2_PLACEMENT_3D ( 'NONE', #123, #101, #242 ) ;
#187 = VERTEX_POINT ( 'NONE', #160 ) ;
#188 = PRODUCT_RELATED_PRODUCT_CATEGORY ( 'detail', '', ( #161 ) ) ;
#189 = ORIENTED_EDGE ( 'NONE', *, *, #107, .T. ) ;
#190 = CALENDAR_DATE ( 2021, 1, 12 ) ;
#191 = CARTESIAN_POINT ( 'NONE',  ( 7.915307369081196141E-14, -2.776316094252581933E-15, 22.67034132768371535 ) ) ;
#192 = AXIS2_PLACEMENT_3D ( 'NONE', #173, #155, #85 ) ;
#193 = ADVANCED_FACE ( 'NONE', ( #229, #177 ), #224, .T. ) ;
#194 = DIRECTION ( 'NONE',  ( -3.491481338843133355E-15, 1.224646799147353207E-16, -1.000000000000000000 ) ) ;
#195 = EDGE_LOOP ( 'NONE', ( #145 ) ) ;
#196 = EDGE_LOOP ( 'NONE', ( #51 ) ) ;
#197 = AXIS2_PLACEMENT_3D ( 'NONE', #191, #269, #129 ) ;
#198 = CIRCLE ( 'NONE', #49, 1.500000000000001554 ) ;
#199 = EDGE_LOOP ( 'NONE', ( #9 ) ) ;
#200 = VERTEX_POINT ( 'NONE', #276 ) ;
#201 = DIRECTION ( 'NONE',  ( 4.275831445896958607E-31, 1.000000000000000000, 1.224646799147353454E-16 ) ) ;
#202 = ADVANCED_FACE ( 'NONE', ( #108 ), #248, .T. ) ;
#203 = AXIS2_PLACEMENT_3D ( 'NONE', #75, #167, #28 ) ;
#204 = CARTESIAN_POINT ( 'NONE',  ( 8.728703347107835360E-16, 1.209999999999998632, 0.2500000000000000555 ) ) ;
#205 = SECURITY_CLASSIFICATION ( '', '', #182 ) ;
#206 = FACE_BOUND ( 'NONE', #74, .T. ) ;
#207 =( NAMED_UNIT ( * ) SI_UNIT ( $, .STERADIAN. ) SOLID_ANGLE_UNIT ( ) );
#208 = ADVANCED_FACE ( 'NONE', ( #278, #250 ), #46, .F. ) ;
#209 = PERSON_AND_ORGANIZATION_ROLE ( 'design_supplier' ) ;
#210 = PRODUCT_DEFINITION_FORMATION_WITH_SPECIFIED_SOURCE ( 'ANY', '', #161, .NOT_KNOWN. ) ;
#211 =( LENGTH_UNIT ( ) NAMED_UNIT ( * ) SI_UNIT ( .MILLI., .METRE. ) );
#212 = ORIENTED_EDGE ( 'NONE', *, *, #255, .F. ) ;
#213 = EDGE_CURVE ( 'NONE', #97, #97, #180, .T. ) ;
#214 = APPLICATION_PROTOCOL_DEFINITION ( 'international standard', 'config_control_design', 1994, #39 ) ;
#215 = CONICAL_SURFACE ( 'NONE', #192, 1.200000000000001732, 0.7853981633974453924 ) ;
#216 = DIRECTION ( 'NONE',  ( 4.275831445896958607E-31, 1.000000000000000000, 1.224646799147353207E-16 ) ) ;
#217 = ADVANCED_FACE ( 'NONE', ( #83, #81 ), #58, .T. ) ;
#218 = DIRECTION ( 'NONE',  ( -3.491481338843133355E-15, 1.224646799147353207E-16, -1.000000000000000000 ) ) ;
#219 = ORIENTED_EDGE ( 'NONE', *, *, #100, .F. ) ;
#220 = DATE_AND_TIME ( #239, #292 ) ;
#221 = ORIENTED_EDGE ( 'NONE', *, *, #213, .F. ) ;
#222 = CARTESIAN_POINT ( 'NONE',  ( 3.582192684931459747E-14, -1.256464056309101231E-15, 10.25980762113533906 ) ) ;
#223 = AXIS2_PLACEMENT_3D ( 'NONE', #36, #175, #252 ) ;
#224 = CYLINDRICAL_SURFACE ( 'NONE', #237, 1.499999999999999112 ) ;
#225 = DIRECTION ( 'NONE',  ( 3.491481338843133355E-15, -1.224646799147353207E-16, 1.000000000000000000 ) ) ;
#226 = VERTEX_POINT ( 'NONE', #110 ) ;
#227 = PERSON ( 'UNSPECIFIED', 'UNSPECIFIED', 'UNSPECIFIED', ('UNSPECIFIED'), ('UNSPECIFIED'), ('UNSPECIFIED') ) ;
#228 = DIRECTION ( 'NONE',  ( -4.275831445896958607E-31, -1.000000000000000000, -1.224646799147353207E-16 ) ) ;
#229 = FACE_OUTER_BOUND ( 'NONE', #95, .T. ) ;
#230 = DATE_AND_TIME ( #136, #106 ) ;
#231 = CIRCLE ( 'NONE', #125, 1.065662432702594309 ) ;
#232 = CC_DESIGN_APPROVAL ( #148, ( #210 ) ) ;
#233 = PERSON_AND_ORGANIZATION_ROLE ( 'classification_officer' ) ;
#234 = EDGE_LOOP ( 'NONE', ( #104 ) ) ;
#235 = CARTESIAN_POINT ( 'NONE',  ( 1.745740669421566678E-13, 1.199999999999995515, 50.00000000000000000 ) ) ;
#236 = APPROVAL_ROLE ( '' ) ;
#237 = AXIS2_PLACEMENT_3D ( 'NONE', #60, #57, #201 ) ;
#238 = APPROVAL_PERSON_ORGANIZATION ( #303, #148, #236 ) ;
#239 = CALENDAR_DATE ( 2021, 1, 12 ) ;
#240 = ADVANCED_FACE ( 'NONE', ( #135, #80 ), #112, .T. ) ;
#241 = EDGE_LOOP ( 'NONE', ( #246 ) ) ;
#242 = DIRECTION ( 'NONE',  ( 4.275831445896958607E-31, 1.000000000000000000, 1.224646799147353207E-16 ) ) ;
#243 = CARTESIAN_POINT ( 'NONE',  ( 3.491481338843133355E-14, 9.073546685104218548E-33, 10.00000000000000000 ) ) ;
#244 = CC_DESIGN_APPROVAL ( #158, ( #12 ) ) ;
#245 = SHAPE_DEFINITION_REPRESENTATION ( #254, #89 ) ;
#246 = ORIENTED_EDGE ( 'NONE', *, *, #255, .T. ) ;
#247 = FACE_OUTER_BOUND ( 'NONE', #142, .T. ) ;
#248 = PLANE ( 'NONE',  #264 ) ;
#249 = CLOSED_SHELL ( 'NONE', ( #152, #217, #96, #208, #114, #193, #178, #63 ) ) ;
#250 = FACE_OUTER_BOUND ( 'NONE', #91, .T. ) ;
#251 = DIRECTION ( 'NONE',  ( -4.275831445896958607E-31, -1.000000000000000000, -1.224646799147353207E-16 ) ) ;
#252 = DIRECTION ( 'NONE',  ( 0.0000000000000000000, 1.000000000000000000, 0.0000000000000000000 ) ) ;
#253 = DIRECTION ( 'NONE',  ( 0.0000000000000000000, 1.000000000000000000, 0.0000000000000000000 ) ) ;
#254 = PRODUCT_DEFINITION_SHAPE ( 'NONE', 'NONE',  #12 ) ;
#255 = EDGE_CURVE ( 'NONE', #44, #44, #198, .T. ) ;
#256 =( NAMED_UNIT ( * ) PLANE_ANGLE_UNIT ( ) SI_UNIT ( $, .RADIAN. ) );
#257 = EDGE_CURVE ( 'NONE', #164, #164, #116, .T. ) ;
#258 = EDGE_LOOP ( 'NONE', ( #212 ) ) ;
#259 = APPROVAL_DATE_TIME ( #281, #148 ) ;
#260 = AXIS2_PLACEMENT_3D ( 'NONE', #273, #18, #14 ) ;
#261 = CALENDAR_DATE ( 2021, 1, 12 ) ;
#262 = ADVANCED_FACE ( 'NONE', ( #133, #153 ), #275, .T. ) ;
#263 = ORIENTED_EDGE ( 'NONE', *, *, #137, .F. ) ;
#264 = AXIS2_PLACEMENT_3D ( 'NONE', #174, #86, #61 ) ;
#265 = CC_DESIGN_DATE_AND_TIME_ASSIGNMENT ( #25, #143, ( #12 ) ) ;
#266 = APPROVAL_STATUS ( 'not_yet_approved' ) ;
#267 = CARTESIAN_POINT ( 'NONE',  ( 3.491481338843133355E-14, -1.224646799147353256E-15, 10.00000000000000000 ) ) ;
#268 = DIRECTION ( 'NONE',  ( 0.0000000000000000000, 1.000000000000000000, 0.0000000000000000000 ) ) ;
#269 = DIRECTION ( 'NONE',  ( 3.491481338843133355E-15, -1.224646799147353207E-16, 1.000000000000000000 ) ) ;
#270 = APPROVAL_PERSON_ORGANIZATION ( #64, #158, #93 ) ;
#271 = COORDINATED_UNIVERSAL_TIME_OFFSET ( 1, 0, .AHEAD. ) ;
#272 = ORIENTED_EDGE ( 'NONE', *, *, #128, .F. ) ;
#273 = CARTESIAN_POINT ( 'NONE',  ( 0.0000000000000000000, 0.0000000000000000000, 0.0000000000000000000 ) ) ;
#274 = FACE_OUTER_BOUND ( 'NONE', #258, .T. ) ;
#275 = CONICAL_SURFACE ( 'NONE', #297, 1.209999999999998632, 0.5235987755982924874 ) ;
#276 = CARTESIAN_POINT ( 'NONE',  ( -3.785471652766321837E-31, 1.065662432702594309, -1.084202172485504434E-16 ) ) ;
#277 = CARTESIAN_POINT ( 'NONE',  ( 3.582192684931459747E-14, -1.256464056309101231E-15, 10.25980762113533906 ) ) ;
#278 = FACE_OUTER_BOUND ( 'NONE', #2, .T. ) ;
#279 = CIRCLE ( 'NONE', #40, 1.090384493975580904 ) ;
#280 = LOCAL_TIME ( 15, 4, 17.00000000000000000, #271 ) ;
#281 = DATE_AND_TIME ( #179, #286 ) ;
#282 = EDGE_LOOP ( 'NONE', ( #189 ) ) ;
#283 = CARTESIAN_POINT ( 'NONE',  ( 1.735266225405037467E-13, 1.499999999999995559, 49.70000000000000284 ) ) ;
#284 = CIRCLE ( 'NONE', #203, 1.060000000000000053 ) ;
#285 = DIRECTION ( 'NONE',  ( 4.775032919968358812E-31, 1.000000000000000000, 1.344052279940709512E-16 ) ) ;
#286 = LOCAL_TIME ( 15, 4, 17.00000000000000000, #87 ) ;
#287 = DATE_AND_TIME ( #190, #280 ) ;
#288 = DIRECTION ( 'NONE',  ( -3.491481338843133355E-15, 1.224646799147353207E-16, -1.000000000000000000 ) ) ;
#289 = EDGE_LOOP ( 'NONE', ( #77 ) ) ;
#290 = APPROVAL_ROLE ( '' ) ;
#291 = CIRCLE ( 'NONE', #35, 1.059999999999998943 ) ;
#292 = LOCAL_TIME ( 15, 4, 17.00000000000000000, #73 ) ;
#293 = DIRECTION ( 'NONE',  ( 4.275831445896958607E-31, 1.000000000000000000, 1.224646799147353207E-16 ) ) ;
#294 = ADVANCED_FACE ( 'NONE', ( #176 ), #111, .F. ) ;
#295 = VERTEX_POINT ( 'NONE', #204 ) ;
#296 = CARTESIAN_POINT ( 'NONE',  ( 6.982962677686266711E-14, -2.602085213965210642E-15, 20.00000000000000000 ) ) ;
#297 = AXIS2_PLACEMENT_3D ( 'NONE', #300, #131, #34 ) ;
#298 = CARTESIAN_POINT ( 'NONE',  ( 1.735266225405037467E-13, -6.086494591762345225E-15, 49.70000000000000284 ) ) ;
#299 = MANIFOLD_SOLID_BREP ( 'Corps-Déplacer/Copier1[1]', #249 ) ;
#300 = CARTESIAN_POINT ( 'NONE',  ( 8.728703347107829444E-16, -3.061616997868381785E-17, 0.2499999999999998890 ) ) ;
#301 = PERSON_AND_ORGANIZATION ( #227, #16 ) ;
#302 = CONICAL_SURFACE ( 'NONE', #197, 1.499999999999996669, 0.1745329251994261477 ) ;
#303 = PERSON_AND_ORGANIZATION ( #227, #16 ) ;
ENDSEC;
END-ISO-10303-21;
