ISO-10303-21;
HEADER;
FILE_DESCRIPTION (( 'STEP AP203' ),
    '1' );
FILE_NAME ('327077.step',
    '2021-12-01T14:04:17',
    ( '' ),
    ( '' ),
    'SwSTEP 2.0',
    'SolidWorks 2019',
    '' );
FILE_SCHEMA (( 'CONFIG_CONTROL_DESIGN' ));
ENDSEC;

DATA;
#1 = FACE_OUTER_BOUND ( 'NONE', #126, .T. ) ;
#2 = PRODUCT_RELATED_PRODUCT_CATEGORY ( 'detail', '', ( #37 ) ) ;
#3 = DIRECTION ( 'NONE',  ( -3.491481338843133355E-15, 1.224646799147353207E-16, -1.000000000000000000 ) ) ;
#4 = DIRECTION ( 'NONE',  ( 4.275831445896958607E-31, 1.000000000000000000, 1.224646799147353207E-16 ) ) ;
#5 = CARTESIAN_POINT ( 'NONE',  ( 6.982962677686266711E-14, -2.602085213965210642E-15, 20.00000000000000000 ) ) ;
#6 = COORDINATED_UNIVERSAL_TIME_OFFSET ( 1, 0, .AHEAD. ) ;
#7 = CC_DESIGN_APPROVAL ( #97, ( #253 ) ) ;
#8 = ORIENTED_EDGE ( 'NONE', *, *, #36, .F. ) ;
#9 = APPROVAL_DATE_TIME ( #212, #97 ) ;
#10 = EDGE_LOOP ( 'NONE', ( #84 ) ) ;
#11 =( NAMED_UNIT ( * ) PLANE_ANGLE_UNIT ( ) SI_UNIT ( $, .RADIAN. ) );
#12 = CONICAL_SURFACE ( 'NONE', #60, 1.200000000000001732, 0.7853981633974453924 ) ;
#13 = CARTESIAN_POINT ( 'NONE',  ( 1.735266225405037467E-13, 1.499999999999995559, 49.70000000000000284 ) ) ;
#14 = FACE_OUTER_BOUND ( 'NONE', #295, .T. ) ;
#15 = ORIENTED_EDGE ( 'NONE', *, *, #80, .F. ) ;
#16 = AXIS2_PLACEMENT_3D ( 'NONE', #207, #3, #91 ) ;
#17 = APPROVAL_STATUS ( 'not_yet_approved' ) ;
#18 = DIRECTION ( 'NONE',  ( 3.491481338843133355E-15, -1.224646799147353207E-16, 1.000000000000000000 ) ) ;
#19 = CC_DESIGN_PERSON_AND_ORGANIZATION_ASSIGNMENT ( #65, #198, ( #147 ) ) ;
#20 = ORIENTED_EDGE ( 'NONE', *, *, #73, .F. ) ;
#21 = CALENDAR_DATE ( 2021, 1, 12 ) ;
#22 = EDGE_LOOP ( 'NONE', ( #15 ) ) ;
#23 =( GEOMETRIC_REPRESENTATION_CONTEXT ( 3 ) GLOBAL_UNCERTAINTY_ASSIGNED_CONTEXT ( ( #162 ) ) GLOBAL_UNIT_ASSIGNED_CONTEXT ( ( #264, #11, #125 ) ) REPRESENTATION_CONTEXT ( 'NONE', 'WORKASPACE' ) );
#24 = DIRECTION ( 'NONE',  ( -4.834970571683442246E-31, -1.000000000000000000, -1.360923229061304032E-16 ) ) ;
#25 = CARTESIAN_POINT ( 'NONE',  ( 1.745740669421566678E-13, 8.998558695971067645E-33, 50.00000000000000000 ) ) ;
#26 = ADVANCED_FACE ( 'NONE', ( #203 ), #110, .F. ) ;
#27 = FACE_OUTER_BOUND ( 'NONE', #194, .T. ) ;
#28 = APPROVAL_PERSON_ORGANIZATION ( #75, #165, #148 ) ;
#29 = VERTEX_POINT ( 'NONE', #13 ) ;
#30 = ADVANCED_FACE ( 'NONE', ( #14 ), #199, .T. ) ;
#31 = CARTESIAN_POINT ( 'NONE',  ( 1.745740669421566678E-13, -6.123233995736766085E-15, 50.00000000000000000 ) ) ;
#32 = VERTEX_POINT ( 'NONE', #149 ) ;
#33 = CIRCLE ( 'NONE', #122, 1.200000000000001732 ) ;
#34 = ORIENTED_EDGE ( 'NONE', *, *, #222, .F. ) ;
#35 = DIRECTION ( 'NONE',  ( 0.0000000000000000000, 0.0000000000000000000, 1.000000000000000000 ) ) ;
#36 = EDGE_CURVE ( 'NONE', #163, #163, #281, .T. ) ;
#37 = PRODUCT ( '327077', '327077', '', ( #59 ) ) ;
#38 = APPROVAL_DATE_TIME ( #172, #165 ) ;
#39 = MANIFOLD_SOLID_BREP ( 'Corps-Déplacer/Copier1[1]', #243 ) ;
#40 = CARTESIAN_POINT ( 'NONE',  ( 0.0000000000000000000, 0.0000000000000000000, 0.0000000000000000000 ) ) ;
#41 = AXIS2_PLACEMENT_3D ( 'NONE', #117, #51, #24 ) ;
#42 = MANIFOLD_SOLID_BREP ( 'Corps-Déplacer/Copier1[2]', #90 ) ;
#43 = EDGE_LOOP ( 'NONE', ( #132 ) ) ;
#44 = ADVANCED_FACE ( 'NONE', ( #131, #278 ), #159, .T. ) ;
#45 = ORIENTED_EDGE ( 'NONE', *, *, #86, .F. ) ;
#46 = DATE_AND_TIME ( #21, #202 ) ;
#47 = DIRECTION ( 'NONE',  ( -3.491481338843133355E-15, 1.224646799147353207E-16, -1.000000000000000000 ) ) ;
#48 = CALENDAR_DATE ( 2021, 1, 12 ) ;
#49 = CARTESIAN_POINT ( 'NONE',  ( 3.582192684931459116E-14, -1.256464056309101033E-15, 10.25980762113533729 ) ) ;
#50 = ORIENTED_EDGE ( 'NONE', *, *, #73, .T. ) ;
#51 = DIRECTION ( 'NONE',  ( 3.491481338843133355E-15, -1.224646799147353207E-16, 1.000000000000000000 ) ) ;
#52 = CARTESIAN_POINT ( 'NONE',  ( 7.945009131041970178E-14, -2.786734069943768694E-15, 22.75541055497798482 ) ) ;
#53 = FACE_BOUND ( 'NONE', #251, .T. ) ;
#54 = DESIGN_CONTEXT ( 'detailed design', #56, 'design' ) ;
#55 = CARTESIAN_POINT ( 'NONE',  ( 3.491481338843133355E-14, 1.194999999999998730, 10.00000000000000000 ) ) ;
#56 = APPLICATION_CONTEXT ( 'configuration controlled 3d designs of mechanical parts and assemblies' ) ;
#57 = CIRCLE ( 'NONE', #16, 1.044999999999999707 ) ;
#58 = FACE_OUTER_BOUND ( 'NONE', #108, .T. ) ;
#59 = MECHANICAL_CONTEXT ( 'NONE', #167, 'mechanical' ) ;
#60 = AXIS2_PLACEMENT_3D ( 'NONE', #31, #210, #287 ) ;
#61 = VERTEX_POINT ( 'NONE', #218 ) ;
#62 = CIRCLE ( 'NONE', #143, 1.075384493975580780 ) ;
#63 = DIRECTION ( 'NONE',  ( 0.0000000000000000000, 1.000000000000000000, 0.0000000000000000000 ) ) ;
#64 = DIRECTION ( 'NONE',  ( 0.0000000000000000000, 1.000000000000000000, 0.0000000000000000000 ) ) ;
#65 = PERSON_AND_ORGANIZATION ( #257, #220 ) ;
#66 = EDGE_LOOP ( 'NONE', ( #81 ) ) ;
#67 = DATE_TIME_ROLE ( 'classification_date' ) ;
#68 = DIRECTION ( 'NONE',  ( 0.0000000000000000000, 1.000000000000000000, 0.0000000000000000000 ) ) ;
#69 = DIRECTION ( 'NONE',  ( -3.491481338843133355E-15, 1.224646799147353207E-16, -1.000000000000000000 ) ) ;
#70 = FACE_OUTER_BOUND ( 'NONE', #95, .T. ) ;
#71 = DIRECTION ( 'NONE',  ( -3.491481338843133355E-15, 1.224646799147353207E-16, -1.000000000000000000 ) ) ;
#72 = CARTESIAN_POINT ( 'NONE',  ( 0.0000000000000000000, 0.0000000000000000000, 0.0000000000000000000 ) ) ;
#73 = EDGE_CURVE ( 'NONE', #29, #29, #231, .T. ) ;
#74 = CARTESIAN_POINT ( 'NONE',  ( 6.982962677686266711E-14, 1.044999999999997264, 20.00000000000000000 ) ) ;
#75 = PERSON_AND_ORGANIZATION ( #257, #220 ) ;
#76 = APPLICATION_PROTOCOL_DEFINITION ( 'international standard', 'config_control_design', 1994, #56 ) ;
#77 = CALENDAR_DATE ( 2021, 1, 12 ) ;
#78 = CONICAL_SURFACE ( 'NONE', #130, 1.499999999999996669, 0.1745329251994263975 ) ;
#79 = VERTEX_POINT ( 'NONE', #129 ) ;
#80 = EDGE_CURVE ( 'NONE', #79, #79, #33, .T. ) ;
#81 = ORIENTED_EDGE ( 'NONE', *, *, #36, .T. ) ;
#82 = DIRECTION ( 'NONE',  ( -3.491481338843133355E-15, 1.224646799147353207E-16, -1.000000000000000000 ) ) ;
#83 = EDGE_LOOP ( 'NONE', ( #223 ) ) ;
#84 = ORIENTED_EDGE ( 'NONE', *, *, #86, .T. ) ;
#85 = LOCAL_TIME ( 15, 4, 17.00000000000000000, #215 ) ;
#86 = EDGE_CURVE ( 'NONE', #193, #193, #217, .T. ) ;
#87 = EDGE_LOOP ( 'NONE', ( #195 ) ) ;
#88 = DIRECTION ( 'NONE',  ( 4.275831445896958607E-31, 1.000000000000000000, 1.224646799147353207E-16 ) ) ;
#89 = DIRECTION ( 'NONE',  ( 4.275831445896958607E-31, 1.000000000000000000, 1.224646799147353454E-16 ) ) ;
#90 = CLOSED_SHELL ( 'NONE', ( #115, #291, #235, #30 ) ) ;
#91 = DIRECTION ( 'NONE',  ( 0.0000000000000000000, 1.000000000000000000, 0.0000000000000000000 ) ) ;
#92 = DIRECTION ( 'NONE',  ( -3.491481338843133355E-15, 1.224646799147353207E-16, -1.000000000000000000 ) ) ;
#93 = FACE_OUTER_BOUND ( 'NONE', #83, .T. ) ;
#94 = VERTEX_POINT ( 'NONE', #166 ) ;
#95 = EDGE_LOOP ( 'NONE', ( #201 ) ) ;
#96 = EDGE_CURVE ( 'NONE', #173, #173, #224, .T. ) ;
#97 = APPROVAL ( #192, 'UNSPECIFIED' ) ;
#98 = APPROVAL_STATUS ( 'not_yet_approved' ) ;
#99 = PERSON_AND_ORGANIZATION ( #257, #220 ) ;
#100 = ORIENTED_EDGE ( 'NONE', *, *, #80, .T. ) ;
#101 = EDGE_CURVE ( 'NONE', #102, #102, #261, .T. ) ;
#102 = VERTEX_POINT ( 'NONE', #103 ) ;
#103 = CARTESIAN_POINT ( 'NONE',  ( 3.491481338843133355E-14, 1.194999999999998730, 10.00000000000000000 ) ) ;
#104 = COORDINATED_UNIVERSAL_TIME_OFFSET ( 1, 0, .AHEAD. ) ;
#105 = ORIENTED_EDGE ( 'NONE', *, *, #145, .T. ) ;
#106 = AXIS2_PLACEMENT_3D ( 'NONE', #275, #136, #229 ) ;
#107 = PERSON_AND_ORGANIZATION_ROLE ( 'creator' ) ;
#108 = EDGE_LOOP ( 'NONE', ( #249 ) ) ;
#109 = APPROVAL ( #17, 'UNSPECIFIED' ) ;
#110 = PLANE ( 'NONE',  #237 ) ;
#111 = DIRECTION ( 'NONE',  ( -4.275831445896958607E-31, -1.000000000000000000, -1.224646799147353207E-16 ) ) ;
#112 = SECURITY_CLASSIFICATION_LEVEL ( 'unclassified' ) ;
#113 = ORIENTED_EDGE ( 'NONE', *, *, #137, .T. ) ;
#114 = PLANE ( 'NONE',  #169 ) ;
#115 = ADVANCED_FACE ( 'NONE', ( #93 ), #114, .F. ) ;
#116 = FACE_OUTER_BOUND ( 'NONE', #197, .T. ) ;
#117 = CARTESIAN_POINT ( 'NONE',  ( 8.728703347107829444E-16, -3.061616997868381785E-17, 0.2499999999999998890 ) ) ;
#118 = ADVANCED_FACE ( 'NONE', ( #187, #256 ), #78, .T. ) ;
#119 = APPROVAL_PERSON_ORGANIZATION ( #241, #97, #168 ) ;
#120 = CYLINDRICAL_SURFACE ( 'NONE', #170, 1.044999999999999263 ) ;
#121 = FACE_OUTER_BOUND ( 'NONE', #66, .T. ) ;
#122 = AXIS2_PLACEMENT_3D ( 'NONE', #250, #47, #68 ) ;
#123 = COORDINATED_UNIVERSAL_TIME_OFFSET ( 1, 0, .AHEAD. ) ;
#124 = AXIS2_PLACEMENT_3D ( 'NONE', #40, #35, #242 ) ;
#125 =( NAMED_UNIT ( * ) SI_UNIT ( $, .STERADIAN. ) SOLID_ANGLE_UNIT ( ) );
#126 = EDGE_LOOP ( 'NONE', ( #34 ) ) ;
#127 = PERSON_AND_ORGANIZATION_ROLE ( 'creator' ) ;
#128 = AXIS2_PLACEMENT_3D ( 'NONE', #254, #69, #89 ) ;
#129 = CARTESIAN_POINT ( 'NONE',  ( 1.745740669421566678E-13, 1.199999999999995515, 50.00000000000000000 ) ) ;
#130 = AXIS2_PLACEMENT_3D ( 'NONE', #52, #142, #158 ) ;
#131 = FACE_OUTER_BOUND ( 'NONE', #43, .T. ) ;
#132 = ORIENTED_EDGE ( 'NONE', *, *, #101, .F. ) ;
#133 = ADVANCED_FACE ( 'NONE', ( #70, #205 ), #283, .F. ) ;
#134 = PERSON_AND_ORGANIZATION ( #257, #220 ) ;
#135 = EDGE_LOOP ( 'NONE', ( #20 ) ) ;
#136 = DIRECTION ( 'NONE',  ( -3.491481338843133355E-15, 1.224646799147353207E-16, -1.000000000000000000 ) ) ;
#137 = EDGE_CURVE ( 'NONE', #61, #61, #62, .T. ) ;
#138 = CARTESIAN_POINT ( 'NONE',  ( 3.491481338843133355E-14, 8.961064701404581143E-33, 10.00000000000000000 ) ) ;
#139 = DIRECTION ( 'NONE',  ( 0.0000000000000000000, 1.000000000000000000, 0.0000000000000000000 ) ) ;
#140 = DIRECTION ( 'NONE',  ( 4.834970571683442246E-31, 1.000000000000000000, 1.360923229061304032E-16 ) ) ;
#141 = DIRECTION ( 'NONE',  ( 4.275831445896958607E-31, 1.000000000000000000, 1.224646799147353454E-16 ) ) ;
#142 = DIRECTION ( 'NONE',  ( 3.491481338843133355E-15, -1.224646799147353207E-16, 1.000000000000000000 ) ) ;
#143 = AXIS2_PLACEMENT_3D ( 'NONE', #209, #186, #139 ) ;
#144 = DIRECTION ( 'NONE',  ( 4.275831445896958607E-31, 1.000000000000000000, 1.224646799147353207E-16 ) ) ;
#145 = EDGE_CURVE ( 'NONE', #94, #94, #244, .T. ) ;
#146 = DATE_AND_TIME ( #191, #227 ) ;
#147 = PRODUCT_DEFINITION_FORMATION_WITH_SPECIFIED_SOURCE ( 'ANY', '', #37, .NOT_KNOWN. ) ;
#148 = APPROVAL_ROLE ( '' ) ;
#149 = CARTESIAN_POINT ( 'NONE',  ( 7.945009131041970178E-14, 1.499999999999994005, 22.75541055497798482 ) ) ;
#150 = CC_DESIGN_PERSON_AND_ORGANIZATION_ASSIGNMENT ( #99, #292, ( #37 ) ) ;
#151 = APPROVAL_PERSON_ORGANIZATION ( #134, #109, #180 ) ;
#152 = CARTESIAN_POINT ( 'NONE',  ( 1.735266225405037467E-13, -6.086494591762345225E-15, 49.70000000000000284 ) ) ;
#153 = DIRECTION ( 'NONE',  ( 0.0000000000000000000, 1.000000000000000000, 0.0000000000000000000 ) ) ;
#154 = DIRECTION ( 'NONE',  ( 3.491481338843133355E-15, -1.224646799147353207E-16, 1.000000000000000000 ) ) ;
#155 = AXIS2_PLACEMENT_3D ( 'NONE', #25, #92, #88 ) ;
#156 = APPROVAL_DATE_TIME ( #46, #109 ) ;
#157 = EDGE_LOOP ( 'NONE', ( #228 ) ) ;
#158 = DIRECTION ( 'NONE',  ( 0.0000000000000000000, -1.000000000000000000, 0.0000000000000000000 ) ) ;
#159 = CONICAL_SURFACE ( 'NONE', #262, 1.044999999999998819, 0.5235987755982940417 ) ;
#160 = DIRECTION ( 'NONE',  ( 3.491481338843133355E-15, -1.224646799147353207E-16, 1.000000000000000000 ) ) ;
#161 = CC_DESIGN_DATE_AND_TIME_ASSIGNMENT ( #294, #67, ( #293 ) ) ;
#162 = UNCERTAINTY_MEASURE_WITH_UNIT (LENGTH_MEASURE( 1.000000000000000082E-05 ), #264, 'distance_accuracy_value', 'NONE');
#163 = VERTEX_POINT ( 'NONE', #55 ) ;
#164 = FACE_OUTER_BOUND ( 'NONE', #174, .T. ) ;
#165 = APPROVAL ( #98, 'UNSPECIFIED' ) ;
#166 = CARTESIAN_POINT ( 'NONE',  ( 8.728703347107835360E-16, 1.194999999999998730, 0.2500000000000000555 ) ) ;
#167 = APPLICATION_CONTEXT ( 'configuration controlled 3d designs of mechanical parts and assemblies' ) ;
#168 = APPROVAL_ROLE ( '' ) ;
#169 = AXIS2_PLACEMENT_3D ( 'NONE', #204, #160, #280 ) ;
#170 = AXIS2_PLACEMENT_3D ( 'NONE', #259, #258, #141 ) ;
#171 = ADVANCED_BREP_SHAPE_REPRESENTATION ( '327077', ( #39, #42, #124 ), #23 ) ;
#172 = DATE_AND_TIME ( #77, #85 ) ;
#173 = VERTEX_POINT ( 'NONE', #265 ) ;
#174 = EDGE_LOOP ( 'NONE', ( #45 ) ) ;
#175 = CIRCLE ( 'NONE', #206, 1.499999999999996669 ) ;
#176 = CC_DESIGN_APPROVAL ( #165, ( #147 ) ) ;
#177 = EDGE_LOOP ( 'NONE', ( #272 ) ) ;
#178 = ORIENTED_EDGE ( 'NONE', *, *, #298, .T. ) ;
#179 = DIRECTION ( 'NONE',  ( 0.0000000000000000000, 1.000000000000000000, 0.0000000000000000000 ) ) ;
#180 = APPROVAL_ROLE ( '' ) ;
#181 = DIRECTION ( 'NONE',  ( 0.0000000000000000000, 1.000000000000000000, 0.0000000000000000000 ) ) ;
#182 = AXIS2_PLACEMENT_3D ( 'NONE', #72, #71, #144 ) ;
#183 = CARTESIAN_POINT ( 'NONE',  ( 3.491481338843133355E-14, 8.961064701404581143E-33, 10.00000000000000000 ) ) ;
#184 = DIRECTION ( 'NONE',  ( -3.491481338843133355E-15, 1.224646799147353207E-16, -1.000000000000000000 ) ) ;
#185 = DIRECTION ( 'NONE',  ( 0.0000000000000000000, 1.000000000000000000, 0.0000000000000000000 ) ) ;
#186 = DIRECTION ( 'NONE',  ( -3.491481338843133355E-15, 1.224646799147353207E-16, -1.000000000000000000 ) ) ;
#187 = FACE_BOUND ( 'NONE', #157, .T. ) ;
#188 = AXIS2_PLACEMENT_3D ( 'NONE', #49, #297, #179 ) ;
#189 = PLANE ( 'NONE',  #155 ) ;
#190 = CC_DESIGN_APPROVAL ( #109, ( #293 ) ) ;
#191 = CALENDAR_DATE ( 2021, 1, 12 ) ;
#192 = APPROVAL_STATUS ( 'not_yet_approved' ) ;
#193 = VERTEX_POINT ( 'NONE', #267 ) ;
#194 = EDGE_LOOP ( 'NONE', ( #105 ) ) ;
#195 = ORIENTED_EDGE ( 'NONE', *, *, #96, .F. ) ;
#196 = PERSON_AND_ORGANIZATION ( #257, #220 ) ;
#197 = EDGE_LOOP ( 'NONE', ( #178 ) ) ;
#198 = PERSON_AND_ORGANIZATION_ROLE ( 'design_supplier' ) ;
#199 = PLANE ( 'NONE',  #246 ) ;
#200 = PERSON_AND_ORGANIZATION_ROLE ( 'classification_officer' ) ;
#201 = ORIENTED_EDGE ( 'NONE', *, *, #298, .F. ) ;
#202 = LOCAL_TIME ( 15, 4, 17.00000000000000000, #225 ) ;
#203 = FACE_OUTER_BOUND ( 'NONE', #177, .T. ) ;
#204 = CARTESIAN_POINT ( 'NONE',  ( -3.192595647577755853E-31, 1.119811810901255668E-32, -9.143957357181778410E-17 ) ) ;
#205 = FACE_OUTER_BOUND ( 'NONE', #216, .T. ) ;
#206 = AXIS2_PLACEMENT_3D ( 'NONE', #240, #285, #185 ) ;
#207 = CARTESIAN_POINT ( 'NONE',  ( 6.982962677686266711E-14, -2.449293598294706513E-15, 20.00000000000000000 ) ) ;
#208 = PRODUCT_DEFINITION_SHAPE ( 'NONE', 'NONE',  #253 ) ;
#209 = CARTESIAN_POINT ( 'NONE',  ( 7.104220552055901835E-14, -2.491825135286219831E-15, 20.34729635533384595 ) ) ;
#210 = DIRECTION ( 'NONE',  ( -3.491481338843133355E-15, 1.224646799147353207E-16, -1.000000000000000000 ) ) ;
#211 = CALENDAR_DATE ( 2021, 1, 12 ) ;
#212 = DATE_AND_TIME ( #211, #219 ) ;
#213 = ADVANCED_FACE ( 'NONE', ( #1, #286 ), #263, .T. ) ;
#214 = CC_DESIGN_PERSON_AND_ORGANIZATION_ASSIGNMENT ( #299, #107, ( #147 ) ) ;
#215 = COORDINATED_UNIVERSAL_TIME_OFFSET ( 1, 0, .AHEAD. ) ;
#216 = EDGE_LOOP ( 'NONE', ( #113 ) ) ;
#217 = CIRCLE ( 'NONE', #188, 1.044999999999998819 ) ;
#218 = CARTESIAN_POINT ( 'NONE',  ( 7.104220552055901835E-14, 1.075384493975578337, 20.34729635533384595 ) ) ;
#219 = LOCAL_TIME ( 15, 4, 17.00000000000000000, #123 ) ;
#220 = ORGANIZATION ( 'UNSPECIFIED', 'UNSPECIFIED', '' ) ;
#221 = APPLICATION_PROTOCOL_DEFINITION ( 'international standard', 'config_control_design', 1994, #167 ) ;
#222 = EDGE_CURVE ( 'NONE', #32, #32, #175, .T. ) ;
#223 = ORIENTED_EDGE ( 'NONE', *, *, #96, .T. ) ;
#224 = CIRCLE ( 'NONE', #106, 1.050662432702594407 ) ;
#225 = COORDINATED_UNIVERSAL_TIME_OFFSET ( 1, 0, .AHEAD. ) ;
#226 = CARTESIAN_POINT ( 'NONE',  ( 3.582192684931459116E-14, -1.256464056309101033E-15, 10.25980762113533729 ) ) ;
#227 = LOCAL_TIME ( 15, 4, 17.00000000000000000, #6 ) ;
#228 = ORIENTED_EDGE ( 'NONE', *, *, #137, .F. ) ;
#229 = DIRECTION ( 'NONE',  ( 4.275831445896958607E-31, 1.000000000000000000, 1.224646799147352961E-16 ) ) ;
#230 = CARTESIAN_POINT ( 'NONE',  ( 3.491481338843133355E-14, -1.224646799147353256E-15, 10.00000000000000000 ) ) ;
#231 = CIRCLE ( 'NONE', #266, 1.500000000000001554 ) ;
#232 = LOCAL_TIME ( 15, 4, 17.00000000000000000, #104 ) ;
#233 = CARTESIAN_POINT ( 'NONE',  ( 8.728703347107829444E-16, -3.061616997868381785E-17, 0.2499999999999998890 ) ) ;
#234 = CYLINDRICAL_SURFACE ( 'NONE', #182, 1.194999999999999396 ) ;
#235 = ADVANCED_FACE ( 'NONE', ( #58, #121 ), #234, .T. ) ;
#236 = FACE_BOUND ( 'NONE', #87, .T. ) ;
#237 = AXIS2_PLACEMENT_3D ( 'NONE', #183, #18, #111 ) ;
#238 = AXIS2_PLACEMENT_3D ( 'NONE', #274, #248, #64 ) ;
#239 = FACE_OUTER_BOUND ( 'NONE', #22, .T. ) ;
#240 = CARTESIAN_POINT ( 'NONE',  ( 7.945009131041970178E-14, -2.786734069943768694E-15, 22.75541055497798482 ) ) ;
#241 = PERSON_AND_ORGANIZATION ( #257, #220 ) ;
#242 = DIRECTION ( 'NONE',  ( 1.000000000000000000, 0.0000000000000000000, 0.0000000000000000000 ) ) ;
#243 = CLOSED_SHELL ( 'NONE', ( #26, #44, #284, #133, #118, #213, #288, #260 ) ) ;
#244 = CIRCLE ( 'NONE', #271, 1.194999999999998730 ) ;
#245 = VERTEX_POINT ( 'NONE', #74 ) ;
#246 = AXIS2_PLACEMENT_3D ( 'NONE', #138, #154, #279 ) ;
#247 = CC_DESIGN_DATE_AND_TIME_ASSIGNMENT ( #146, #290, ( #253 ) ) ;
#248 = DIRECTION ( 'NONE',  ( -3.491481338843133355E-15, 1.224646799147353207E-16, -1.000000000000000000 ) ) ;
#249 = ORIENTED_EDGE ( 'NONE', *, *, #145, .F. ) ;
#250 = CARTESIAN_POINT ( 'NONE',  ( 1.745740669421566678E-13, -6.123233995736766085E-15, 50.00000000000000000 ) ) ;
#251 = EDGE_LOOP ( 'NONE', ( #100 ) ) ;
#252 = EDGE_LOOP ( 'NONE', ( #268 ) ) ;
#253 = PRODUCT_DEFINITION ( 'UNKNOWN', '', #147, #54 ) ;
#254 = CARTESIAN_POINT ( 'NONE',  ( 0.0000000000000000000, 0.0000000000000000000, 0.0000000000000000000 ) ) ;
#255 = AXIS2_PLACEMENT_3D ( 'NONE', #230, #300, #181 ) ;
#256 = FACE_OUTER_BOUND ( 'NONE', #252, .T. ) ;
#257 = PERSON ( 'UNSPECIFIED', 'UNSPECIFIED', 'UNSPECIFIED', ('UNSPECIFIED'), ('UNSPECIFIED'), ('UNSPECIFIED') ) ;
#258 = DIRECTION ( 'NONE',  ( -3.491481338843133355E-15, 1.224646799147353207E-16, -1.000000000000000000 ) ) ;
#259 = CARTESIAN_POINT ( 'NONE',  ( 0.0000000000000000000, 0.0000000000000000000, 0.0000000000000000000 ) ) ;
#260 = ADVANCED_FACE ( 'NONE', ( #239 ), #189, .F. ) ;
#261 = CIRCLE ( 'NONE', #255, 1.195000000000000062 ) ;
#262 = AXIS2_PLACEMENT_3D ( 'NONE', #226, #296, #63 ) ;
#263 = CYLINDRICAL_SURFACE ( 'NONE', #128, 1.499999999999999112 ) ;
#264 =( LENGTH_UNIT ( ) NAMED_UNIT ( * ) SI_UNIT ( .MILLI., .METRE. ) );
#265 = CARTESIAN_POINT ( 'NONE',  ( -1.892735826383161356E-31, 1.050662432702594407, -5.421010862427522170E-17 ) ) ;
#266 = AXIS2_PLACEMENT_3D ( 'NONE', #152, #82, #153 ) ;
#267 = CARTESIAN_POINT ( 'NONE',  ( 3.582192684931459116E-14, 1.044999999999997486, 10.25980762113533729 ) ) ;
#268 = ORIENTED_EDGE ( 'NONE', *, *, #222, .T. ) ;
#269 = CONICAL_SURFACE ( 'NONE', #41, 1.194999999999998730, 0.5235987755982925984 ) ;
#270 = PERSON_AND_ORGANIZATION ( #257, #220 ) ;
#271 = AXIS2_PLACEMENT_3D ( 'NONE', #233, #303, #140 ) ;
#272 = ORIENTED_EDGE ( 'NONE', *, *, #101, .T. ) ;
#273 = CC_DESIGN_PERSON_AND_ORGANIZATION_ASSIGNMENT ( #270, #127, ( #253 ) ) ;
#274 = CARTESIAN_POINT ( 'NONE',  ( 3.491481338843133355E-14, -1.224646799147353256E-15, 10.00000000000000000 ) ) ;
#275 = CARTESIAN_POINT ( 'NONE',  ( -6.385191295155511705E-31, 2.239623621802511336E-32, -1.828791471436355682E-16 ) ) ;
#276 = SHAPE_DEFINITION_REPRESENTATION ( #208, #171 ) ;
#277 = CC_DESIGN_SECURITY_CLASSIFICATION ( #293, ( #147 ) ) ;
#278 = FACE_BOUND ( 'NONE', #10, .T. ) ;
#279 = DIRECTION ( 'NONE',  ( -4.275831445896958607E-31, -1.000000000000000000, -1.224646799147353207E-16 ) ) ;
#280 = DIRECTION ( 'NONE',  ( -4.275831445896958607E-31, -1.000000000000000000, -1.224646799147353207E-16 ) ) ;
#281 = CIRCLE ( 'NONE', #238, 1.195000000000000062 ) ;
#282 = FACE_OUTER_BOUND ( 'NONE', #135, .T. ) ;
#283 = TOROIDAL_SURFACE ( 'NONE', #289, 3.044999999999999929, 2.000000000000000444 ) ;
#284 = ADVANCED_FACE ( 'NONE', ( #164, #116 ), #120, .T. ) ;
#285 = DIRECTION ( 'NONE',  ( -3.491481338843133355E-15, 1.224646799147353207E-16, -1.000000000000000000 ) ) ;
#286 = FACE_OUTER_BOUND ( 'NONE', #302, .T. ) ;
#287 = DIRECTION ( 'NONE',  ( 0.0000000000000000000, 1.000000000000000000, 0.0000000000000000000 ) ) ;
#288 = ADVANCED_FACE ( 'NONE', ( #282, #53 ), #12, .T. ) ;
#289 = AXIS2_PLACEMENT_3D ( 'NONE', #5, #184, #4 ) ;
#290 = DATE_TIME_ROLE ( 'creation_date' ) ;
#291 = ADVANCED_FACE ( 'NONE', ( #236, #27 ), #269, .T. ) ;
#292 = PERSON_AND_ORGANIZATION_ROLE ( 'design_owner' ) ;
#293 = SECURITY_CLASSIFICATION ( '', '', #112 ) ;
#294 = DATE_AND_TIME ( #48, #232 ) ;
#295 = EDGE_LOOP ( 'NONE', ( #8 ) ) ;
#296 = DIRECTION ( 'NONE',  ( -3.491481338843133355E-15, 1.224646799147353207E-16, -1.000000000000000000 ) ) ;
#297 = DIRECTION ( 'NONE',  ( -3.491481338843133355E-15, 1.224646799147353207E-16, -1.000000000000000000 ) ) ;
#298 = EDGE_CURVE ( 'NONE', #245, #245, #57, .T. ) ;
#299 = PERSON_AND_ORGANIZATION ( #257, #220 ) ;
#300 = DIRECTION ( 'NONE',  ( -3.491481338843133355E-15, 1.224646799147353207E-16, -1.000000000000000000 ) ) ;
#301 = CC_DESIGN_PERSON_AND_ORGANIZATION_ASSIGNMENT ( #196, #200, ( #293 ) ) ;
#302 = EDGE_LOOP ( 'NONE', ( #50 ) ) ;
#303 = DIRECTION ( 'NONE',  ( -3.491481338843133355E-15, 1.224646799147353207E-16, -1.000000000000000000 ) ) ;
ENDSEC;
END-ISO-10303-21;
