ISO-10303-21;
HEADER;
FILE_DESCRIPTION (( 'STEP AP203' ),
    '1' );
FILE_NAME ('327076.step',
    '2021-12-01T14:04:16',
    ( '' ),
    ( '' ),
    'SwSTEP 2.0',
    'SolidWorks 2019',
    '' );
FILE_SCHEMA (( 'CONFIG_CONTROL_DESIGN' ));
ENDSEC;

DATA;
#1 = ORIENTED_EDGE ( 'NONE', *, *, #182, .T. ) ;
#2 = FACE_OUTER_BOUND ( 'NONE', #237, .T. ) ;
#3 = CONICAL_SURFACE ( 'NONE', #42, 1.039999999999999147, 0.5235987755982928205 ) ;
#4 = CALENDAR_DATE ( 2021, 1, 12 ) ;
#5 = ORIENTED_EDGE ( 'NONE', *, *, #41, .F. ) ;
#6 = CALENDAR_DATE ( 2021, 1, 12 ) ;
#7 = PRODUCT_RELATED_PRODUCT_CATEGORY ( 'detail', '', ( #216 ) ) ;
#8 = EDGE_LOOP ( 'NONE', ( #238 ) ) ;
#9 = DIRECTION ( 'NONE',  ( 3.491481338843133355E-15, -1.224646799147353207E-16, 1.000000000000000000 ) ) ;
#10 = DIRECTION ( 'NONE',  ( -3.491481338843133355E-15, 1.224646799147353207E-16, -1.000000000000000000 ) ) ;
#11 = CARTESIAN_POINT ( 'NONE',  ( 1.745740669421566678E-13, -6.123233995736766085E-15, 50.00000000000000000 ) ) ;
#12 = FACE_OUTER_BOUND ( 'NONE', #66, .T. ) ;
#13 = CIRCLE ( 'NONE', #154, 1.039999999999999147 ) ;
#14 = CARTESIAN_POINT ( 'NONE',  ( 1.735266225405037467E-13, -6.086494591762345225E-15, 49.70000000000000284 ) ) ;
#15 = ADVANCED_FACE ( 'NONE', ( #256, #211 ), #296, .T. ) ;
#16 = VERTEX_POINT ( 'NONE', #174 ) ;
#17 =( LENGTH_UNIT ( ) NAMED_UNIT ( * ) SI_UNIT ( .MILLI., .METRE. ) );
#18 = PERSON_AND_ORGANIZATION ( #225, #117 ) ;
#19 = ORIENTED_EDGE ( 'NONE', *, *, #125, .F. ) ;
#20 = APPROVAL_STATUS ( 'not_yet_approved' ) ;
#21 = DIRECTION ( 'NONE',  ( -3.491481338843133355E-15, 1.224646799147353207E-16, -1.000000000000000000 ) ) ;
#22 = COORDINATED_UNIVERSAL_TIME_OFFSET ( 1, 0, .AHEAD. ) ;
#23 = EDGE_LOOP ( 'NONE', ( #112 ) ) ;
#24 = ADVANCED_FACE ( 'NONE', ( #2 ), #214, .T. ) ;
#25 = SHAPE_DEFINITION_REPRESENTATION ( #120, #168 ) ;
#26 = CARTESIAN_POINT ( 'NONE',  ( 1.745740669421566678E-13, -6.123233995736766085E-15, 50.00000000000000000 ) ) ;
#27 = PERSON_AND_ORGANIZATION ( #225, #117 ) ;
#28 = EDGE_LOOP ( 'NONE', ( #287 ) ) ;
#29 = MANIFOLD_SOLID_BREP ( 'Corps-Déplacer/Copier1[2]', #111 ) ;
#30 = DIRECTION ( 'NONE',  ( 0.0000000000000000000, 1.000000000000000000, 0.0000000000000000000 ) ) ;
#31 = AXIS2_PLACEMENT_3D ( 'NONE', #176, #108, #201 ) ;
#32 = DIRECTION ( 'NONE',  ( 0.0000000000000000000, 1.000000000000000000, 0.0000000000000000000 ) ) ;
#33 = DIRECTION ( 'NONE',  ( -3.491481338843133355E-15, 1.224646799147353207E-16, -1.000000000000000000 ) ) ;
#34 = FACE_OUTER_BOUND ( 'NONE', #85, .T. ) ;
#35 = DIRECTION ( 'NONE',  ( 0.0000000000000000000, 1.000000000000000000, 0.0000000000000000000 ) ) ;
#36 = CC_DESIGN_PERSON_AND_ORGANIZATION_ASSIGNMENT ( #27, #158, ( #126 ) ) ;
#37 = CONICAL_SURFACE ( 'NONE', #265, 1.200000000000001732, 0.7853981633974453924 ) ;
#38 = CARTESIAN_POINT ( 'NONE',  ( 1.735266225405037467E-13, 1.499999999999995559, 49.70000000000000284 ) ) ;
#39 = DATE_TIME_ROLE ( 'creation_date' ) ;
#40 = CARTESIAN_POINT ( 'NONE',  ( 6.982962677686266711E-14, 1.039999999999997593, 20.00000000000000000 ) ) ;
#41 = EDGE_CURVE ( 'NONE', #226, #226, #231, .T. ) ;
#42 = AXIS2_PLACEMENT_3D ( 'NONE', #245, #289, #191 ) ;
#43 = CARTESIAN_POINT ( 'NONE',  ( 3.491481338843133355E-14, 1.189999999999998614, 10.00000000000000000 ) ) ;
#44 = ORIENTED_EDGE ( 'NONE', *, *, #286, .T. ) ;
#45 = CALENDAR_DATE ( 2021, 1, 12 ) ;
#46 = CYLINDRICAL_SURFACE ( 'NONE', #200, 1.189999999999999281 ) ;
#47 = APPLICATION_CONTEXT ( 'configuration controlled 3d designs of mechanical parts and assemblies' ) ;
#48 = DIRECTION ( 'NONE',  ( 3.491481338843133355E-15, -1.224646799147353207E-16, 1.000000000000000000 ) ) ;
#49 = ORIENTED_EDGE ( 'NONE', *, *, #260, .T. ) ;
#50 = EDGE_LOOP ( 'NONE', ( #230 ) ) ;
#51 = ORIENTED_EDGE ( 'NONE', *, *, #125, .T. ) ;
#52 = CARTESIAN_POINT ( 'NONE',  ( 7.954909718362228611E-14, -2.790206728507497483E-15, 22.78376696407607582 ) ) ;
#53 = DIRECTION ( 'NONE',  ( -3.491481338843133355E-15, 1.224646799147353207E-16, -1.000000000000000000 ) ) ;
#54 = CARTESIAN_POINT ( 'NONE',  ( 0.0000000000000000000, 0.0000000000000000000, 0.0000000000000000000 ) ) ;
#55 = DIRECTION ( 'NONE',  ( 0.0000000000000000000, 1.000000000000000000, 0.0000000000000000000 ) ) ;
#56 = CC_DESIGN_PERSON_AND_ORGANIZATION_ASSIGNMENT ( #206, #84, ( #251 ) ) ;
#57 = CARTESIAN_POINT ( 'NONE',  ( 3.491481338843133355E-14, 8.923570706838034429E-33, 10.00000000000000000 ) ) ;
#58 = AXIS2_PLACEMENT_3D ( 'NONE', #91, #161, #213 ) ;
#59 = PERSON_AND_ORGANIZATION ( #225, #117 ) ;
#60 = COORDINATED_UNIVERSAL_TIME_OFFSET ( 1, 0, .AHEAD. ) ;
#61 = AXIS2_PLACEMENT_3D ( 'NONE', #241, #171, #269 ) ;
#62 = DIRECTION ( 'NONE',  ( 4.855285574085474278E-31, 1.000000000000000000, 1.366641393889292919E-16 ) ) ;
#63 = ADVANCED_FACE ( 'NONE', ( #113, #284 ), #232, .T. ) ;
#64 = DIRECTION ( 'NONE',  ( 4.275831445896958607E-31, 1.000000000000000000, 1.224646799147353454E-16 ) ) ;
#65 = COORDINATED_UNIVERSAL_TIME_OFFSET ( 1, 0, .AHEAD. ) ;
#66 = EDGE_LOOP ( 'NONE', ( #159 ) ) ;
#67 = FACE_OUTER_BOUND ( 'NONE', #282, .T. ) ;
#68 = ORIENTED_EDGE ( 'NONE', *, *, #150, .T. ) ;
#69 = CC_DESIGN_PERSON_AND_ORGANIZATION_ASSIGNMENT ( #18, #302, ( #251 ) ) ;
#70 = AXIS2_PLACEMENT_3D ( 'NONE', #215, #75, #292 ) ;
#71 = DIRECTION ( 'NONE',  ( 4.275831445896958607E-31, 1.000000000000000000, 1.224646799147353207E-16 ) ) ;
#72 = DIRECTION ( 'NONE',  ( 0.0000000000000000000, 1.000000000000000000, 0.0000000000000000000 ) ) ;
#73 = CC_DESIGN_APPROVAL ( #89, ( #251 ) ) ;
#74 = CARTESIAN_POINT ( 'NONE',  ( 3.491481338843133355E-14, -1.224646799147353256E-15, 10.00000000000000000 ) ) ;
#75 = DIRECTION ( 'NONE',  ( -3.491481338843133355E-15, 1.224646799147353207E-16, -1.000000000000000000 ) ) ;
#76 = FACE_BOUND ( 'NONE', #175, .T. ) ;
#77 = COORDINATED_UNIVERSAL_TIME_OFFSET ( 1, 0, .AHEAD. ) ;
#78 = CC_DESIGN_PERSON_AND_ORGANIZATION_ASSIGNMENT ( #300, #83, ( #216 ) ) ;
#79 = VERTEX_POINT ( 'NONE', #43 ) ;
#80 = CONICAL_SURFACE ( 'NONE', #122, 1.499999999999996669, 0.1745329251994258701 ) ;
#81 = APPROVAL_DATE_TIME ( #173, #144 ) ;
#82 = APPLICATION_CONTEXT ( 'configuration controlled 3d designs of mechanical parts and assemblies' ) ;
#83 = PERSON_AND_ORGANIZATION_ROLE ( 'design_owner' ) ;
#84 = PERSON_AND_ORGANIZATION_ROLE ( 'creator' ) ;
#85 = EDGE_LOOP ( 'NONE', ( #234 ) ) ;
#86 = ADVANCED_FACE ( 'NONE', ( #67, #160 ), #37, .T. ) ;
#87 = ORIENTED_EDGE ( 'NONE', *, *, #286, .F. ) ;
#88 = TOROIDAL_SURFACE ( 'NONE', #235, 3.040000000000000036, 2.000000000000000000 ) ;
#89 = APPROVAL ( #248, 'UNSPECIFIED' ) ;
#90 = DATE_AND_TIME ( #45, #288 ) ;
#91 = CARTESIAN_POINT ( 'NONE',  ( 3.491481338843133355E-14, 8.923570706838034429E-33, 10.00000000000000000 ) ) ;
#92 = APPROVAL_ROLE ( '' ) ;
#93 = CARTESIAN_POINT ( 'NONE',  ( 8.728703347107829444E-16, -3.061616997868381785E-17, 0.2499999999999998890 ) ) ;
#94 = APPROVAL_DATE_TIME ( #281, #162 ) ;
#95 = EDGE_LOOP ( 'NONE', ( #68 ) ) ;
#96 = ADVANCED_FACE ( 'NONE', ( #209, #253 ), #46, .T. ) ;
#97 = FACE_OUTER_BOUND ( 'NONE', #184, .T. ) ;
#98 = CIRCLE ( 'NONE', #129, 1.499999999999996669 ) ;
#99 = PLANE ( 'NONE',  #242 ) ;
#100 = DIRECTION ( 'NONE',  ( 4.275831445896959482E-31, 1.000000000000000000, 1.224646799147353207E-16 ) ) ;
#101 = DIRECTION ( 'NONE',  ( 0.0000000000000000000, 1.000000000000000000, 0.0000000000000000000 ) ) ;
#102 = ADVANCED_FACE ( 'NONE', ( #118, #268 ), #267, .T. ) ;
#103 = PRODUCT_DEFINITION ( 'UNKNOWN', '', #251, #141 ) ;
#104 = CC_DESIGN_APPROVAL ( #144, ( #103 ) ) ;
#105 =( NAMED_UNIT ( * ) SI_UNIT ( $, .STERADIAN. ) SOLID_ANGLE_UNIT ( ) );
#106 = EDGE_LOOP ( 'NONE', ( #236 ) ) ;
#107 = AXIS2_PLACEMENT_3D ( 'NONE', #164, #261, #303 ) ;
#108 = DIRECTION ( 'NONE',  ( 0.0000000000000000000, 0.0000000000000000000, 1.000000000000000000 ) ) ;
#109 = VERTEX_POINT ( 'NONE', #222 ) ;
#110 = PERSON_AND_ORGANIZATION ( #225, #117 ) ;
#111 = CLOSED_SHELL ( 'NONE', ( #252, #15, #96, #24 ) ) ;
#112 = ORIENTED_EDGE ( 'NONE', *, *, #150, .F. ) ;
#113 = FACE_OUTER_BOUND ( 'NONE', #8, .T. ) ;
#114 = EDGE_LOOP ( 'NONE', ( #255 ) ) ;
#115 = DIRECTION ( 'NONE',  ( -3.491481338843133355E-15, 1.224646799147353207E-16, -1.000000000000000000 ) ) ;
#116 = EDGE_LOOP ( 'NONE', ( #44 ) ) ;
#117 = ORGANIZATION ( 'UNSPECIFIED', 'UNSPECIFIED', '' ) ;
#118 = FACE_OUTER_BOUND ( 'NONE', #138, .T. ) ;
#119 = AXIS2_PLACEMENT_3D ( 'NONE', #11, #146, #72 ) ;
#120 = PRODUCT_DEFINITION_SHAPE ( 'NONE', 'NONE',  #103 ) ;
#121 = FACE_OUTER_BOUND ( 'NONE', #50, .T. ) ;
#122 = AXIS2_PLACEMENT_3D ( 'NONE', #52, #9, #243 ) ;
#123 = PLANE ( 'NONE',  #224 ) ;
#124 = DIRECTION ( 'NONE',  ( -3.491481338843133355E-15, 1.224646799147353207E-16, -1.000000000000000000 ) ) ;
#125 = EDGE_CURVE ( 'NONE', #246, #246, #13, .T. ) ;
#126 = SECURITY_CLASSIFICATION ( '', '', #233 ) ;
#127 = CARTESIAN_POINT ( 'NONE',  ( 3.491481338843133355E-14, -1.224646799147353256E-15, 10.00000000000000000 ) ) ;
#128 = AXIS2_PLACEMENT_3D ( 'NONE', #54, #53, #196 ) ;
#129 = AXIS2_PLACEMENT_3D ( 'NONE', #217, #10, #30 ) ;
#130 = ADVANCED_FACE ( 'NONE', ( #264, #149 ), #3, .T. ) ;
#131 = APPLICATION_PROTOCOL_DEFINITION ( 'international standard', 'config_control_design', 1994, #82 ) ;
#132 = VERTEX_POINT ( 'NONE', #38 ) ;
#133 = VERTEX_POINT ( 'NONE', #228 ) ;
#134 = EDGE_CURVE ( 'NONE', #203, #203, #197, .T. ) ;
#135 = MANIFOLD_SOLID_BREP ( 'Corps-Déplacer/Copier1[1]', #254 ) ;
#136 = CARTESIAN_POINT ( 'NONE',  ( 0.0000000000000000000, 0.0000000000000000000, 0.0000000000000000000 ) ) ;
#137 = CIRCLE ( 'NONE', #119, 1.200000000000001732 ) ;
#138 = EDGE_LOOP ( 'NONE', ( #19 ) ) ;
#139 = EDGE_LOOP ( 'NONE', ( #181 ) ) ;
#140 = CC_DESIGN_SECURITY_CLASSIFICATION ( #126, ( #251 ) ) ;
#141 = DESIGN_CONTEXT ( 'detailed design', #47, 'design' ) ;
#142 = DIRECTION ( 'NONE',  ( -4.855285574085474278E-31, -1.000000000000000000, -1.366641393889292919E-16 ) ) ;
#143 = AXIS2_PLACEMENT_3D ( 'NONE', #127, #220, #101 ) ;
#144 = APPROVAL ( #294, 'UNSPECIFIED' ) ;
#145 = ORIENTED_EDGE ( 'NONE', *, *, #271, .T. ) ;
#146 = DIRECTION ( 'NONE',  ( -3.491481338843133355E-15, 1.224646799147353207E-16, -1.000000000000000000 ) ) ;
#147 = DIRECTION ( 'NONE',  ( -3.491481338843133355E-15, 1.224646799147353207E-16, -1.000000000000000000 ) ) ;
#148 = DIRECTION ( 'NONE',  ( -3.491481338843133355E-15, 1.224646799147353207E-16, -1.000000000000000000 ) ) ;
#149 = FACE_BOUND ( 'NONE', #186, .T. ) ;
#150 = EDGE_CURVE ( 'NONE', #79, #79, #301, .T. ) ;
#151 = DIRECTION ( 'NONE',  ( 3.491481338843133355E-15, -1.224646799147353207E-16, 1.000000000000000000 ) ) ;
#152 = CALENDAR_DATE ( 2021, 1, 12 ) ;
#153 = APPLICATION_PROTOCOL_DEFINITION ( 'international standard', 'config_control_design', 1994, #47 ) ;
#154 = AXIS2_PLACEMENT_3D ( 'NONE', #165, #33, #32 ) ;
#155 = CARTESIAN_POINT ( 'NONE',  ( -1.892735826383161356E-31, 1.045662432702594069, -5.421010862427522170E-17 ) ) ;
#156 =( GEOMETRIC_REPRESENTATION_CONTEXT ( 3 ) GLOBAL_UNCERTAINTY_ASSIGNED_CONTEXT ( ( #210 ) ) GLOBAL_UNIT_ASSIGNED_CONTEXT ( ( #17, #250, #105 ) ) REPRESENTATION_CONTEXT ( 'NONE', 'WORKASPACE' ) );
#157 = DIRECTION ( 'NONE',  ( 0.0000000000000000000, 1.000000000000000000, 0.0000000000000000000 ) ) ;
#158 = PERSON_AND_ORGANIZATION_ROLE ( 'classification_officer' ) ;
#159 = ORIENTED_EDGE ( 'NONE', *, *, #41, .T. ) ;
#160 = FACE_BOUND ( 'NONE', #188, .T. ) ;
#161 = DIRECTION ( 'NONE',  ( 3.491481338843133355E-15, -1.224646799147353207E-16, 1.000000000000000000 ) ) ;
#162 = APPROVAL ( #20, 'UNSPECIFIED' ) ;
#163 = AXIS2_PLACEMENT_3D ( 'NONE', #74, #219, #55 ) ;
#164 = CARTESIAN_POINT ( 'NONE',  ( 7.104220552055900573E-14, -2.491825135286219437E-15, 20.34729635533384240 ) ) ;
#165 = CARTESIAN_POINT ( 'NONE',  ( 3.582192684931459116E-14, -1.256464056309101033E-15, 10.25980762113533729 ) ) ;
#166 = APPROVAL_PERSON_ORGANIZATION ( #202, #89, #299 ) ;
#167 = DIRECTION ( 'NONE',  ( -4.275831445896958607E-31, -1.000000000000000000, -1.224646799147353207E-16 ) ) ;
#168 = ADVANCED_BREP_SHAPE_REPRESENTATION ( '327076', ( #135, #29, #31 ), #156 ) ;
#169 = DIRECTION ( 'NONE',  ( -3.491481338843133355E-15, 1.224646799147353207E-16, -1.000000000000000000 ) ) ;
#170 = CARTESIAN_POINT ( 'NONE',  ( -6.363812137926025240E-31, 2.232124822889201719E-32, -1.822668237440618806E-16 ) ) ;
#171 = DIRECTION ( 'NONE',  ( -3.491481338843133355E-15, 1.224646799147353207E-16, -1.000000000000000000 ) ) ;
#172 = ADVANCED_FACE ( 'NONE', ( #194 ), #123, .F. ) ;
#173 = DATE_AND_TIME ( #297, #221 ) ;
#174 = CARTESIAN_POINT ( 'NONE',  ( 7.954909718362228611E-14, 1.499999999999994005, 22.78376696407607582 ) ) ;
#175 = EDGE_LOOP ( 'NONE', ( #5 ) ) ;
#176 = CARTESIAN_POINT ( 'NONE',  ( 0.0000000000000000000, 0.0000000000000000000, 0.0000000000000000000 ) ) ;
#177 = EDGE_CURVE ( 'NONE', #132, #132, #192, .T. ) ;
#178 = MECHANICAL_CONTEXT ( 'NONE', #82, 'mechanical' ) ;
#179 = CC_DESIGN_PERSON_AND_ORGANIZATION_ASSIGNMENT ( #59, #273, ( #103 ) ) ;
#180 = CARTESIAN_POINT ( 'NONE',  ( 0.0000000000000000000, 0.0000000000000000000, 0.0000000000000000000 ) ) ;
#181 = ORIENTED_EDGE ( 'NONE', *, *, #177, .T. ) ;
#182 = EDGE_CURVE ( 'NONE', #277, #277, #276, .T. ) ;
#183 = DATE_TIME_ROLE ( 'classification_date' ) ;
#184 = EDGE_LOOP ( 'NONE', ( #145 ) ) ;
#185 = CC_DESIGN_DATE_AND_TIME_ASSIGNMENT ( #90, #183, ( #126 ) ) ;
#186 = EDGE_LOOP ( 'NONE', ( #51 ) ) ;
#187 = APPROVAL_PERSON_ORGANIZATION ( #110, #144, #249 ) ;
#188 = EDGE_LOOP ( 'NONE', ( #49 ) ) ;
#189 = EDGE_CURVE ( 'NONE', #16, #16, #98, .T. ) ;
#190 = AXIS2_PLACEMENT_3D ( 'NONE', #93, #48, #142 ) ;
#191 = DIRECTION ( 'NONE',  ( 0.0000000000000000000, 1.000000000000000000, 0.0000000000000000000 ) ) ;
#192 = CIRCLE ( 'NONE', #266, 1.500000000000001554 ) ;
#193 = CC_DESIGN_DATE_AND_TIME_ASSIGNMENT ( #247, #39, ( #103 ) ) ;
#194 = FACE_OUTER_BOUND ( 'NONE', #95, .T. ) ;
#195 = CARTESIAN_POINT ( 'NONE',  ( 8.728703347107829444E-16, -3.061616997868381785E-17, 0.2499999999999998890 ) ) ;
#196 = DIRECTION ( 'NONE',  ( 4.275831445896958607E-31, 1.000000000000000000, 1.224646799147353454E-16 ) ) ;
#197 = CIRCLE ( 'NONE', #61, 1.039999999999999813 ) ;
#198 = FACE_OUTER_BOUND ( 'NONE', #28, .T. ) ;
#199 = CARTESIAN_POINT ( 'NONE',  ( 3.491481338843133355E-14, 1.189999999999998614, 10.00000000000000000 ) ) ;
#200 = AXIS2_PLACEMENT_3D ( 'NONE', #136, #21, #71 ) ;
#201 = DIRECTION ( 'NONE',  ( 1.000000000000000000, 0.0000000000000000000, 0.0000000000000000000 ) ) ;
#202 = PERSON_AND_ORGANIZATION ( #225, #117 ) ;
#203 = VERTEX_POINT ( 'NONE', #40 ) ;
#204 = ADVANCED_FACE ( 'NONE', ( #198 ), #293, .F. ) ;
#205 = AXIS2_PLACEMENT_3D ( 'NONE', #180, #279, #64 ) ;
#206 = PERSON_AND_ORGANIZATION ( #225, #117 ) ;
#207 = ORIENTED_EDGE ( 'NONE', *, *, #177, .F. ) ;
#208 = PERSON_AND_ORGANIZATION ( #225, #117 ) ;
#209 = FACE_OUTER_BOUND ( 'NONE', #259, .T. ) ;
#210 = UNCERTAINTY_MEASURE_WITH_UNIT (LENGTH_MEASURE( 1.000000000000000082E-05 ), #17, 'distance_accuracy_value', 'NONE');
#211 = FACE_OUTER_BOUND ( 'NONE', #116, .T. ) ;
#212 = COORDINATED_UNIVERSAL_TIME_OFFSET ( 1, 0, .AHEAD. ) ;
#213 = DIRECTION ( 'NONE',  ( -4.275831445896958607E-31, -1.000000000000000000, -1.224646799147353207E-16 ) ) ;
#214 = PLANE ( 'NONE',  #58 ) ;
#215 = CARTESIAN_POINT ( 'NONE',  ( 1.745740669421566678E-13, 8.998558695971067645E-33, 50.00000000000000000 ) ) ;
#216 = PRODUCT ( '327076', '327076', '', ( #178 ) ) ;
#217 = CARTESIAN_POINT ( 'NONE',  ( 7.954909718362228611E-14, -2.790206728507497483E-15, 22.78376696407607582 ) ) ;
#218 = CARTESIAN_POINT ( 'NONE',  ( -3.181906068963012620E-31, 1.116062411444600860E-32, -9.113341187203094031E-17 ) ) ;
#219 = DIRECTION ( 'NONE',  ( -3.491481338843133355E-15, 1.224646799147353207E-16, -1.000000000000000000 ) ) ;
#220 = DIRECTION ( 'NONE',  ( -3.491481338843133355E-15, 1.224646799147353207E-16, -1.000000000000000000 ) ) ;
#221 = LOCAL_TIME ( 15, 4, 16.00000000000000000, #77 ) ;
#222 = CARTESIAN_POINT ( 'NONE',  ( 1.745740669421566678E-13, 1.199999999999995515, 50.00000000000000000 ) ) ;
#223 = VERTEX_POINT ( 'NONE', #155 ) ;
#224 = AXIS2_PLACEMENT_3D ( 'NONE', #57, #151, #167 ) ;
#225 = PERSON ( 'UNSPECIFIED', 'UNSPECIFIED', 'UNSPECIFIED', ('UNSPECIFIED'), ('UNSPECIFIED'), ('UNSPECIFIED') ) ;
#226 = VERTEX_POINT ( 'NONE', #274 ) ;
#227 = ADVANCED_FACE ( 'NONE', ( #76, #34 ), #80, .T. ) ;
#228 = CARTESIAN_POINT ( 'NONE',  ( 8.728703347107835360E-16, 1.189999999999998614, 0.2500000000000000555 ) ) ;
#229 = APPROVAL_DATE_TIME ( #258, #89 ) ;
#230 = ORIENTED_EDGE ( 'NONE', *, *, #134, .F. ) ;
#231 = CIRCLE ( 'NONE', #107, 1.070384493975580886 ) ;
#232 = CYLINDRICAL_SURFACE ( 'NONE', #205, 1.499999999999999112 ) ;
#233 = SECURITY_CLASSIFICATION_LEVEL ( 'unclassified' ) ;
#234 = ORIENTED_EDGE ( 'NONE', *, *, #189, .T. ) ;
#235 = AXIS2_PLACEMENT_3D ( 'NONE', #291, #169, #100 ) ;
#236 = ORIENTED_EDGE ( 'NONE', *, *, #271, .F. ) ;
#237 = EDGE_LOOP ( 'NONE', ( #298 ) ) ;
#238 = ORIENTED_EDGE ( 'NONE', *, *, #189, .F. ) ;
#239 = DIRECTION ( 'NONE',  ( 4.275831445896958607E-31, 1.000000000000000000, 1.224646799147353454E-16 ) ) ;
#240 = CIRCLE ( 'NONE', #280, 1.045662432702594069 ) ;
#241 = CARTESIAN_POINT ( 'NONE',  ( 6.982962677686266711E-14, -2.449293598294706513E-15, 20.00000000000000000 ) ) ;
#242 = AXIS2_PLACEMENT_3D ( 'NONE', #218, #262, #290 ) ;
#243 = DIRECTION ( 'NONE',  ( 0.0000000000000000000, -1.000000000000000000, 0.0000000000000000000 ) ) ;
#244 = CIRCLE ( 'NONE', #278, 1.189999999999998614 ) ;
#245 = CARTESIAN_POINT ( 'NONE',  ( 3.582192684931459116E-14, -1.256464056309101033E-15, 10.25980762113533729 ) ) ;
#246 = VERTEX_POINT ( 'NONE', #272 ) ;
#247 = DATE_AND_TIME ( #152, #257 ) ;
#248 = APPROVAL_STATUS ( 'not_yet_approved' ) ;
#249 = APPROVAL_ROLE ( '' ) ;
#250 =( NAMED_UNIT ( * ) PLANE_ANGLE_UNIT ( ) SI_UNIT ( $, .RADIAN. ) );
#251 = PRODUCT_DEFINITION_FORMATION_WITH_SPECIFIED_SOURCE ( 'ANY', '', #216, .NOT_KNOWN. ) ;
#252 = ADVANCED_FACE ( 'NONE', ( #97 ), #99, .F. ) ;
#253 = FACE_OUTER_BOUND ( 'NONE', #285, .T. ) ;
#254 = CLOSED_SHELL ( 'NONE', ( #172, #130, #102, #275, #227, #63, #86, #204 ) ) ;
#255 = ORIENTED_EDGE ( 'NONE', *, *, #134, .T. ) ;
#256 = FACE_BOUND ( 'NONE', #106, .T. ) ;
#257 = LOCAL_TIME ( 15, 4, 16.00000000000000000, #60 ) ;
#258 = DATE_AND_TIME ( #4, #263 ) ;
#259 = EDGE_LOOP ( 'NONE', ( #87 ) ) ;
#260 = EDGE_CURVE ( 'NONE', #109, #109, #137, .T. ) ;
#261 = DIRECTION ( 'NONE',  ( -3.491481338843133355E-15, 1.224646799147353207E-16, -1.000000000000000000 ) ) ;
#262 = DIRECTION ( 'NONE',  ( 3.491481338843133355E-15, -1.224646799147353207E-16, 1.000000000000000000 ) ) ;
#263 = LOCAL_TIME ( 15, 4, 16.00000000000000000, #212 ) ;
#264 = FACE_OUTER_BOUND ( 'NONE', #23, .T. ) ;
#265 = AXIS2_PLACEMENT_3D ( 'NONE', #26, #115, #157 ) ;
#266 = AXIS2_PLACEMENT_3D ( 'NONE', #14, #124, #35 ) ;
#267 = CYLINDRICAL_SURFACE ( 'NONE', #128, 1.039999999999999369 ) ;
#268 = FACE_OUTER_BOUND ( 'NONE', #114, .T. ) ;
#269 = DIRECTION ( 'NONE',  ( 0.0000000000000000000, 1.000000000000000000, 0.0000000000000000000 ) ) ;
#270 = CC_DESIGN_APPROVAL ( #162, ( #126 ) ) ;
#271 = EDGE_CURVE ( 'NONE', #223, #223, #240, .T. ) ;
#272 = CARTESIAN_POINT ( 'NONE',  ( 3.582192684931459116E-14, 1.039999999999997815, 10.25980762113533729 ) ) ;
#273 = PERSON_AND_ORGANIZATION_ROLE ( 'creator' ) ;
#274 = CARTESIAN_POINT ( 'NONE',  ( 7.104220552055900573E-14, 1.070384493975578444, 20.34729635533384240 ) ) ;
#275 = ADVANCED_FACE ( 'NONE', ( #121, #12 ), #88, .F. ) ;
#276 = CIRCLE ( 'NONE', #143, 1.189999999999999947 ) ;
#277 = VERTEX_POINT ( 'NONE', #199 ) ;
#278 = AXIS2_PLACEMENT_3D ( 'NONE', #195, #148, #62 ) ;
#279 = DIRECTION ( 'NONE',  ( -3.491481338843133355E-15, 1.224646799147353207E-16, -1.000000000000000000 ) ) ;
#280 = AXIS2_PLACEMENT_3D ( 'NONE', #170, #147, #239 ) ;
#281 = DATE_AND_TIME ( #6, #283 ) ;
#282 = EDGE_LOOP ( 'NONE', ( #207 ) ) ;
#283 = LOCAL_TIME ( 15, 4, 16.00000000000000000, #65 ) ;
#284 = FACE_OUTER_BOUND ( 'NONE', #139, .T. ) ;
#285 = EDGE_LOOP ( 'NONE', ( #1 ) ) ;
#286 = EDGE_CURVE ( 'NONE', #133, #133, #244, .T. ) ;
#287 = ORIENTED_EDGE ( 'NONE', *, *, #260, .F. ) ;
#288 = LOCAL_TIME ( 15, 4, 16.00000000000000000, #22 ) ;
#289 = DIRECTION ( 'NONE',  ( -3.491481338843133355E-15, 1.224646799147353207E-16, -1.000000000000000000 ) ) ;
#290 = DIRECTION ( 'NONE',  ( -4.275831445896958607E-31, -1.000000000000000000, -1.224646799147353207E-16 ) ) ;
#291 = CARTESIAN_POINT ( 'NONE',  ( 6.982962677686266711E-14, -2.602085213965210642E-15, 20.00000000000000000 ) ) ;
#292 = DIRECTION ( 'NONE',  ( 4.275831445896958607E-31, 1.000000000000000000, 1.224646799147353207E-16 ) ) ;
#293 = PLANE ( 'NONE',  #70 ) ;
#294 = APPROVAL_STATUS ( 'not_yet_approved' ) ;
#295 = APPROVAL_PERSON_ORGANIZATION ( #208, #162, #92 ) ;
#296 = CONICAL_SURFACE ( 'NONE', #190, 1.189999999999998614, 0.5235987755982925984 ) ;
#297 = CALENDAR_DATE ( 2021, 1, 12 ) ;
#298 = ORIENTED_EDGE ( 'NONE', *, *, #182, .F. ) ;
#299 = APPROVAL_ROLE ( '' ) ;
#300 = PERSON_AND_ORGANIZATION ( #225, #117 ) ;
#301 = CIRCLE ( 'NONE', #163, 1.189999999999999947 ) ;
#302 = PERSON_AND_ORGANIZATION_ROLE ( 'design_supplier' ) ;
#303 = DIRECTION ( 'NONE',  ( 0.0000000000000000000, 1.000000000000000000, 0.0000000000000000000 ) ) ;
ENDSEC;
END-ISO-10303-21;
