ISO-10303-21;
HEADER;
FILE_DESCRIPTION (( 'STEP AP203' ),
    '1' );
FILE_NAME ('327075.step',
    '2021-12-01T14:04:15',
    ( '' ),
    ( '' ),
    'SwSTEP 2.0',
    'SolidWorks 2019',
    '' );
FILE_SCHEMA (( 'CONFIG_CONTROL_DESIGN' ));
ENDSEC;

DATA;
#1 = CARTESIAN_POINT ( 'NONE',  ( 3.491481338843133355E-14, 1.184999999999998721, 10.00000000000000000 ) ) ;
#2 = LOCAL_TIME ( 15, 4, 15.00000000000000000, #266 ) ;
#3 =( NAMED_UNIT ( * ) SI_UNIT ( $, .STERADIAN. ) SOLID_ANGLE_UNIT ( ) );
#4 = CLOSED_SHELL ( 'NONE', ( #6, #267, #289, #158 ) ) ;
#5 = EDGE_LOOP ( 'NONE', ( #31 ) ) ;
#6 = ADVANCED_FACE ( 'NONE', ( #80 ), #156, .F. ) ;
#7 = DATE_TIME_ROLE ( 'creation_date' ) ;
#8 = DIRECTION ( 'NONE',  ( 3.491481338843133355E-15, -1.224646799147353207E-16, 1.000000000000000000 ) ) ;
#9 = EDGE_LOOP ( 'NONE', ( #62 ) ) ;
#10 = AXIS2_PLACEMENT_3D ( 'NONE', #200, #55, #87 ) ;
#11 = DATE_AND_TIME ( #154, #43 ) ;
#12 = DIRECTION ( 'NONE',  ( 4.275831445896958607E-31, 1.000000000000000000, 1.224646799147352961E-16 ) ) ;
#13 = LOCAL_TIME ( 15, 4, 15.00000000000000000, #198 ) ;
#14 = DIRECTION ( 'NONE',  ( -3.491481338843133355E-15, 1.224646799147353207E-16, -1.000000000000000000 ) ) ;
#15 = AXIS2_PLACEMENT_3D ( 'NONE', #72, #233, #139 ) ;
#16 = CARTESIAN_POINT ( 'NONE',  ( 1.745740669421566678E-13, 8.998558695971067645E-33, 50.00000000000000000 ) ) ;
#17 = ADVANCED_FACE ( 'NONE', ( #169, #109 ), #64, .T. ) ;
#18 = FACE_OUTER_BOUND ( 'NONE', #272, .T. ) ;
#19 = MANIFOLD_SOLID_BREP ( 'Corps-Déplacer/Copier1[1]', #202 ) ;
#20 = FACE_OUTER_BOUND ( 'NONE', #245, .T. ) ;
#21 = DIRECTION ( 'NONE',  ( 3.491481338843133355E-15, -1.224646799147353207E-16, 1.000000000000000000 ) ) ;
#22 = CIRCLE ( 'NONE', #146, 1.500000000000001554 ) ;
#23 = CALENDAR_DATE ( 2021, 1, 12 ) ;
#24 = MANIFOLD_SOLID_BREP ( 'Corps-Déplacer/Copier1[2]', #4 ) ;
#25 = EDGE_LOOP ( 'NONE', ( #215 ) ) ;
#26 =( NAMED_UNIT ( * ) PLANE_ANGLE_UNIT ( ) SI_UNIT ( $, .RADIAN. ) );
#27 = EDGE_CURVE ( 'NONE', #59, #59, #121, .T. ) ;
#28 = PERSON_AND_ORGANIZATION ( #287, #286 ) ;
#29 = PRODUCT_DEFINITION_FORMATION_WITH_SPECIFIED_SOURCE ( 'ANY', '', #157, .NOT_KNOWN. ) ;
#30 = APPROVAL ( #223, 'UNSPECIFIED' ) ;
#31 = ORIENTED_EDGE ( 'NONE', *, *, #27, .F. ) ;
#32 = DATE_AND_TIME ( #23, #2 ) ;
#33 = ORIENTED_EDGE ( 'NONE', *, *, #73, .F. ) ;
#34 = DATE_AND_TIME ( #251, #228 ) ;
#35 = DIRECTION ( 'NONE',  ( -4.275831445896958607E-31, -1.000000000000000000, -1.224646799147353207E-16 ) ) ;
#36 = CALENDAR_DATE ( 2021, 1, 12 ) ;
#37 = AXIS2_PLACEMENT_3D ( 'NONE', #170, #284, #211 ) ;
#38 = ORIENTED_EDGE ( 'NONE', *, *, #196, .T. ) ;
#39 = FACE_OUTER_BOUND ( 'NONE', #65, .T. ) ;
#40 = APPROVAL_ROLE ( '' ) ;
#41 = SECURITY_CLASSIFICATION_LEVEL ( 'unclassified' ) ;
#42 = CC_DESIGN_PERSON_AND_ORGANIZATION_ASSIGNMENT ( #61, #114, ( #29 ) ) ;
#43 = LOCAL_TIME ( 15, 4, 15.00000000000000000, #180 ) ;
#44 = FACE_OUTER_BOUND ( 'NONE', #294, .T. ) ;
#45 = CARTESIAN_POINT ( 'NONE',  ( 0.0000000000000000000, 0.0000000000000000000, 0.0000000000000000000 ) ) ;
#46 = DIRECTION ( 'NONE',  ( 0.0000000000000000000, 1.000000000000000000, 0.0000000000000000000 ) ) ;
#47 = DIRECTION ( 'NONE',  ( -3.491481338843133355E-15, 1.224646799147353207E-16, -1.000000000000000000 ) ) ;
#48 = CC_DESIGN_DATE_AND_TIME_ASSIGNMENT ( #273, #136, ( #150 ) ) ;
#49 = DIRECTION ( 'NONE',  ( 0.0000000000000000000, 1.000000000000000000, 0.0000000000000000000 ) ) ;
#50 = AXIS2_PLACEMENT_3D ( 'NONE', #231, #47, #227 ) ;
#51 = CALENDAR_DATE ( 2021, 1, 12 ) ;
#52 = AXIS2_PLACEMENT_3D ( 'NONE', #92, #91, #281 ) ;
#53 = CARTESIAN_POINT ( 'NONE',  ( 8.728703347107835360E-16, 1.184999999999998721, 0.2500000000000000555 ) ) ;
#54 = VERTEX_POINT ( 'NONE', #124 ) ;
#55 = DIRECTION ( 'NONE',  ( -3.491481338843133355E-15, 1.224646799147353207E-16, -1.000000000000000000 ) ) ;
#56 = PERSON_AND_ORGANIZATION ( #287, #286 ) ;
#57 = CC_DESIGN_APPROVAL ( #276, ( #150 ) ) ;
#58 = DIRECTION ( 'NONE',  ( 3.491481338843133355E-15, -1.224646799147353207E-16, 1.000000000000000000 ) ) ;
#59 = VERTEX_POINT ( 'NONE', #105 ) ;
#60 = ORIENTED_EDGE ( 'NONE', *, *, #186, .T. ) ;
#61 = PERSON_AND_ORGANIZATION ( #287, #286 ) ;
#62 = ORIENTED_EDGE ( 'NONE', *, *, #208, .T. ) ;
#63 = APPROVAL_DATE_TIME ( #34, #30 ) ;
#64 = CONICAL_SURFACE ( 'NONE', #204, 1.499999999999996669, 0.1745329251994260922 ) ;
#65 = EDGE_LOOP ( 'NONE', ( #85 ) ) ;
#66 = PERSON_AND_ORGANIZATION_ROLE ( 'classification_officer' ) ;
#67 = CIRCLE ( 'NONE', #10, 1.065384493975580993 ) ;
#68 = DIRECTION ( 'NONE',  ( -3.491481338843133355E-15, 1.224646799147353207E-16, -1.000000000000000000 ) ) ;
#69 = DIRECTION ( 'NONE',  ( 4.275831445896958607E-31, 1.000000000000000000, 1.224646799147353207E-16 ) ) ;
#70 = DIRECTION ( 'NONE',  ( -4.875772011106931831E-31, -1.000000000000000000, -1.372407813272792005E-16 ) ) ;
#71 = APPROVAL_PERSON_ORGANIZATION ( #275, #30, #84 ) ;
#72 = CARTESIAN_POINT ( 'NONE',  ( 7.964810305682487044E-14, -2.793679387071226666E-15, 22.81212337317416683 ) ) ;
#73 = EDGE_CURVE ( 'NONE', #291, #291, #269, .T. ) ;
#74 = AXIS2_PLACEMENT_3D ( 'NONE', #288, #58, #35 ) ;
#75 = FACE_OUTER_BOUND ( 'NONE', #246, .T. ) ;
#76 = CC_DESIGN_PERSON_AND_ORGANIZATION_ASSIGNMENT ( #113, #66, ( #150 ) ) ;
#77 = AXIS2_PLACEMENT_3D ( 'NONE', #172, #141, #69 ) ;
#78 = EDGE_CURVE ( 'NONE', #54, #54, #137, .T. ) ;
#79 = CARTESIAN_POINT ( 'NONE',  ( 1.745740669421566678E-13, 1.199999999999995515, 50.00000000000000000 ) ) ;
#80 = FACE_OUTER_BOUND ( 'NONE', #127, .T. ) ;
#81 = EDGE_LOOP ( 'NONE', ( #99 ) ) ;
#82 = AXIS2_PLACEMENT_3D ( 'NONE', #110, #153, #149 ) ;
#83 = ORIENTED_EDGE ( 'NONE', *, *, #78, .F. ) ;
#84 = APPROVAL_ROLE ( '' ) ;
#85 = ORIENTED_EDGE ( 'NONE', *, *, #192, .T. ) ;
#86 = PERSON_AND_ORGANIZATION ( #287, #286 ) ;
#87 = DIRECTION ( 'NONE',  ( 0.0000000000000000000, 1.000000000000000000, 0.0000000000000000000 ) ) ;
#88 = CONICAL_SURFACE ( 'NONE', #182, 1.200000000000001732, 0.7853981633974453924 ) ;
#89 = CC_DESIGN_DATE_AND_TIME_ASSIGNMENT ( #32, #7, ( #176 ) ) ;
#90 = DIRECTION ( 'NONE',  ( -3.491481338843133355E-15, 1.224646799147353207E-16, -1.000000000000000000 ) ) ;
#91 = DIRECTION ( 'NONE',  ( -3.491481338843133355E-15, 1.224646799147353207E-16, -1.000000000000000000 ) ) ;
#92 = CARTESIAN_POINT ( 'NONE',  ( 3.582192684931459116E-14, -1.256464056309101033E-15, 10.25980762113533729 ) ) ;
#93 = DIRECTION ( 'NONE',  ( -3.491481338843133355E-15, 1.224646799147353207E-16, -1.000000000000000000 ) ) ;
#94 = AXIS2_PLACEMENT_3D ( 'NONE', #16, #229, #118 ) ;
#95 = FACE_OUTER_BOUND ( 'NONE', #217, .T. ) ;
#96 = VERTEX_POINT ( 'NONE', #53 ) ;
#97 = EDGE_CURVE ( 'NONE', #147, #147, #67, .T. ) ;
#98 = COORDINATED_UNIVERSAL_TIME_OFFSET ( 1, 0, .AHEAD. ) ;
#99 = ORIENTED_EDGE ( 'NONE', *, *, #97, .T. ) ;
#100 = DESIGN_CONTEXT ( 'detailed design', #248, 'design' ) ;
#101 = CC_DESIGN_APPROVAL ( #30, ( #29 ) ) ;
#102 =( LENGTH_UNIT ( ) NAMED_UNIT ( * ) SI_UNIT ( .MILLI., .METRE. ) );
#103 = VERTEX_POINT ( 'NONE', #194 ) ;
#104 = ORIENTED_EDGE ( 'NONE', *, *, #186, .F. ) ;
#105 = CARTESIAN_POINT ( 'NONE',  ( -1.892735826383161356E-31, 1.040662432702594620, -5.421010862427522170E-17 ) ) ;
#106 = ADVANCED_FACE ( 'NONE', ( #177, #39 ), #292, .T. ) ;
#107 = CARTESIAN_POINT ( 'NONE',  ( -6.342432980696543153E-31, 2.224626023975893198E-32, -1.816545003444882423E-16 ) ) ;
#108 = CIRCLE ( 'NONE', #159, 1.035000000000000142 ) ;
#109 = FACE_OUTER_BOUND ( 'NONE', #9, .T. ) ;
#110 = CARTESIAN_POINT ( 'NONE',  ( 1.745740669421566678E-13, -6.123233995736766085E-15, 50.00000000000000000 ) ) ;
#111 = ADVANCED_BREP_SHAPE_REPRESENTATION ( '327075', ( #19, #24, #37 ), #219 ) ;
#112 = EDGE_LOOP ( 'NONE', ( #104 ) ) ;
#113 = PERSON_AND_ORGANIZATION ( #287, #286 ) ;
#114 = PERSON_AND_ORGANIZATION_ROLE ( 'design_supplier' ) ;
#115 = ADVANCED_FACE ( 'NONE', ( #207 ), #255, .F. ) ;
#116 = PRODUCT_DEFINITION_SHAPE ( 'NONE', 'NONE',  #176 ) ;
#117 = CARTESIAN_POINT ( 'NONE',  ( 3.491481338843133355E-14, 8.886076712271487715E-33, 10.00000000000000000 ) ) ;
#118 = DIRECTION ( 'NONE',  ( 4.275831445896958607E-31, 1.000000000000000000, 1.224646799147353207E-16 ) ) ;
#119 = DIRECTION ( 'NONE',  ( 4.275831445896958607E-31, 1.000000000000000000, 1.224646799147353454E-16 ) ) ;
#120 = DIRECTION ( 'NONE',  ( -4.275831445896958607E-31, -1.000000000000000000, -1.224646799147353207E-16 ) ) ;
#121 = CIRCLE ( 'NONE', #293, 1.040662432702594620 ) ;
#122 = VERTEX_POINT ( 'NONE', #241 ) ;
#123 = CARTESIAN_POINT ( 'NONE',  ( 7.104220552055901835E-14, 1.065384493975578772, 20.34729635533384595 ) ) ;
#124 = CARTESIAN_POINT ( 'NONE',  ( 3.582192684931459116E-14, 1.034999999999997478, 10.25980762113533729 ) ) ;
#125 = CIRCLE ( 'NONE', #131, 1.185000000000000053 ) ;
#126 = PERSON_AND_ORGANIZATION ( #287, #286 ) ;
#127 = EDGE_LOOP ( 'NONE', ( #270 ) ) ;
#128 = APPLICATION_PROTOCOL_DEFINITION ( 'international standard', 'config_control_design', 1994, #248 ) ;
#129 = EDGE_LOOP ( 'NONE', ( #236 ) ) ;
#130 = CARTESIAN_POINT ( 'NONE',  ( 3.582192684931459116E-14, -1.256464056309101033E-15, 10.25980762113533729 ) ) ;
#131 = AXIS2_PLACEMENT_3D ( 'NONE', #161, #68, #279 ) ;
#132 = ORIENTED_EDGE ( 'NONE', *, *, #192, .F. ) ;
#133 = SHAPE_DEFINITION_REPRESENTATION ( #116, #111 ) ;
#134 = EDGE_LOOP ( 'NONE', ( #242 ) ) ;
#135 = ADVANCED_FACE ( 'NONE', ( #75, #20 ), #188, .T. ) ;
#136 = DATE_TIME_ROLE ( 'classification_date' ) ;
#137 = CIRCLE ( 'NONE', #303, 1.034999999999998810 ) ;
#138 = DIRECTION ( 'NONE',  ( 3.491481338843133355E-15, -1.224646799147353207E-16, 1.000000000000000000 ) ) ;
#139 = DIRECTION ( 'NONE',  ( 0.0000000000000000000, 1.000000000000000000, 0.0000000000000000000 ) ) ;
#140 = CIRCLE ( 'NONE', #15, 1.499999999999996669 ) ;
#141 = DIRECTION ( 'NONE',  ( -3.491481338843133355E-15, 1.224646799147353207E-16, -1.000000000000000000 ) ) ;
#142 = EDGE_CURVE ( 'NONE', #122, #122, #22, .T. ) ;
#143 = FACE_BOUND ( 'NONE', #5, .T. ) ;
#144 = ADVANCED_FACE ( 'NONE', ( #95, #301 ), #88, .T. ) ;
#145 = CARTESIAN_POINT ( 'NONE',  ( 3.491481338843133355E-14, -1.224646799147353256E-15, 10.00000000000000000 ) ) ;
#146 = AXIS2_PLACEMENT_3D ( 'NONE', #278, #93, #49 ) ;
#147 = VERTEX_POINT ( 'NONE', #123 ) ;
#148 = VERTEX_POINT ( 'NONE', #263 ) ;
#149 = DIRECTION ( 'NONE',  ( 0.0000000000000000000, 1.000000000000000000, 0.0000000000000000000 ) ) ;
#150 = SECURITY_CLASSIFICATION ( '', '', #41 ) ;
#151 = DIRECTION ( 'NONE',  ( 4.275831445896958607E-31, 1.000000000000000000, 1.224646799147353207E-16 ) ) ;
#152 = ORIENTED_EDGE ( 'NONE', *, *, #208, .F. ) ;
#153 = DIRECTION ( 'NONE',  ( -3.491481338843133355E-15, 1.224646799147353207E-16, -1.000000000000000000 ) ) ;
#154 = CALENDAR_DATE ( 2021, 1, 12 ) ;
#155 = DIRECTION ( 'NONE',  ( -3.491481338843133355E-15, 1.224646799147353207E-16, -1.000000000000000000 ) ) ;
#156 = PLANE ( 'NONE',  #74 ) ;
#157 = PRODUCT ( '327075', '327075', '', ( #189 ) ) ;
#158 = ADVANCED_FACE ( 'NONE', ( #300 ), #226, .T. ) ;
#159 = AXIS2_PLACEMENT_3D ( 'NONE', #201, #254, #46 ) ;
#160 = PLANE ( 'NONE',  #94 ) ;
#161 = CARTESIAN_POINT ( 'NONE',  ( 3.491481338843133355E-14, -1.224646799147353256E-15, 10.00000000000000000 ) ) ;
#162 = FACE_OUTER_BOUND ( 'NONE', #25, .T. ) ;
#163 = FACE_OUTER_BOUND ( 'NONE', #249, .T. ) ;
#164 = DIRECTION ( 'NONE',  ( 0.0000000000000000000, 1.000000000000000000, 0.0000000000000000000 ) ) ;
#165 = VERTEX_POINT ( 'NONE', #1 ) ;
#166 = AXIS2_PLACEMENT_3D ( 'NONE', #203, #302, #181 ) ;
#167 = DATE_AND_TIME ( #51, #240 ) ;
#168 = UNCERTAINTY_MEASURE_WITH_UNIT (LENGTH_MEASURE( 1.000000000000000082E-05 ), #102, 'distance_accuracy_value', 'NONE');
#169 = FACE_BOUND ( 'NONE', #218, .T. ) ;
#170 = CARTESIAN_POINT ( 'NONE',  ( 0.0000000000000000000, 0.0000000000000000000, 0.0000000000000000000 ) ) ;
#171 = ORIENTED_EDGE ( 'NONE', *, *, #97, .F. ) ;
#172 = CARTESIAN_POINT ( 'NONE',  ( 0.0000000000000000000, 0.0000000000000000000, 0.0000000000000000000 ) ) ;
#173 = COORDINATED_UNIVERSAL_TIME_OFFSET ( 1, 0, .AHEAD. ) ;
#174 = APPLICATION_CONTEXT ( 'configuration controlled 3d designs of mechanical parts and assemblies' ) ;
#175 = DIRECTION ( 'NONE',  ( -3.491481338843133355E-15, 1.224646799147353207E-16, -1.000000000000000000 ) ) ;
#176 = PRODUCT_DEFINITION ( 'UNKNOWN', '', #29, #100 ) ;
#177 = FACE_OUTER_BOUND ( 'NONE', #195, .T. ) ;
#178 = PERSON_AND_ORGANIZATION_ROLE ( 'creator' ) ;
#179 = AXIS2_PLACEMENT_3D ( 'NONE', #117, #185, #120 ) ;
#180 = COORDINATED_UNIVERSAL_TIME_OFFSET ( 1, 0, .AHEAD. ) ;
#181 = DIRECTION ( 'NONE',  ( 4.875772011106931831E-31, 1.000000000000000000, 1.372407813272792005E-16 ) ) ;
#182 = AXIS2_PLACEMENT_3D ( 'NONE', #256, #90, #296 ) ;
#183 = FACE_OUTER_BOUND ( 'NONE', #274, .T. ) ;
#184 = FACE_OUTER_BOUND ( 'NONE', #81, .T. ) ;
#185 = DIRECTION ( 'NONE',  ( 3.491481338843133355E-15, -1.224646799147353207E-16, 1.000000000000000000 ) ) ;
#186 = EDGE_CURVE ( 'NONE', #148, #148, #297, .T. ) ;
#187 = APPROVAL_PERSON_ORGANIZATION ( #250, #276, #40 ) ;
#188 = CYLINDRICAL_SURFACE ( 'NONE', #213, 1.499999999999999112 ) ;
#189 = MECHANICAL_CONTEXT ( 'NONE', #174, 'mechanical' ) ;
#190 = CARTESIAN_POINT ( 'NONE',  ( 0.0000000000000000000, 0.0000000000000000000, 0.0000000000000000000 ) ) ;
#191 = APPROVAL_PERSON_ORGANIZATION ( #56, #232, #214 ) ;
#192 = EDGE_CURVE ( 'NONE', #103, #103, #108, .T. ) ;
#193 = CYLINDRICAL_SURFACE ( 'NONE', #277, 1.184999999999999387 ) ;
#194 = CARTESIAN_POINT ( 'NONE',  ( 6.982962677686266711E-14, 1.034999999999997700, 20.00000000000000000 ) ) ;
#195 = EDGE_LOOP ( 'NONE', ( #83 ) ) ;
#196 = EDGE_CURVE ( 'NONE', #96, #96, #298, .T. ) ;
#197 = DIRECTION ( 'NONE',  ( 0.0000000000000000000, 1.000000000000000000, 0.0000000000000000000 ) ) ;
#198 = COORDINATED_UNIVERSAL_TIME_OFFSET ( 1, 0, .AHEAD. ) ;
#199 = ORIENTED_EDGE ( 'NONE', *, *, #78, .T. ) ;
#200 = CARTESIAN_POINT ( 'NONE',  ( 7.104220552055901835E-14, -2.491825135286219831E-15, 20.34729635533384595 ) ) ;
#201 = CARTESIAN_POINT ( 'NONE',  ( 6.982962677686266711E-14, -2.449293598294706513E-15, 20.00000000000000000 ) ) ;
#202 = CLOSED_SHELL ( 'NONE', ( #115, #205, #106, #225, #17, #135, #144, #260 ) ) ;
#203 = CARTESIAN_POINT ( 'NONE',  ( 8.728703347107829444E-16, -3.061616997868381785E-17, 0.2499999999999998890 ) ) ;
#204 = AXIS2_PLACEMENT_3D ( 'NONE', #295, #8, #221 ) ;
#205 = ADVANCED_FACE ( 'NONE', ( #299, #259 ), #247, .T. ) ;
#206 = CARTESIAN_POINT ( 'NONE',  ( 8.728703347107829444E-16, -3.061616997868381785E-17, 0.2499999999999998890 ) ) ;
#207 = FACE_OUTER_BOUND ( 'NONE', #265, .T. ) ;
#208 = EDGE_CURVE ( 'NONE', #237, #237, #140, .T. ) ;
#209 = DIRECTION ( 'NONE',  ( -4.275831445896958607E-31, -1.000000000000000000, -1.224646799147353207E-16 ) ) ;
#210 = CC_DESIGN_SECURITY_CLASSIFICATION ( #150, ( #29 ) ) ;
#211 = DIRECTION ( 'NONE',  ( 1.000000000000000000, 0.0000000000000000000, 0.0000000000000000000 ) ) ;
#212 = DIRECTION ( 'NONE',  ( -3.491481338843133355E-15, 1.224646799147353207E-16, -1.000000000000000000 ) ) ;
#213 = AXIS2_PLACEMENT_3D ( 'NONE', #45, #258, #119 ) ;
#214 = APPROVAL_ROLE ( '' ) ;
#215 = ORIENTED_EDGE ( 'NONE', *, *, #196, .F. ) ;
#216 = CARTESIAN_POINT ( 'NONE',  ( 7.964810305682487044E-14, 1.499999999999994005, 22.81212337317416683 ) ) ;
#217 = EDGE_LOOP ( 'NONE', ( #222 ) ) ;
#218 = EDGE_LOOP ( 'NONE', ( #171 ) ) ;
#219 =( GEOMETRIC_REPRESENTATION_CONTEXT ( 3 ) GLOBAL_UNCERTAINTY_ASSIGNED_CONTEXT ( ( #168 ) ) GLOBAL_UNIT_ASSIGNED_CONTEXT ( ( #102, #26, #3 ) ) REPRESENTATION_CONTEXT ( 'NONE', 'WORKASPACE' ) );
#220 = AXIS2_PLACEMENT_3D ( 'NONE', #206, #138, #70 ) ;
#221 = DIRECTION ( 'NONE',  ( 0.0000000000000000000, -1.000000000000000000, 0.0000000000000000000 ) ) ;
#222 = ORIENTED_EDGE ( 'NONE', *, *, #142, .F. ) ;
#223 = APPROVAL_STATUS ( 'not_yet_approved' ) ;
#224 = APPROVAL_STATUS ( 'not_yet_approved' ) ;
#225 = ADVANCED_FACE ( 'NONE', ( #163, #184 ), #252, .F. ) ;
#226 = PLANE ( 'NONE',  #234 ) ;
#227 = DIRECTION ( 'NONE',  ( 4.275831445896958607E-31, 1.000000000000000000, 1.224646799147353207E-16 ) ) ;
#228 = LOCAL_TIME ( 15, 4, 15.00000000000000000, #173 ) ;
#229 = DIRECTION ( 'NONE',  ( -3.491481338843133355E-15, 1.224646799147353207E-16, -1.000000000000000000 ) ) ;
#230 = EDGE_CURVE ( 'NONE', #165, #165, #125, .T. ) ;
#231 = CARTESIAN_POINT ( 'NONE',  ( 6.982962677686266711E-14, -2.602085213965210642E-15, 20.00000000000000000 ) ) ;
#232 = APPROVAL ( #261, 'UNSPECIFIED' ) ;
#233 = DIRECTION ( 'NONE',  ( -3.491481338843133355E-15, 1.224646799147353207E-16, -1.000000000000000000 ) ) ;
#234 = AXIS2_PLACEMENT_3D ( 'NONE', #283, #21, #209 ) ;
#235 = PERSON_AND_ORGANIZATION_ROLE ( 'creator' ) ;
#236 = ORIENTED_EDGE ( 'NONE', *, *, #73, .T. ) ;
#237 = VERTEX_POINT ( 'NONE', #216 ) ;
#238 = APPROVAL_DATE_TIME ( #167, #232 ) ;
#239 = ORIENTED_EDGE ( 'NONE', *, *, #142, .T. ) ;
#240 = LOCAL_TIME ( 15, 4, 15.00000000000000000, #98 ) ;
#241 = CARTESIAN_POINT ( 'NONE',  ( 1.735266225405037467E-13, 1.499999999999995559, 49.70000000000000284 ) ) ;
#242 = ORIENTED_EDGE ( 'NONE', *, *, #230, .F. ) ;
#243 = CC_DESIGN_PERSON_AND_ORGANIZATION_ASSIGNMENT ( #126, #235, ( #176 ) ) ;
#244 = APPLICATION_PROTOCOL_DEFINITION ( 'international standard', 'config_control_design', 1994, #174 ) ;
#245 = EDGE_LOOP ( 'NONE', ( #239 ) ) ;
#246 = EDGE_LOOP ( 'NONE', ( #152 ) ) ;
#247 = CONICAL_SURFACE ( 'NONE', #52, 1.034999999999998810, 0.5235987755982940417 ) ;
#248 = APPLICATION_CONTEXT ( 'configuration controlled 3d designs of mechanical parts and assemblies' ) ;
#249 = EDGE_LOOP ( 'NONE', ( #132 ) ) ;
#250 = PERSON_AND_ORGANIZATION ( #287, #286 ) ;
#251 = CALENDAR_DATE ( 2021, 1, 12 ) ;
#252 = TOROIDAL_SURFACE ( 'NONE', #50, 3.035000000000000586, 2.000000000000000444 ) ;
#253 = PRODUCT_RELATED_PRODUCT_CATEGORY ( 'detail', '', ( #157 ) ) ;
#254 = DIRECTION ( 'NONE',  ( -3.491481338843133355E-15, 1.224646799147353207E-16, -1.000000000000000000 ) ) ;
#255 = PLANE ( 'NONE',  #179 ) ;
#256 = CARTESIAN_POINT ( 'NONE',  ( 1.745740669421566678E-13, -6.123233995736766085E-15, 50.00000000000000000 ) ) ;
#257 = AXIS2_PLACEMENT_3D ( 'NONE', #145, #14, #164 ) ;
#258 = DIRECTION ( 'NONE',  ( -3.491481338843133355E-15, 1.224646799147353207E-16, -1.000000000000000000 ) ) ;
#259 = FACE_BOUND ( 'NONE', #290, .T. ) ;
#260 = ADVANCED_FACE ( 'NONE', ( #183 ), #160, .F. ) ;
#261 = APPROVAL_STATUS ( 'not_yet_approved' ) ;
#262 = CONICAL_SURFACE ( 'NONE', #220, 1.184999999999998721, 0.5235987755982919323 ) ;
#263 = CARTESIAN_POINT ( 'NONE',  ( 3.491481338843133355E-14, 1.184999999999998721, 10.00000000000000000 ) ) ;
#264 = PERSON_AND_ORGANIZATION_ROLE ( 'design_owner' ) ;
#265 = EDGE_LOOP ( 'NONE', ( #60 ) ) ;
#266 = COORDINATED_UNIVERSAL_TIME_OFFSET ( 1, 0, .AHEAD. ) ;
#267 = ADVANCED_FACE ( 'NONE', ( #143, #44 ), #262, .T. ) ;
#268 = ORIENTED_EDGE ( 'NONE', *, *, #230, .T. ) ;
#269 = CIRCLE ( 'NONE', #82, 1.200000000000001732 ) ;
#270 = ORIENTED_EDGE ( 'NONE', *, *, #27, .T. ) ;
#271 = APPROVAL_DATE_TIME ( #11, #276 ) ;
#272 = EDGE_LOOP ( 'NONE', ( #268 ) ) ;
#273 = DATE_AND_TIME ( #36, #13 ) ;
#274 = EDGE_LOOP ( 'NONE', ( #33 ) ) ;
#275 = PERSON_AND_ORGANIZATION ( #287, #286 ) ;
#276 = APPROVAL ( #224, 'UNSPECIFIED' ) ;
#277 = AXIS2_PLACEMENT_3D ( 'NONE', #190, #212, #151 ) ;
#278 = CARTESIAN_POINT ( 'NONE',  ( 1.735266225405037467E-13, -6.086494591762345225E-15, 49.70000000000000284 ) ) ;
#279 = DIRECTION ( 'NONE',  ( 0.0000000000000000000, 1.000000000000000000, 0.0000000000000000000 ) ) ;
#280 = CC_DESIGN_PERSON_AND_ORGANIZATION_ASSIGNMENT ( #86, #178, ( #29 ) ) ;
#281 = DIRECTION ( 'NONE',  ( 0.0000000000000000000, 1.000000000000000000, 0.0000000000000000000 ) ) ;
#282 = CC_DESIGN_APPROVAL ( #232, ( #176 ) ) ;
#283 = CARTESIAN_POINT ( 'NONE',  ( 3.491481338843133355E-14, 8.886076712271487715E-33, 10.00000000000000000 ) ) ;
#284 = DIRECTION ( 'NONE',  ( 0.0000000000000000000, 0.0000000000000000000, 1.000000000000000000 ) ) ;
#285 = CC_DESIGN_PERSON_AND_ORGANIZATION_ASSIGNMENT ( #28, #264, ( #157 ) ) ;
#286 = ORGANIZATION ( 'UNSPECIFIED', 'UNSPECIFIED', '' ) ;
#287 = PERSON ( 'UNSPECIFIED', 'UNSPECIFIED', 'UNSPECIFIED', ('UNSPECIFIED'), ('UNSPECIFIED'), ('UNSPECIFIED') ) ;
#288 = CARTESIAN_POINT ( 'NONE',  ( -3.171216490348271576E-31, 1.112313011987946599E-32, -9.082725017224412117E-17 ) ) ;
#289 = ADVANCED_FACE ( 'NONE', ( #162, #18 ), #193, .T. ) ;
#290 = EDGE_LOOP ( 'NONE', ( #199 ) ) ;
#291 = VERTEX_POINT ( 'NONE', #79 ) ;
#292 = CYLINDRICAL_SURFACE ( 'NONE', #77, 1.034999999999999476 ) ;
#293 = AXIS2_PLACEMENT_3D ( 'NONE', #107, #175, #12 ) ;
#294 = EDGE_LOOP ( 'NONE', ( #38 ) ) ;
#295 = CARTESIAN_POINT ( 'NONE',  ( 7.964810305682487044E-14, -2.793679387071226666E-15, 22.81212337317416683 ) ) ;
#296 = DIRECTION ( 'NONE',  ( 0.0000000000000000000, 1.000000000000000000, 0.0000000000000000000 ) ) ;
#297 = CIRCLE ( 'NONE', #257, 1.185000000000000053 ) ;
#298 = CIRCLE ( 'NONE', #166, 1.184999999999998721 ) ;
#299 = FACE_OUTER_BOUND ( 'NONE', #112, .T. ) ;
#300 = FACE_OUTER_BOUND ( 'NONE', #134, .T. ) ;
#301 = FACE_BOUND ( 'NONE', #129, .T. ) ;
#302 = DIRECTION ( 'NONE',  ( -3.491481338843133355E-15, 1.224646799147353207E-16, -1.000000000000000000 ) ) ;
#303 = AXIS2_PLACEMENT_3D ( 'NONE', #130, #155, #197 ) ;
ENDSEC;
END-ISO-10303-21;
