ISO-10303-21;
HEADER;
FILE_DESCRIPTION (( 'STEP AP203' ),
    '1' );
FILE_NAME ('327074.step',
    '2021-12-01T14:04:15',
    ( '' ),
    ( '' ),
    'SwSTEP 2.0',
    'SolidWorks 2019',
    '' );
FILE_SCHEMA (( 'CONFIG_CONTROL_DESIGN' ));
ENDSEC;

DATA;
#1 = PRODUCT_DEFINITION ( 'UNKNOWN', '', #183, #3 ) ;
#2 = EDGE_LOOP ( 'NONE', ( #137 ) ) ;
#3 = DESIGN_CONTEXT ( 'detailed design', #23, 'design' ) ;
#4 = AXIS2_PLACEMENT_3D ( 'NONE', #158, #274, #247 ) ;
#5 = DIRECTION ( 'NONE',  ( -3.491481338843133355E-15, 1.224646799147353207E-16, -1.000000000000000000 ) ) ;
#6 = EDGE_LOOP ( 'NONE', ( #302 ) ) ;
#7 = DIRECTION ( 'NONE',  ( -3.491481338843133355E-15, 1.224646799147353207E-16, -1.000000000000000000 ) ) ;
#8 = EDGE_LOOP ( 'NONE', ( #126 ) ) ;
#9 = DIRECTION ( 'NONE',  ( 4.275831445896957731E-31, 1.000000000000000000, 1.224646799147353207E-16 ) ) ;
#10 = ADVANCED_BREP_SHAPE_REPRESENTATION ( '327074', ( #29, #139, #98 ), #88 ) ;
#11 = FACE_OUTER_BOUND ( 'NONE', #109, .T. ) ;
#12 = ADVANCED_FACE ( 'NONE', ( #56, #225 ), #303, .T. ) ;
#13 = ORIENTED_EDGE ( 'NONE', *, *, #66, .F. ) ;
#14 = CLOSED_SHELL ( 'NONE', ( #262, #55, #272, #255 ) ) ;
#15 = CARTESIAN_POINT ( 'NONE',  ( 3.491481338843133355E-14, 8.848582717704939633E-33, 10.00000000000000000 ) ) ;
#16 = DIRECTION ( 'NONE',  ( -3.491481338843133355E-15, 1.224646799147353207E-16, -1.000000000000000000 ) ) ;
#17 = MECHANICAL_CONTEXT ( 'NONE', #31, 'mechanical' ) ;
#18 = CC_DESIGN_APPROVAL ( #85, ( #296 ) ) ;
#19 = APPROVAL_STATUS ( 'not_yet_approved' ) ;
#20 = APPROVAL ( #278, 'UNSPECIFIED' ) ;
#21 = CARTESIAN_POINT ( 'NONE',  ( 1.735266225405037467E-13, 1.499999999999995559, 49.70000000000000284 ) ) ;
#22 = DIRECTION ( 'NONE',  ( -4.275831445896958607E-31, -1.000000000000000000, -1.224646799147353207E-16 ) ) ;
#23 = APPLICATION_CONTEXT ( 'configuration controlled 3d designs of mechanical parts and assemblies' ) ;
#24 = APPROVAL_DATE_TIME ( #259, #105 ) ;
#25 = TOROIDAL_SURFACE ( 'NONE', #4, 3.030000000000000693, 2.000000000000000444 ) ;
#26 = FACE_OUTER_BOUND ( 'NONE', #122, .T. ) ;
#27 = EDGE_LOOP ( 'NONE', ( #69 ) ) ;
#28 = EDGE_LOOP ( 'NONE', ( #73 ) ) ;
#29 = MANIFOLD_SOLID_BREP ( 'Corps-Déplacer/Copier1[1]', #94 ) ;
#30 = DIRECTION ( 'NONE',  ( 0.0000000000000000000, 1.000000000000000000, 0.0000000000000000000 ) ) ;
#31 = APPLICATION_CONTEXT ( 'configuration controlled 3d designs of mechanical parts and assemblies' ) ;
#32 = PLANE ( 'NONE',  #240 ) ;
#33 = CARTESIAN_POINT ( 'NONE',  ( 7.104220552055900573E-14, -2.491825135286219437E-15, 20.34729635533384240 ) ) ;
#34 = EDGE_LOOP ( 'NONE', ( #173 ) ) ;
#35 = PLANE ( 'NONE',  #210 ) ;
#36 = EDGE_LOOP ( 'NONE', ( #97 ) ) ;
#37 = CC_DESIGN_SECURITY_CLASSIFICATION ( #296, ( #183 ) ) ;
#38 = DIRECTION ( 'NONE',  ( -3.491481338843133355E-15, 1.224646799147353207E-16, -1.000000000000000000 ) ) ;
#39 = DIRECTION ( 'NONE',  ( -3.491481338843133355E-15, 1.224646799147353207E-16, -1.000000000000000000 ) ) ;
#40 = DIRECTION ( 'NONE',  ( -4.275831445896958607E-31, -1.000000000000000000, -1.224646799147353207E-16 ) ) ;
#41 = CARTESIAN_POINT ( 'NONE',  ( 1.745740669421566678E-13, 8.998558695971067645E-33, 50.00000000000000000 ) ) ;
#42 = PERSON_AND_ORGANIZATION_ROLE ( 'classification_officer' ) ;
#43 = PRODUCT_DEFINITION_SHAPE ( 'NONE', 'NONE',  #1 ) ;
#44 = DIRECTION ( 'NONE',  ( 4.275831445896958607E-31, 1.000000000000000000, 1.224646799147353454E-16 ) ) ;
#45 = CARTESIAN_POINT ( 'NONE',  ( 3.491481338843133355E-14, 1.179999999999998606, 10.00000000000000000 ) ) ;
#46 = ADVANCED_FACE ( 'NONE', ( #26, #284 ), #217, .T. ) ;
#47 = CARTESIAN_POINT ( 'NONE',  ( 3.582192684931459116E-14, 1.029999999999997806, 10.25980762113533729 ) ) ;
#48 = DIRECTION ( 'NONE',  ( -3.491481338843133355E-15, 1.224646799147353207E-16, -1.000000000000000000 ) ) ;
#49 = AXIS2_PLACEMENT_3D ( 'NONE', #230, #80, #79 ) ;
#50 = DIRECTION ( 'NONE',  ( 4.275831445896958607E-31, 1.000000000000000000, 1.224646799147353207E-16 ) ) ;
#51 = PLANE ( 'NONE',  #70 ) ;
#52 = APPROVAL_DATE_TIME ( #120, #85 ) ;
#53 = EDGE_CURVE ( 'NONE', #224, #224, #121, .T. ) ;
#54 = DIRECTION ( 'NONE',  ( -4.896432062001452621E-31, -1.000000000000000000, -1.378223100617168212E-16 ) ) ;
#55 = ADVANCED_FACE ( 'NONE', ( #119, #132 ), #99, .T. ) ;
#56 = FACE_OUTER_BOUND ( 'NONE', #222, .T. ) ;
#57 = LOCAL_TIME ( 15, 4, 15.00000000000000000, #89 ) ;
#58 = FACE_OUTER_BOUND ( 'NONE', #36, .T. ) ;
#59 = CARTESIAN_POINT ( 'NONE',  ( 8.728703347107829444E-16, -3.061616997868381785E-17, 0.2499999999999998890 ) ) ;
#60 = AXIS2_PLACEMENT_3D ( 'NONE', #59, #95, #54 ) ;
#61 = ADVANCED_FACE ( 'NONE', ( #293 ), #51, .F. ) ;
#62 = CARTESIAN_POINT ( 'NONE',  ( 1.735266225405037467E-13, -6.086494591762345225E-15, 49.70000000000000284 ) ) ;
#63 = CARTESIAN_POINT ( 'NONE',  ( 7.974710893002744215E-14, -2.797152045634954666E-15, 22.84047978227225073 ) ) ;
#64 = DIRECTION ( 'NONE',  ( 0.0000000000000000000, 1.000000000000000000, 0.0000000000000000000 ) ) ;
#65 = VERTEX_POINT ( 'NONE', #160 ) ;
#66 = EDGE_CURVE ( 'NONE', #180, #180, #252, .T. ) ;
#67 = VERTEX_POINT ( 'NONE', #203 ) ;
#68 = DATE_AND_TIME ( #239, #57 ) ;
#69 = ORIENTED_EDGE ( 'NONE', *, *, #123, .T. ) ;
#70 = AXIS2_PLACEMENT_3D ( 'NONE', #155, #286, #22 ) ;
#71 = APPROVAL_ROLE ( '' ) ;
#72 = PERSON_AND_ORGANIZATION ( #251, #263 ) ;
#73 = ORIENTED_EDGE ( 'NONE', *, *, #285, .T. ) ;
#74 = COORDINATED_UNIVERSAL_TIME_OFFSET ( 1, 0, .AHEAD. ) ;
#75 = CONICAL_SURFACE ( 'NONE', #289, 1.029999999999998916, 0.5235987755982928205 ) ;
#76 = EDGE_LOOP ( 'NONE', ( #197 ) ) ;
#77 = DATE_AND_TIME ( #199, #145 ) ;
#78 = EDGE_LOOP ( 'NONE', ( #179 ) ) ;
#79 = DIRECTION ( 'NONE',  ( 4.275831445896958607E-31, 1.000000000000000000, 1.224646799147353207E-16 ) ) ;
#80 = DIRECTION ( 'NONE',  ( -3.491481338843133355E-15, 1.224646799147353207E-16, -1.000000000000000000 ) ) ;
#81 = FACE_OUTER_BOUND ( 'NONE', #34, .T. ) ;
#82 = CARTESIAN_POINT ( 'NONE',  ( 0.0000000000000000000, 0.0000000000000000000, 0.0000000000000000000 ) ) ;
#83 = CARTESIAN_POINT ( 'NONE',  ( 8.728703347107835360E-16, 1.179999999999998606, 0.2500000000000000555 ) ) ;
#84 = AXIS2_PLACEMENT_3D ( 'NONE', #244, #176, #96 ) ;
#85 = APPROVAL ( #219, 'UNSPECIFIED' ) ;
#86 = AXIS2_PLACEMENT_3D ( 'NONE', #33, #16, #245 ) ;
#87 = CARTESIAN_POINT ( 'NONE',  ( 0.0000000000000000000, 0.0000000000000000000, 0.0000000000000000000 ) ) ;
#88 =( GEOMETRIC_REPRESENTATION_CONTEXT ( 3 ) GLOBAL_UNCERTAINTY_ASSIGNED_CONTEXT ( ( #125 ) ) GLOBAL_UNIT_ASSIGNED_CONTEXT ( ( #144, #236, #256 ) ) REPRESENTATION_CONTEXT ( 'NONE', 'WORKASPACE' ) );
#89 = COORDINATED_UNIVERSAL_TIME_OFFSET ( 1, 0, .AHEAD. ) ;
#90 = ORIENTED_EDGE ( 'NONE', *, *, #283, .F. ) ;
#91 = PERSON_AND_ORGANIZATION_ROLE ( 'design_supplier' ) ;
#92 = CARTESIAN_POINT ( 'NONE',  ( 6.982962677686266711E-14, -2.449293598294706513E-15, 20.00000000000000000 ) ) ;
#93 = EDGE_LOOP ( 'NONE', ( #220 ) ) ;
#94 = CLOSED_SHELL ( 'NONE', ( #61, #164, #218, #301, #127, #46, #12, #107 ) ) ;
#95 = DIRECTION ( 'NONE',  ( 3.491481338843133355E-15, -1.224646799147353207E-16, 1.000000000000000000 ) ) ;
#96 = DIRECTION ( 'NONE',  ( 0.0000000000000000000, 1.000000000000000000, 0.0000000000000000000 ) ) ;
#97 = ORIENTED_EDGE ( 'NONE', *, *, #182, .F. ) ;
#98 = AXIS2_PLACEMENT_3D ( 'NONE', #87, #213, #190 ) ;
#99 = CONICAL_SURFACE ( 'NONE', #60, 1.179999999999998606, 0.5235987755982932645 ) ;
#100 = AXIS2_PLACEMENT_3D ( 'NONE', #138, #177, #64 ) ;
#101 = DIRECTION ( 'NONE',  ( -3.491481338843133355E-15, 1.224646799147353207E-16, -1.000000000000000000 ) ) ;
#102 = CARTESIAN_POINT ( 'NONE',  ( 3.582192684931459116E-14, -1.256464056309101033E-15, 10.25980762113533729 ) ) ;
#103 = CARTESIAN_POINT ( 'NONE',  ( -1.892735826383162232E-31, 1.035662432702593838, -5.421010862427522170E-17 ) ) ;
#104 = EDGE_LOOP ( 'NONE', ( #13 ) ) ;
#105 = APPROVAL ( #19, 'UNSPECIFIED' ) ;
#106 = FACE_OUTER_BOUND ( 'NONE', #76, .T. ) ;
#107 = ADVANCED_FACE ( 'NONE', ( #280 ), #254, .F. ) ;
#108 = FACE_OUTER_BOUND ( 'NONE', #8, .T. ) ;
#109 = EDGE_LOOP ( 'NONE', ( #143 ) ) ;
#110 = CARTESIAN_POINT ( 'NONE',  ( 1.745740669421566678E-13, 1.199999999999995515, 50.00000000000000000 ) ) ;
#111 = PERSON_AND_ORGANIZATION ( #251, #263 ) ;
#112 = AXIS2_PLACEMENT_3D ( 'NONE', #232, #38, #156 ) ;
#113 = VERTEX_POINT ( 'NONE', #168 ) ;
#114 = APPLICATION_PROTOCOL_DEFINITION ( 'international standard', 'config_control_design', 1994, #23 ) ;
#115 = CC_DESIGN_PERSON_AND_ORGANIZATION_ASSIGNMENT ( #235, #91, ( #183 ) ) ;
#116 = DIRECTION ( 'NONE',  ( -3.491481338843133355E-15, 1.224646799147353207E-16, -1.000000000000000000 ) ) ;
#117 = CIRCLE ( 'NONE', #84, 1.179999999999999938 ) ;
#118 = PERSON_AND_ORGANIZATION ( #251, #263 ) ;
#119 = FACE_BOUND ( 'NONE', #104, .T. ) ;
#120 = DATE_AND_TIME ( #150, #174 ) ;
#121 = CIRCLE ( 'NONE', #209, 1.200000000000001732 ) ;
#122 = EDGE_LOOP ( 'NONE', ( #166 ) ) ;
#123 = EDGE_CURVE ( 'NONE', #65, #65, #117, .T. ) ;
#124 = CC_DESIGN_DATE_AND_TIME_ASSIGNMENT ( #77, #172, ( #296 ) ) ;
#125 = UNCERTAINTY_MEASURE_WITH_UNIT (LENGTH_MEASURE( 1.000000000000000082E-05 ), #144, 'distance_accuracy_value', 'NONE');
#126 = ORIENTED_EDGE ( 'NONE', *, *, #215, .F. ) ;
#127 = ADVANCED_FACE ( 'NONE', ( #212, #227 ), #275, .T. ) ;
#128 = DIRECTION ( 'NONE',  ( -4.275831445896958607E-31, -1.000000000000000000, -1.224646799147353207E-16 ) ) ;
#129 = CIRCLE ( 'NONE', #162, 1.500000000000001554 ) ;
#130 = FACE_OUTER_BOUND ( 'NONE', #78, .T. ) ;
#131 = EDGE_LOOP ( 'NONE', ( #136 ) ) ;
#132 = FACE_OUTER_BOUND ( 'NONE', #93, .T. ) ;
#133 = DIRECTION ( 'NONE',  ( -3.491481338843133355E-15, 1.224646799147353207E-16, -1.000000000000000000 ) ) ;
#134 = CC_DESIGN_APPROVAL ( #20, ( #1 ) ) ;
#135 = FACE_BOUND ( 'NONE', #28, .T. ) ;
#136 = ORIENTED_EDGE ( 'NONE', *, *, #229, .F. ) ;
#137 = ORIENTED_EDGE ( 'NONE', *, *, #53, .T. ) ;
#138 = CARTESIAN_POINT ( 'NONE',  ( 7.974710893002744215E-14, -2.797152045634954666E-15, 22.84047978227225073 ) ) ;
#139 = MANIFOLD_SOLID_BREP ( 'Corps-Déplacer/Copier1[2]', #14 ) ;
#140 = COORDINATED_UNIVERSAL_TIME_OFFSET ( 1, 0, .AHEAD. ) ;
#141 = EDGE_LOOP ( 'NONE', ( #231 ) ) ;
#142 = COORDINATED_UNIVERSAL_TIME_OFFSET ( 1, 0, .AHEAD. ) ;
#143 = ORIENTED_EDGE ( 'NONE', *, *, #153, .F. ) ;
#144 =( LENGTH_UNIT ( ) NAMED_UNIT ( * ) SI_UNIT ( .MILLI., .METRE. ) );
#145 = LOCAL_TIME ( 15, 4, 15.00000000000000000, #140 ) ;
#146 = AXIS2_PLACEMENT_3D ( 'NONE', #281, #39, #148 ) ;
#147 = CIRCLE ( 'NONE', #223, 1.029999999999998916 ) ;
#148 = DIRECTION ( 'NONE',  ( 0.0000000000000000000, 1.000000000000000000, 0.0000000000000000000 ) ) ;
#149 = PRODUCT_RELATED_PRODUCT_CATEGORY ( 'detail', '', ( #271 ) ) ;
#150 = CALENDAR_DATE ( 2021, 1, 12 ) ;
#151 = CARTESIAN_POINT ( 'NONE',  ( 1.745740669421566678E-13, -6.123233995736766085E-15, 50.00000000000000000 ) ) ;
#152 = LOCAL_TIME ( 15, 4, 15.00000000000000000, #188 ) ;
#153 = EDGE_CURVE ( 'NONE', #67, #67, #260, .T. ) ;
#154 = ORIENTED_EDGE ( 'NONE', *, *, #215, .T. ) ;
#155 = CARTESIAN_POINT ( 'NONE',  ( 3.491481338843133355E-14, 8.848582717704939633E-33, 10.00000000000000000 ) ) ;
#156 = DIRECTION ( 'NONE',  ( 4.896432062001452621E-31, 1.000000000000000000, 1.378223100617168212E-16 ) ) ;
#157 = DIRECTION ( 'NONE',  ( 3.491481338843133355E-15, -1.224646799147353207E-16, 1.000000000000000000 ) ) ;
#158 = CARTESIAN_POINT ( 'NONE',  ( 6.982962677686266711E-14, -2.602085213965210642E-15, 20.00000000000000000 ) ) ;
#159 = EDGE_LOOP ( 'NONE', ( #287 ) ) ;
#160 = CARTESIAN_POINT ( 'NONE',  ( 3.491481338843133355E-14, 1.179999999999998606, 10.00000000000000000 ) ) ;
#161 = AXIS2_PLACEMENT_3D ( 'NONE', #63, #234, #237 ) ;
#162 = AXIS2_PLACEMENT_3D ( 'NONE', #62, #7, #277 ) ;
#163 = PERSON_AND_ORGANIZATION ( #251, #263 ) ;
#164 = ADVANCED_FACE ( 'NONE', ( #108, #135 ), #75, .T. ) ;
#165 = APPROVAL_ROLE ( '' ) ;
#166 = ORIENTED_EDGE ( 'NONE', *, *, #269, .F. ) ;
#167 = CALENDAR_DATE ( 2021, 1, 12 ) ;
#168 = CARTESIAN_POINT ( 'NONE',  ( 7.974710893002744215E-14, 1.499999999999994005, 22.84047978227225073 ) ) ;
#169 = DATE_TIME_ROLE ( 'creation_date' ) ;
#170 = CIRCLE ( 'NONE', #112, 1.179999999999998606 ) ;
#171 = ORIENTED_EDGE ( 'NONE', *, *, #285, .F. ) ;
#172 = DATE_TIME_ROLE ( 'classification_date' ) ;
#173 = ORIENTED_EDGE ( 'NONE', *, *, #229, .T. ) ;
#174 = LOCAL_TIME ( 15, 4, 15.00000000000000000, #74 ) ;
#175 = CC_DESIGN_PERSON_AND_ORGANIZATION_ASSIGNMENT ( #118, #214, ( #183 ) ) ;
#176 = DIRECTION ( 'NONE',  ( -3.491481338843133355E-15, 1.224646799147353207E-16, -1.000000000000000000 ) ) ;
#177 = DIRECTION ( 'NONE',  ( -3.491481338843133355E-15, 1.224646799147353207E-16, -1.000000000000000000 ) ) ;
#178 = DIRECTION ( 'NONE',  ( 0.0000000000000000000, 1.000000000000000000, 0.0000000000000000000 ) ) ;
#179 = ORIENTED_EDGE ( 'NONE', *, *, #153, .T. ) ;
#180 = VERTEX_POINT ( 'NONE', #103 ) ;
#181 = DIRECTION ( 'NONE',  ( -3.491481338843133355E-15, 1.224646799147353207E-16, -1.000000000000000000 ) ) ;
#182 = EDGE_CURVE ( 'NONE', #295, #295, #170, .T. ) ;
#183 = PRODUCT_DEFINITION_FORMATION_WITH_SPECIFIED_SOURCE ( 'ANY', '', #271, .NOT_KNOWN. ) ;
#184 = VERTEX_POINT ( 'NONE', #45 ) ;
#185 = AXIS2_PLACEMENT_3D ( 'NONE', #270, #133, #250 ) ;
#186 = CARTESIAN_POINT ( 'NONE',  ( 7.104220552055900573E-14, 1.060384493975577991, 20.34729635533384240 ) ) ;
#187 = ORIENTED_EDGE ( 'NONE', *, *, #269, .T. ) ;
#188 = COORDINATED_UNIVERSAL_TIME_OFFSET ( 1, 0, .AHEAD. ) ;
#189 = APPROVAL_PERSON_ORGANIZATION ( #238, #20, #71 ) ;
#190 = DIRECTION ( 'NONE',  ( 1.000000000000000000, 0.0000000000000000000, 0.0000000000000000000 ) ) ;
#191 = AXIS2_PLACEMENT_3D ( 'NONE', #265, #116, #194 ) ;
#192 = VERTEX_POINT ( 'NONE', #186 ) ;
#193 = APPROVAL_DATE_TIME ( #299, #20 ) ;
#194 = DIRECTION ( 'NONE',  ( 4.275831445896958607E-31, 1.000000000000000000, 1.224646799147353454E-16 ) ) ;
#195 = EDGE_LOOP ( 'NONE', ( #154 ) ) ;
#196 = CC_DESIGN_PERSON_AND_ORGANIZATION_ASSIGNMENT ( #282, #42, ( #296 ) ) ;
#197 = ORIENTED_EDGE ( 'NONE', *, *, #66, .T. ) ;
#198 = CIRCLE ( 'NONE', #100, 1.499999999999996669 ) ;
#199 = CALENDAR_DATE ( 2021, 1, 12 ) ;
#200 = CC_DESIGN_DATE_AND_TIME_ASSIGNMENT ( #68, #169, ( #1 ) ) ;
#201 = EDGE_LOOP ( 'NONE', ( #187 ) ) ;
#202 = DIRECTION ( 'NONE',  ( -3.491481338843133355E-15, 1.224646799147353207E-16, -1.000000000000000000 ) ) ;
#203 = CARTESIAN_POINT ( 'NONE',  ( 6.982962677686266711E-14, 1.029999999999998028, 20.00000000000000000 ) ) ;
#204 = DIRECTION ( 'NONE',  ( -3.491481338843133355E-15, 1.224646799147353207E-16, -1.000000000000000000 ) ) ;
#205 = DIRECTION ( 'NONE',  ( 3.491481338843133355E-15, -1.224646799147353207E-16, 1.000000000000000000 ) ) ;
#206 = DIRECTION ( 'NONE',  ( 0.0000000000000000000, 1.000000000000000000, 0.0000000000000000000 ) ) ;
#207 = APPROVAL_PERSON_ORGANIZATION ( #111, #105, #165 ) ;
#208 = PERSON_AND_ORGANIZATION_ROLE ( 'creator' ) ;
#209 = AXIS2_PLACEMENT_3D ( 'NONE', #151, #101, #30 ) ;
#210 = AXIS2_PLACEMENT_3D ( 'NONE', #15, #157, #128 ) ;
#211 = SECURITY_CLASSIFICATION_LEVEL ( 'unclassified' ) ;
#212 = FACE_BOUND ( 'NONE', #131, .T. ) ;
#213 = DIRECTION ( 'NONE',  ( 0.0000000000000000000, 0.0000000000000000000, 1.000000000000000000 ) ) ;
#214 = PERSON_AND_ORGANIZATION_ROLE ( 'creator' ) ;
#215 = EDGE_CURVE ( 'NONE', #184, #184, #276, .T. ) ;
#216 = CC_DESIGN_APPROVAL ( #105, ( #183 ) ) ;
#217 = CYLINDRICAL_SURFACE ( 'NONE', #257, 1.499999999999999112 ) ;
#218 = ADVANCED_FACE ( 'NONE', ( #291, #130 ), #273, .T. ) ;
#219 = APPROVAL_STATUS ( 'not_yet_approved' ) ;
#220 = ORIENTED_EDGE ( 'NONE', *, *, #182, .T. ) ;
#221 = SHAPE_DEFINITION_REPRESENTATION ( #43, #10 ) ;
#222 = EDGE_LOOP ( 'NONE', ( #90 ) ) ;
#223 = AXIS2_PLACEMENT_3D ( 'NONE', #102, #204, #292 ) ;
#224 = VERTEX_POINT ( 'NONE', #110 ) ;
#225 = FACE_BOUND ( 'NONE', #2, .T. ) ;
#226 = CYLINDRICAL_SURFACE ( 'NONE', #261, 1.179999999999999272 ) ;
#227 = FACE_OUTER_BOUND ( 'NONE', #201, .T. ) ;
#228 = CARTESIAN_POINT ( 'NONE',  ( -3.160526911733527906E-31, 1.108563612531291517E-32, -9.052108847245725274E-17 ) ) ;
#229 = EDGE_CURVE ( 'NONE', #192, #192, #246, .T. ) ;
#230 = CARTESIAN_POINT ( 'NONE',  ( 0.0000000000000000000, 0.0000000000000000000, 0.0000000000000000000 ) ) ;
#231 = ORIENTED_EDGE ( 'NONE', *, *, #283, .T. ) ;
#232 = CARTESIAN_POINT ( 'NONE',  ( 8.728703347107829444E-16, -3.061616997868381785E-17, 0.2499999999999998890 ) ) ;
#233 = CALENDAR_DATE ( 2021, 1, 12 ) ;
#234 = DIRECTION ( 'NONE',  ( 3.491481338843133355E-15, -1.224646799147353207E-16, 1.000000000000000000 ) ) ;
#235 = PERSON_AND_ORGANIZATION ( #251, #263 ) ;
#236 =( NAMED_UNIT ( * ) PLANE_ANGLE_UNIT ( ) SI_UNIT ( $, .RADIAN. ) );
#237 = DIRECTION ( 'NONE',  ( 0.0000000000000000000, -1.000000000000000000, 0.0000000000000000000 ) ) ;
#238 = PERSON_AND_ORGANIZATION ( #251, #263 ) ;
#239 = CALENDAR_DATE ( 2021, 1, 12 ) ;
#240 = AXIS2_PLACEMENT_3D ( 'NONE', #228, #205, #40 ) ;
#241 = CC_DESIGN_PERSON_AND_ORGANIZATION_ASSIGNMENT ( #72, #208, ( #1 ) ) ;
#242 = CARTESIAN_POINT ( 'NONE',  ( 0.0000000000000000000, 0.0000000000000000000, 0.0000000000000000000 ) ) ;
#243 = PERSON_AND_ORGANIZATION ( #251, #263 ) ;
#244 = CARTESIAN_POINT ( 'NONE',  ( 3.491481338843133355E-14, -1.224646799147353256E-15, 10.00000000000000000 ) ) ;
#245 = DIRECTION ( 'NONE',  ( 0.0000000000000000000, 1.000000000000000000, 0.0000000000000000000 ) ) ;
#246 = CIRCLE ( 'NONE', #86, 1.060384493975580433 ) ;
#247 = DIRECTION ( 'NONE',  ( 4.275831445896958607E-31, 1.000000000000000000, 1.224646799147353207E-16 ) ) ;
#248 = FACE_OUTER_BOUND ( 'NONE', #6, .T. ) ;
#249 = CC_DESIGN_PERSON_AND_ORGANIZATION_ASSIGNMENT ( #163, #279, ( #271 ) ) ;
#250 = DIRECTION ( 'NONE',  ( 0.0000000000000000000, 1.000000000000000000, 0.0000000000000000000 ) ) ;
#251 = PERSON ( 'UNSPECIFIED', 'UNSPECIFIED', 'UNSPECIFIED', ('UNSPECIFIED'), ('UNSPECIFIED'), ('UNSPECIFIED') ) ;
#252 = CIRCLE ( 'NONE', #191, 1.035662432702593838 ) ;
#253 = DIRECTION ( 'NONE',  ( -3.491481338843133355E-15, 1.224646799147353207E-16, -1.000000000000000000 ) ) ;
#254 = PLANE ( 'NONE',  #266 ) ;
#255 = ADVANCED_FACE ( 'NONE', ( #248 ), #35, .T. ) ;
#256 =( NAMED_UNIT ( * ) SI_UNIT ( $, .STERADIAN. ) SOLID_ANGLE_UNIT ( ) );
#257 = AXIS2_PLACEMENT_3D ( 'NONE', #242, #5, #44 ) ;
#258 = VERTEX_POINT ( 'NONE', #47 ) ;
#259 = DATE_AND_TIME ( #167, #298 ) ;
#260 = CIRCLE ( 'NONE', #288, 1.030000000000000249 ) ;
#261 = AXIS2_PLACEMENT_3D ( 'NONE', #82, #181, #9 ) ;
#262 = ADVANCED_FACE ( 'NONE', ( #106 ), #32, .F. ) ;
#263 = ORGANIZATION ( 'UNSPECIFIED', 'UNSPECIFIED', '' ) ;
#264 = APPROVAL_ROLE ( '' ) ;
#265 = CARTESIAN_POINT ( 'NONE',  ( -6.321053823467055811E-31, 2.217127225062583034E-32, -1.810421769449145055E-16 ) ) ;
#266 = AXIS2_PLACEMENT_3D ( 'NONE', #41, #48, #50 ) ;
#267 = APPROVAL_PERSON_ORGANIZATION ( #243, #85, #264 ) ;
#268 = CARTESIAN_POINT ( 'NONE',  ( 3.582192684931459116E-14, -1.256464056309101033E-15, 10.25980762113533729 ) ) ;
#269 = EDGE_CURVE ( 'NONE', #113, #113, #198, .T. ) ;
#270 = CARTESIAN_POINT ( 'NONE',  ( 3.491481338843133355E-14, -1.224646799147353256E-15, 10.00000000000000000 ) ) ;
#271 = PRODUCT ( '327074', '327074', '', ( #17 ) ) ;
#272 = ADVANCED_FACE ( 'NONE', ( #58, #294 ), #226, .T. ) ;
#273 = CYLINDRICAL_SURFACE ( 'NONE', #49, 1.029999999999999583 ) ;
#274 = DIRECTION ( 'NONE',  ( -3.491481338843133355E-15, 1.224646799147353207E-16, -1.000000000000000000 ) ) ;
#275 = CONICAL_SURFACE ( 'NONE', #161, 1.499999999999996669, 0.1745329251994263975 ) ;
#276 = CIRCLE ( 'NONE', #185, 1.179999999999999938 ) ;
#277 = DIRECTION ( 'NONE',  ( 0.0000000000000000000, 1.000000000000000000, 0.0000000000000000000 ) ) ;
#278 = APPROVAL_STATUS ( 'not_yet_approved' ) ;
#279 = PERSON_AND_ORGANIZATION_ROLE ( 'design_owner' ) ;
#280 = FACE_OUTER_BOUND ( 'NONE', #159, .T. ) ;
#281 = CARTESIAN_POINT ( 'NONE',  ( 1.745740669421566678E-13, -6.123233995736766085E-15, 50.00000000000000000 ) ) ;
#282 = PERSON_AND_ORGANIZATION ( #251, #263 ) ;
#283 = EDGE_CURVE ( 'NONE', #300, #300, #129, .T. ) ;
#284 = FACE_OUTER_BOUND ( 'NONE', #141, .T. ) ;
#285 = EDGE_CURVE ( 'NONE', #258, #258, #147, .T. ) ;
#286 = DIRECTION ( 'NONE',  ( 3.491481338843133355E-15, -1.224646799147353207E-16, 1.000000000000000000 ) ) ;
#287 = ORIENTED_EDGE ( 'NONE', *, *, #53, .F. ) ;
#288 = AXIS2_PLACEMENT_3D ( 'NONE', #92, #253, #178 ) ;
#289 = AXIS2_PLACEMENT_3D ( 'NONE', #268, #202, #206 ) ;
#290 = EDGE_LOOP ( 'NONE', ( #171 ) ) ;
#291 = FACE_OUTER_BOUND ( 'NONE', #290, .T. ) ;
#292 = DIRECTION ( 'NONE',  ( 0.0000000000000000000, 1.000000000000000000, 0.0000000000000000000 ) ) ;
#293 = FACE_OUTER_BOUND ( 'NONE', #195, .T. ) ;
#294 = FACE_OUTER_BOUND ( 'NONE', #27, .T. ) ;
#295 = VERTEX_POINT ( 'NONE', #83 ) ;
#296 = SECURITY_CLASSIFICATION ( '', '', #211 ) ;
#297 = APPLICATION_PROTOCOL_DEFINITION ( 'international standard', 'config_control_design', 1994, #31 ) ;
#298 = LOCAL_TIME ( 15, 4, 15.00000000000000000, #142 ) ;
#299 = DATE_AND_TIME ( #233, #152 ) ;
#300 = VERTEX_POINT ( 'NONE', #21 ) ;
#301 = ADVANCED_FACE ( 'NONE', ( #11, #81 ), #25, .F. ) ;
#302 = ORIENTED_EDGE ( 'NONE', *, *, #123, .F. ) ;
#303 = CONICAL_SURFACE ( 'NONE', #146, 1.200000000000001732, 0.7853981633974453924 ) ;
ENDSEC;
END-ISO-10303-21;
