ISO-10303-21;
HEADER;
FILE_DESCRIPTION (( 'STEP AP203' ),
    '1' );
FILE_NAME ('327073.step',
    '2021-12-01T14:04:14',
    ( '' ),
    ( '' ),
    'SwSTEP 2.0',
    'SolidWorks 2019',
    '' );
FILE_SCHEMA (( 'CONFIG_CONTROL_DESIGN' ));
ENDSEC;

DATA;
#1 = CARTESIAN_POINT ( 'NONE',  ( 0.0000000000000000000, 0.0000000000000000000, 0.0000000000000000000 ) ) ;
#2 = EDGE_LOOP ( 'NONE', ( #35 ) ) ;
#3 = LOCAL_TIME ( 15, 4, 14.00000000000000000, #242 ) ;
#4 = CONICAL_SURFACE ( 'NONE', #256, 1.200000000000001732, 0.7853981633974453924 ) ;
#5 = DIRECTION ( 'NONE',  ( 4.275831445896958607E-31, 1.000000000000000000, 1.224646799147353454E-16 ) ) ;
#6 = DIRECTION ( 'NONE',  ( 0.0000000000000000000, 1.000000000000000000, 0.0000000000000000000 ) ) ;
#7 = CC_DESIGN_PERSON_AND_ORGANIZATION_ASSIGNMENT ( #97, #154, ( #240 ) ) ;
#8 = EDGE_LOOP ( 'NONE', ( #178 ) ) ;
#9 = APPROVAL_DATE_TIME ( #148, #62 ) ;
#10 = LOCAL_TIME ( 15, 4, 14.00000000000000000, #60 ) ;
#11 = ORIENTED_EDGE ( 'NONE', *, *, #287, .F. ) ;
#12 = AXIS2_PLACEMENT_3D ( 'NONE', #58, #220, #90 ) ;
#13 = DIRECTION ( 'NONE',  ( 3.491481338843133355E-15, -1.224646799147353207E-16, 1.000000000000000000 ) ) ;
#14 = FACE_OUTER_BOUND ( 'NONE', #37, .T. ) ;
#15 = EDGE_LOOP ( 'NONE', ( #217 ) ) ;
#16 = VERTEX_POINT ( 'NONE', #109 ) ;
#17 = DIRECTION ( 'NONE',  ( 0.0000000000000000000, 1.000000000000000000, 0.0000000000000000000 ) ) ;
#18 = FACE_OUTER_BOUND ( 'NONE', #199, .T. ) ;
#19 = CARTESIAN_POINT ( 'NONE',  ( 8.728703347107835360E-16, 1.169999999999998819, 0.2500000000000000555 ) ) ;
#20 = AXIS2_PLACEMENT_3D ( 'NONE', #171, #300, #234 ) ;
#21 = PERSON_AND_ORGANIZATION ( #183, #41 ) ;
#22 = FACE_OUTER_BOUND ( 'NONE', #134, .T. ) ;
#23 = ORIENTED_EDGE ( 'NONE', *, *, #201, .T. ) ;
#24 = APPLICATION_PROTOCOL_DEFINITION ( 'international standard', 'config_control_design', 1994, #286 ) ;
#25 = ORIENTED_EDGE ( 'NONE', *, *, #181, .T. ) ;
#26 = DIRECTION ( 'NONE',  ( 4.275831445896959482E-31, 1.000000000000000000, 1.224646799147353207E-16 ) ) ;
#27 = APPROVAL ( #119, 'UNSPECIFIED' ) ;
#28 = APPROVAL_ROLE ( '' ) ;
#29 = MANIFOLD_SOLID_BREP ( 'Corps-Déplacer/Copier1[1]', #252 ) ;
#30 = ADVANCED_FACE ( 'NONE', ( #299, #155 ), #102, .T. ) ;
#31 = SECURITY_CLASSIFICATION ( '', '', #51 ) ;
#32 = AXIS2_PLACEMENT_3D ( 'NONE', #142, #139, #268 ) ;
#33 =( NAMED_UNIT ( * ) SI_UNIT ( $, .STERADIAN. ) SOLID_ANGLE_UNIT ( ) );
#34 = EDGE_LOOP ( 'NONE', ( #267 ) ) ;
#35 = ORIENTED_EDGE ( 'NONE', *, *, #137, .F. ) ;
#36 = DIRECTION ( 'NONE',  ( 4.938281908685225144E-31, 1.000000000000000000, 1.390002785237827607E-16 ) ) ;
#37 = EDGE_LOOP ( 'NONE', ( #43 ) ) ;
#38 = VERTEX_POINT ( 'NONE', #170 ) ;
#39 = PLANE ( 'NONE',  #32 ) ;
#40 = ORIENTED_EDGE ( 'NONE', *, *, #181, .F. ) ;
#41 = ORGANIZATION ( 'UNSPECIFIED', 'UNSPECIFIED', '' ) ;
#42 = CARTESIAN_POINT ( 'NONE',  ( 7.994512067643261081E-14, -2.804097362762412637E-15, 22.89719260046843274 ) ) ;
#43 = ORIENTED_EDGE ( 'NONE', *, *, #137, .T. ) ;
#44 = FACE_OUTER_BOUND ( 'NONE', #100, .T. ) ;
#45 = VERTEX_POINT ( 'NONE', #298 ) ;
#46 = VERTEX_POINT ( 'NONE', #185 ) ;
#47 = CARTESIAN_POINT ( 'NONE',  ( 3.491481338843133355E-14, 8.773594728571848942E-33, 10.00000000000000000 ) ) ;
#48 = COORDINATED_UNIVERSAL_TIME_OFFSET ( 1, 0, .AHEAD. ) ;
#49 = CIRCLE ( 'NONE', #175, 1.200000000000001732 ) ;
#50 = DIRECTION ( 'NONE',  ( 3.491481338843133355E-15, -1.224646799147353207E-16, 1.000000000000000000 ) ) ;
#51 = SECURITY_CLASSIFICATION_LEVEL ( 'unclassified' ) ;
#52 = CC_DESIGN_PERSON_AND_ORGANIZATION_ASSIGNMENT ( #151, #194, ( #278 ) ) ;
#53 = FACE_BOUND ( 'NONE', #124, .T. ) ;
#54 = DATE_AND_TIME ( #236, #3 ) ;
#55 = CIRCLE ( 'NONE', #264, 1.169999999999999929 ) ;
#56 = DIRECTION ( 'NONE',  ( 0.0000000000000000000, 1.000000000000000000, 0.0000000000000000000 ) ) ;
#57 = APPROVAL ( #301, 'UNSPECIFIED' ) ;
#58 = CARTESIAN_POINT ( 'NONE',  ( 6.982962677686266711E-14, -2.602085213965210642E-15, 20.00000000000000000 ) ) ;
#59 = CARTESIAN_POINT ( 'NONE',  ( 3.491481338843133355E-14, -1.224646799147353256E-15, 10.00000000000000000 ) ) ;
#60 = COORDINATED_UNIVERSAL_TIME_OFFSET ( 1, 0, .AHEAD. ) ;
#61 = AXIS2_PLACEMENT_3D ( 'NONE', #80, #161, #215 ) ;
#62 = APPROVAL ( #239, 'UNSPECIFIED' ) ;
#63 = DIRECTION ( 'NONE',  ( 0.0000000000000000000, -1.000000000000000000, 0.0000000000000000000 ) ) ;
#64 = AXIS2_PLACEMENT_3D ( 'NONE', #42, #91, #254 ) ;
#65 = DIRECTION ( 'NONE',  ( 3.491481338843133355E-15, -1.224646799147353207E-16, 1.000000000000000000 ) ) ;
#66 = CARTESIAN_POINT ( 'NONE',  ( 3.582192684931459116E-14, 1.019999999999997797, 10.25980762113533729 ) ) ;
#67 = FACE_OUTER_BOUND ( 'NONE', #295, .T. ) ;
#68 = DIRECTION ( 'NONE',  ( -3.491481338843133355E-15, 1.224646799147353207E-16, -1.000000000000000000 ) ) ;
#69 = ORIENTED_EDGE ( 'NONE', *, *, #260, .T. ) ;
#70 = DIRECTION ( 'NONE',  ( 0.0000000000000000000, 1.000000000000000000, 0.0000000000000000000 ) ) ;
#71 = PERSON_AND_ORGANIZATION ( #183, #41 ) ;
#72 = COORDINATED_UNIVERSAL_TIME_OFFSET ( 1, 0, .AHEAD. ) ;
#73 = ADVANCED_FACE ( 'NONE', ( #153, #44 ), #88, .T. ) ;
#74 = CIRCLE ( 'NONE', #280, 1.050384493975581757 ) ;
#75 = EDGE_LOOP ( 'NONE', ( #107 ) ) ;
#76 = PERSON_AND_ORGANIZATION_ROLE ( 'design_supplier' ) ;
#77 = DATE_AND_TIME ( #282, #121 ) ;
#78 = DIRECTION ( 'NONE',  ( 0.0000000000000000000, 0.0000000000000000000, 1.000000000000000000 ) ) ;
#79 = CC_DESIGN_DATE_AND_TIME_ASSIGNMENT ( #54, #173, ( #31 ) ) ;
#80 = CARTESIAN_POINT ( 'NONE',  ( 0.0000000000000000000, 0.0000000000000000000, 0.0000000000000000000 ) ) ;
#81 = EDGE_LOOP ( 'NONE', ( #143 ) ) ;
#82 = CC_DESIGN_PERSON_AND_ORGANIZATION_ASSIGNMENT ( #259, #76, ( #278 ) ) ;
#83 = CLOSED_SHELL ( 'NONE', ( #212, #237, #30, #150 ) ) ;
#84 = CIRCLE ( 'NONE', #206, 1.019999999999999796 ) ;
#85 = CARTESIAN_POINT ( 'NONE',  ( 1.745740669421566678E-13, -6.123233995736766085E-15, 50.00000000000000000 ) ) ;
#86 = DIRECTION ( 'NONE',  ( 0.0000000000000000000, 1.000000000000000000, 0.0000000000000000000 ) ) ;
#87 = CARTESIAN_POINT ( 'NONE',  ( 1.745740669421566678E-13, 8.998558695971067645E-33, 50.00000000000000000 ) ) ;
#88 = CYLINDRICAL_SURFACE ( 'NONE', #205, 1.019999999999999352 ) ;
#89 = VERTEX_POINT ( 'NONE', #190 ) ;
#90 = DIRECTION ( 'NONE',  ( 4.275831445896957731E-31, 1.000000000000000000, 1.224646799147353207E-16 ) ) ;
#91 = DIRECTION ( 'NONE',  ( -3.491481338843133355E-15, 1.224646799147353207E-16, -1.000000000000000000 ) ) ;
#92 = DIRECTION ( 'NONE',  ( 1.000000000000000000, 0.0000000000000000000, 0.0000000000000000000 ) ) ;
#93 = DIRECTION ( 'NONE',  ( -3.491481338843133355E-15, 1.224646799147353207E-16, -1.000000000000000000 ) ) ;
#94 = LOCAL_TIME ( 15, 4, 14.00000000000000000, #48 ) ;
#95 = TOROIDAL_SURFACE ( 'NONE', #12, 3.020000000000000018, 2.000000000000000000 ) ;
#96 = DIRECTION ( 'NONE',  ( -3.491481338843133355E-15, 1.224646799147353207E-16, -1.000000000000000000 ) ) ;
#97 = PERSON_AND_ORGANIZATION ( #183, #41 ) ;
#98 = ADVANCED_FACE ( 'NONE', ( #118, #132 ), #95, .F. ) ;
#99 = FACE_OUTER_BOUND ( 'NONE', #75, .T. ) ;
#100 = EDGE_LOOP ( 'NONE', ( #23 ) ) ;
#101 = MECHANICAL_CONTEXT ( 'NONE', #286, 'mechanical' ) ;
#102 = CYLINDRICAL_SURFACE ( 'NONE', #61, 1.169999999999999485 ) ;
#103 = AXIS2_PLACEMENT_3D ( 'NONE', #233, #13, #207 ) ;
#104 = DIRECTION ( 'NONE',  ( -3.491481338843133355E-15, 1.224646799147353207E-16, -1.000000000000000000 ) ) ;
#105 = EDGE_CURVE ( 'NONE', #209, #209, #269, .T. ) ;
#106 = ORIENTED_EDGE ( 'NONE', *, *, #166, .F. ) ;
#107 = ORIENTED_EDGE ( 'NONE', *, *, #287, .T. ) ;
#108 = CARTESIAN_POINT ( 'NONE',  ( 3.582192684931459116E-14, -1.256464056309101033E-15, 10.25980762113533729 ) ) ;
#109 = CARTESIAN_POINT ( 'NONE',  ( 6.982962677686266711E-14, 1.019999999999997575, 20.00000000000000000 ) ) ;
#110 = ADVANCED_FACE ( 'NONE', ( #149, #22 ), #241, .T. ) ;
#111 = CONICAL_SURFACE ( 'NONE', #293, 1.019999999999998908, 0.5235987755982934866 ) ;
#112 = DIRECTION ( 'NONE',  ( -4.275831445896958607E-31, -1.000000000000000000, -1.224646799147353207E-16 ) ) ;
#113 = ORIENTED_EDGE ( 'NONE', *, *, #238, .T. ) ;
#114 = CARTESIAN_POINT ( 'NONE',  ( 1.745740669421566678E-13, 1.199999999999995515, 50.00000000000000000 ) ) ;
#115 = CARTESIAN_POINT ( 'NONE',  ( 6.982962677686266711E-14, -2.449293598294706513E-15, 20.00000000000000000 ) ) ;
#116 = PLANE ( 'NONE',  #147 ) ;
#117 = DIRECTION ( 'NONE',  ( 0.0000000000000000000, 1.000000000000000000, 0.0000000000000000000 ) ) ;
#118 = FACE_OUTER_BOUND ( 'NONE', #8, .T. ) ;
#119 = APPROVAL_STATUS ( 'not_yet_approved' ) ;
#120 = DATE_TIME_ROLE ( 'creation_date' ) ;
#121 = LOCAL_TIME ( 15, 4, 14.00000000000000000, #122 ) ;
#122 = COORDINATED_UNIVERSAL_TIME_OFFSET ( 1, 0, .AHEAD. ) ;
#123 = CONICAL_SURFACE ( 'NONE', #289, 1.499999999999996669, 0.1745329251994260089 ) ;
#124 = EDGE_LOOP ( 'NONE', ( #113 ) ) ;
#125 =( LENGTH_UNIT ( ) NAMED_UNIT ( * ) SI_UNIT ( .MILLI., .METRE. ) );
#126 = UNCERTAINTY_MEASURE_WITH_UNIT (LENGTH_MEASURE( 1.000000000000000082E-05 ), #125, 'distance_accuracy_value', 'NONE');
#127 = CC_DESIGN_APPROVAL ( #57, ( #303 ) ) ;
#128 = AXIS2_PLACEMENT_3D ( 'NONE', #272, #68, #227 ) ;
#129 = CC_DESIGN_DATE_AND_TIME_ASSIGNMENT ( #221, #120, ( #303 ) ) ;
#130 = APPROVAL_ROLE ( '' ) ;
#131 = ORIENTED_EDGE ( 'NONE', *, *, #238, .F. ) ;
#132 = FACE_OUTER_BOUND ( 'NONE', #34, .T. ) ;
#133 = AXIS2_PLACEMENT_3D ( 'NONE', #1, #78, #92 ) ;
#134 = EDGE_LOOP ( 'NONE', ( #176 ) ) ;
#135 = MANIFOLD_SOLID_BREP ( 'Corps-Déplacer/Copier1[2]', #83 ) ;
#136 = FACE_BOUND ( 'NONE', #81, .T. ) ;
#137 = EDGE_CURVE ( 'NONE', #38, #38, #55, .T. ) ;
#138 = PRODUCT_DEFINITION_SHAPE ( 'NONE', 'NONE',  #303 ) ;
#139 = DIRECTION ( 'NONE',  ( 3.491481338843133355E-15, -1.224646799147353207E-16, 1.000000000000000000 ) ) ;
#140 = APPROVAL_PERSON_ORGANIZATION ( #277, #57, #130 ) ;
#141 = ADVANCED_FACE ( 'NONE', ( #290, #53 ), #4, .T. ) ;
#142 = CARTESIAN_POINT ( 'NONE',  ( 3.491481338843133355E-14, 8.773594728571848942E-33, 10.00000000000000000 ) ) ;
#143 = ORIENTED_EDGE ( 'NONE', *, *, #260, .F. ) ;
#144 = DIRECTION ( 'NONE',  ( 0.0000000000000000000, 1.000000000000000000, 0.0000000000000000000 ) ) ;
#145 = DIRECTION ( 'NONE',  ( 4.275831445896958607E-31, 1.000000000000000000, 1.224646799147353207E-16 ) ) ;
#146 = APPROVAL_PERSON_ORGANIZATION ( #21, #27, #28 ) ;
#147 = AXIS2_PLACEMENT_3D ( 'NONE', #47, #50, #243 ) ;
#148 = DATE_AND_TIME ( #261, #94 ) ;
#149 = FACE_OUTER_BOUND ( 'NONE', #193, .T. ) ;
#150 = ADVANCED_FACE ( 'NONE', ( #18 ), #116, .T. ) ;
#151 = PERSON_AND_ORGANIZATION ( #183, #41 ) ;
#152 = CARTESIAN_POINT ( 'NONE',  ( 0.0000000000000000000, 0.0000000000000000000, 0.0000000000000000000 ) ) ;
#153 = FACE_OUTER_BOUND ( 'NONE', #247, .T. ) ;
#154 = PERSON_AND_ORGANIZATION_ROLE ( 'design_owner' ) ;
#156 = ORIENTED_EDGE ( 'NONE', *, *, #105, .F. ) ;
#155 = FACE_OUTER_BOUND ( 'NONE', #15, .T. ) ;
#157 = DESIGN_CONTEXT ( 'detailed design', #291, 'design' ) ;
#158 = CARTESIAN_POINT ( 'NONE',  ( 1.745740669421566678E-13, -6.123233995736766085E-15, 50.00000000000000000 ) ) ;
#159 = ADVANCED_FACE ( 'NONE', ( #180, #99 ), #123, .T. ) ;
#160 = CALENDAR_DATE ( 2021, 1, 12 ) ;
#161 = DIRECTION ( 'NONE',  ( -3.491481338843133355E-15, 1.224646799147353207E-16, -1.000000000000000000 ) ) ;
#162 = AXIS2_PLACEMENT_3D ( 'NONE', #279, #214, #5 ) ;
#163 = CIRCLE ( 'NONE', #20, 1.025662432702594273 ) ;
#164 = DIRECTION ( 'NONE',  ( -3.491481338843133355E-15, 1.224646799147353207E-16, -1.000000000000000000 ) ) ;
#165 = VERTEX_POINT ( 'NONE', #114 ) ;
#166 = EDGE_CURVE ( 'NONE', #274, #274, #302, .T. ) ;
#167 = FACE_OUTER_BOUND ( 'NONE', #223, .T. ) ;
#168 = AXIS2_PLACEMENT_3D ( 'NONE', #231, #225, #6 ) ;
#169 = ORIENTED_EDGE ( 'NONE', *, *, #246, .F. ) ;
#170 = CARTESIAN_POINT ( 'NONE',  ( 3.491481338843133355E-14, 1.169999999999998819, 10.00000000000000000 ) ) ;
#171 = CARTESIAN_POINT ( 'NONE',  ( -6.278295509008087259E-31, 2.202129627235964896E-32, -1.798175301457671796E-16 ) ) ;
#172 = CC_DESIGN_PERSON_AND_ORGANIZATION_ASSIGNMENT ( #71, #177, ( #31 ) ) ;
#173 = DATE_TIME_ROLE ( 'classification_date' ) ;
#174 = PERSON_AND_ORGANIZATION ( #183, #41 ) ;
#175 = AXIS2_PLACEMENT_3D ( 'NONE', #85, #204, #117 ) ;
#176 = ORIENTED_EDGE ( 'NONE', *, *, #232, .T. ) ;
#177 = PERSON_AND_ORGANIZATION_ROLE ( 'classification_officer' ) ;
#178 = ORIENTED_EDGE ( 'NONE', *, *, #201, .F. ) ;
#179 = APPROVAL_DATE_TIME ( #213, #57 ) ;
#180 = FACE_BOUND ( 'NONE', #184, .T. ) ;
#181 = EDGE_CURVE ( 'NONE', #230, #230, #219, .T. ) ;
#182 = PERSON_AND_ORGANIZATION ( #183, #41 ) ;
#183 = PERSON ( 'UNSPECIFIED', 'UNSPECIFIED', 'UNSPECIFIED', ('UNSPECIFIED'), ('UNSPECIFIED'), ('UNSPECIFIED') ) ;
#184 = EDGE_LOOP ( 'NONE', ( #169 ) ) ;
#185 = CARTESIAN_POINT ( 'NONE',  ( 1.735266225405037467E-13, 1.499999999999995559, 49.70000000000000284 ) ) ;
#186 = CARTESIAN_POINT ( 'NONE',  ( 3.582192684931459116E-14, -1.256464056309101033E-15, 10.25980762113533729 ) ) ;
#187 = EDGE_LOOP ( 'NONE', ( #195 ) ) ;
#188 = CARTESIAN_POINT ( 'NONE',  ( 7.104220552055901835E-14, -2.491825135286219831E-15, 20.34729635533384595 ) ) ;
#189 = AXIS2_PLACEMENT_3D ( 'NONE', #218, #276, #36 ) ;
#190 = CARTESIAN_POINT ( 'NONE',  ( 7.994512067643261081E-14, 1.499999999999994005, 22.89719260046843274 ) ) ;
#191 = CALENDAR_DATE ( 2021, 1, 12 ) ;
#192 = ADVANCED_FACE ( 'NONE', ( #292, #224 ), #111, .T. ) ;
#193 = EDGE_LOOP ( 'NONE', ( #11 ) ) ;
#194 = PERSON_AND_ORGANIZATION_ROLE ( 'creator' ) ;
#195 = ORIENTED_EDGE ( 'NONE', *, *, #232, .F. ) ;
#196 = APPLICATION_PROTOCOL_DEFINITION ( 'international standard', 'config_control_design', 1994, #291 ) ;
#197 = ADVANCED_FACE ( 'NONE', ( #14 ), #39, .F. ) ;
#198 = AXIS2_PLACEMENT_3D ( 'NONE', #87, #164, #145 ) ;
#199 = EDGE_LOOP ( 'NONE', ( #106 ) ) ;
#200 = EDGE_LOOP ( 'NONE', ( #69 ) ) ;
#201 = EDGE_CURVE ( 'NONE', #16, #16, #84, .T. ) ;
#202 = APPROVAL_DATE_TIME ( #77, #27 ) ;
#203 = CC_DESIGN_APPROVAL ( #27, ( #31 ) ) ;
#204 = DIRECTION ( 'NONE',  ( -3.491481338843133355E-15, 1.224646799147353207E-16, -1.000000000000000000 ) ) ;
#205 = AXIS2_PLACEMENT_3D ( 'NONE', #152, #104, #26 ) ;
#206 = AXIS2_PLACEMENT_3D ( 'NONE', #115, #271, #144 ) ;
#207 = DIRECTION ( 'NONE',  ( -4.938281908685225144E-31, -1.000000000000000000, -1.390002785237827607E-16 ) ) ;
#208 = CARTESIAN_POINT ( 'NONE',  ( 7.994512067643261081E-14, -2.804097362762412637E-15, 22.89719260046843274 ) ) ;
#209 = VERTEX_POINT ( 'NONE', #19 ) ;
#210 = FACE_OUTER_BOUND ( 'NONE', #200, .T. ) ;
#211 = PLANE ( 'NONE',  #235 ) ;
#212 = ADVANCED_FACE ( 'NONE', ( #210 ), #211, .F. ) ;
#213 = DATE_AND_TIME ( #160, #255 ) ;
#214 = DIRECTION ( 'NONE',  ( -3.491481338843133355E-15, 1.224646799147353207E-16, -1.000000000000000000 ) ) ;
#215 = DIRECTION ( 'NONE',  ( 4.275831445896958607E-31, 1.000000000000000000, 1.224646799147353207E-16 ) ) ;
#216 =( NAMED_UNIT ( * ) PLANE_ANGLE_UNIT ( ) SI_UNIT ( $, .RADIAN. ) );
#217 = ORIENTED_EDGE ( 'NONE', *, *, #166, .T. ) ;
#218 = CARTESIAN_POINT ( 'NONE',  ( 8.728703347107829444E-16, -3.061616997868381785E-17, 0.2499999999999998890 ) ) ;
#219 = CIRCLE ( 'NONE', #257, 1.019999999999998908 ) ;
#220 = DIRECTION ( 'NONE',  ( -3.491481338843133355E-15, 1.224646799147353207E-16, -1.000000000000000000 ) ) ;
#221 = DATE_AND_TIME ( #191, #10 ) ;
#222 = DIRECTION ( 'NONE',  ( 3.491481338843133355E-15, -1.224646799147353207E-16, 1.000000000000000000 ) ) ;
#223 = EDGE_LOOP ( 'NONE', ( #131 ) ) ;
#224 = FACE_BOUND ( 'NONE', #288, .T. ) ;
#225 = DIRECTION ( 'NONE',  ( -3.491481338843133355E-15, 1.224646799147353207E-16, -1.000000000000000000 ) ) ;
#226 =( GEOMETRIC_REPRESENTATION_CONTEXT ( 3 ) GLOBAL_UNCERTAINTY_ASSIGNED_CONTEXT ( ( #126 ) ) GLOBAL_UNIT_ASSIGNED_CONTEXT ( ( #125, #216, #33 ) ) REPRESENTATION_CONTEXT ( 'NONE', 'WORKASPACE' ) );
#227 = DIRECTION ( 'NONE',  ( 0.0000000000000000000, 1.000000000000000000, 0.0000000000000000000 ) ) ;
#228 = EDGE_LOOP ( 'NONE', ( #156 ) ) ;
#229 = SHAPE_DEFINITION_REPRESENTATION ( #138, #262 ) ;
#230 = VERTEX_POINT ( 'NONE', #66 ) ;
#231 = CARTESIAN_POINT ( 'NONE',  ( 3.491481338843133355E-14, -1.224646799147353256E-15, 10.00000000000000000 ) ) ;
#232 = EDGE_CURVE ( 'NONE', #46, #46, #285, .T. ) ;
#233 = CARTESIAN_POINT ( 'NONE',  ( 8.728703347107829444E-16, -3.061616997868381785E-17, 0.2499999999999998890 ) ) ;
#234 = DIRECTION ( 'NONE',  ( 4.275831445896958607E-31, 1.000000000000000000, 1.224646799147353207E-16 ) ) ;
#235 = AXIS2_PLACEMENT_3D ( 'NONE', #275, #65, #112 ) ;
#236 = CALENDAR_DATE ( 2021, 1, 12 ) ;
#237 = ADVANCED_FACE ( 'NONE', ( #136, #67 ), #270, .T. ) ;
#238 = EDGE_CURVE ( 'NONE', #165, #165, #49, .T. ) ;
#239 = APPROVAL_STATUS ( 'not_yet_approved' ) ;
#240 = PRODUCT ( '327073', '327073', '', ( #101 ) ) ;
#241 = CYLINDRICAL_SURFACE ( 'NONE', #162, 1.499999999999999112 ) ;
#242 = COORDINATED_UNIVERSAL_TIME_OFFSET ( 1, 0, .AHEAD. ) ;
#243 = DIRECTION ( 'NONE',  ( -4.275831445896958607E-31, -1.000000000000000000, -1.224646799147353207E-16 ) ) ;
#244 = APPROVAL_PERSON_ORGANIZATION ( #174, #62, #281 ) ;
#245 = CIRCLE ( 'NONE', #64, 1.499999999999996669 ) ;
#246 = EDGE_CURVE ( 'NONE', #296, #296, #74, .T. ) ;
#247 = EDGE_LOOP ( 'NONE', ( #40 ) ) ;
#248 = CARTESIAN_POINT ( 'NONE',  ( 3.491481338843133355E-14, 1.169999999999998819, 10.00000000000000000 ) ) ;
#249 = DIRECTION ( 'NONE',  ( -3.491481338843133355E-15, 1.224646799147353207E-16, -1.000000000000000000 ) ) ;
#250 = CC_DESIGN_APPROVAL ( #62, ( #278 ) ) ;
#251 = PLANE ( 'NONE',  #198 ) ;
#252 = CLOSED_SHELL ( 'NONE', ( #197, #192, #73, #98, #159, #110, #141, #265 ) ) ;
#253 = CARTESIAN_POINT ( 'NONE',  ( 7.104220552055901835E-14, 1.050384493975579314, 20.34729635533384595 ) ) ;
#254 = DIRECTION ( 'NONE',  ( 0.0000000000000000000, 1.000000000000000000, 0.0000000000000000000 ) ) ;
#255 = LOCAL_TIME ( 15, 4, 14.00000000000000000, #72 ) ;
#256 = AXIS2_PLACEMENT_3D ( 'NONE', #158, #283, #263 ) ;
#257 = AXIS2_PLACEMENT_3D ( 'NONE', #108, #93, #17 ) ;
#258 = CC_DESIGN_PERSON_AND_ORGANIZATION_ASSIGNMENT ( #182, #266, ( #303 ) ) ;
#259 = PERSON_AND_ORGANIZATION ( #183, #41 ) ;
#260 = EDGE_CURVE ( 'NONE', #45, #45, #163, .T. ) ;
#261 = CALENDAR_DATE ( 2021, 1, 12 ) ;
#262 = ADVANCED_BREP_SHAPE_REPRESENTATION ( '327073', ( #29, #135, #133 ), #226 ) ;
#263 = DIRECTION ( 'NONE',  ( 0.0000000000000000000, 1.000000000000000000, 0.0000000000000000000 ) ) ;
#264 = AXIS2_PLACEMENT_3D ( 'NONE', #59, #96, #56 ) ;
#265 = ADVANCED_FACE ( 'NONE', ( #167 ), #251, .F. ) ;
#266 = PERSON_AND_ORGANIZATION_ROLE ( 'creator' ) ;
#267 = ORIENTED_EDGE ( 'NONE', *, *, #246, .T. ) ;
#268 = DIRECTION ( 'NONE',  ( -4.275831445896958607E-31, -1.000000000000000000, -1.224646799147353207E-16 ) ) ;
#269 = CIRCLE ( 'NONE', #189, 1.169999999999998819 ) ;
#270 = CONICAL_SURFACE ( 'NONE', #103, 1.169999999999998819, 0.5235987755982925984 ) ;
#271 = DIRECTION ( 'NONE',  ( -3.491481338843133355E-15, 1.224646799147353207E-16, -1.000000000000000000 ) ) ;
#272 = CARTESIAN_POINT ( 'NONE',  ( 1.735266225405037467E-13, -6.086494591762345225E-15, 49.70000000000000284 ) ) ;
#273 = PRODUCT_RELATED_PRODUCT_CATEGORY ( 'detail', '', ( #240 ) ) ;
#274 = VERTEX_POINT ( 'NONE', #248 ) ;
#275 = CARTESIAN_POINT ( 'NONE',  ( -3.139147754504043629E-31, 1.101064813617982448E-32, -8.990876507288358981E-17 ) ) ;
#276 = DIRECTION ( 'NONE',  ( -3.491481338843133355E-15, 1.224646799147353207E-16, -1.000000000000000000 ) ) ;
#277 = PERSON_AND_ORGANIZATION ( #183, #41 ) ;
#278 = PRODUCT_DEFINITION_FORMATION_WITH_SPECIFIED_SOURCE ( 'ANY', '', #240, .NOT_KNOWN. ) ;
#279 = CARTESIAN_POINT ( 'NONE',  ( 0.0000000000000000000, 0.0000000000000000000, 0.0000000000000000000 ) ) ;
#280 = AXIS2_PLACEMENT_3D ( 'NONE', #188, #294, #86 ) ;
#281 = APPROVAL_ROLE ( '' ) ;
#282 = CALENDAR_DATE ( 2021, 1, 12 ) ;
#283 = DIRECTION ( 'NONE',  ( -3.491481338843133355E-15, 1.224646799147353207E-16, -1.000000000000000000 ) ) ;
#284 = ORIENTED_EDGE ( 'NONE', *, *, #105, .T. ) ;
#285 = CIRCLE ( 'NONE', #128, 1.500000000000001554 ) ;
#286 = APPLICATION_CONTEXT ( 'configuration controlled 3d designs of mechanical parts and assemblies' ) ;
#287 = EDGE_CURVE ( 'NONE', #89, #89, #245, .T. ) ;
#288 = EDGE_LOOP ( 'NONE', ( #25 ) ) ;
#289 = AXIS2_PLACEMENT_3D ( 'NONE', #208, #222, #63 ) ;
#290 = FACE_OUTER_BOUND ( 'NONE', #187, .T. ) ;
#291 = APPLICATION_CONTEXT ( 'configuration controlled 3d designs of mechanical parts and assemblies' ) ;
#292 = FACE_OUTER_BOUND ( 'NONE', #2, .T. ) ;
#293 = AXIS2_PLACEMENT_3D ( 'NONE', #186, #249, #70 ) ;
#294 = DIRECTION ( 'NONE',  ( -3.491481338843133355E-15, 1.224646799147353207E-16, -1.000000000000000000 ) ) ;
#295 = EDGE_LOOP ( 'NONE', ( #284 ) ) ;
#296 = VERTEX_POINT ( 'NONE', #253 ) ;
#297 = CC_DESIGN_SECURITY_CLASSIFICATION ( #31, ( #278 ) ) ;
#298 = CARTESIAN_POINT ( 'NONE',  ( -1.892735826383161356E-31, 1.025662432702594273, -5.421010862427522170E-17 ) ) ;
#299 = FACE_OUTER_BOUND ( 'NONE', #228, .T. ) ;
#300 = DIRECTION ( 'NONE',  ( -3.491481338843133355E-15, 1.224646799147353207E-16, -1.000000000000000000 ) ) ;
#301 = APPROVAL_STATUS ( 'not_yet_approved' ) ;
#302 = CIRCLE ( 'NONE', #168, 1.169999999999999929 ) ;
#303 = PRODUCT_DEFINITION ( 'UNKNOWN', '', #278, #157 ) ;
ENDSEC;
END-ISO-10303-21;
