ISO-10303-21;
HEADER;
FILE_DESCRIPTION (( 'STEP AP203' ),
    '1' );
FILE_NAME ('327072.step',
    '2021-12-01T14:04:14',
    ( '' ),
    ( '' ),
    'SwSTEP 2.0',
    'SolidWorks 2019',
    '' );
FILE_SCHEMA (( 'CONFIG_CONTROL_DESIGN' ));
ENDSEC;

DATA;
#1 = ADVANCED_FACE ( 'NONE', ( #140, #34 ), #72, .T. ) ;
#2 =( LENGTH_UNIT ( ) NAMED_UNIT ( * ) SI_UNIT ( .MILLI., .METRE. ) );
#3 =( NAMED_UNIT ( * ) SI_UNIT ( $, .STERADIAN. ) SOLID_ANGLE_UNIT ( ) );
#4 = LOCAL_TIME ( 15, 4, 14.00000000000000000, #120 ) ;
#5 = VERTEX_POINT ( 'NONE', #113 ) ;
#6 = ORIENTED_EDGE ( 'NONE', *, *, #167, .T. ) ;
#7 = CARTESIAN_POINT ( 'NONE',  ( -4.074826089080880965E-31, 1.429256594202072469E-32, -1.167076576852343569E-16 ) ) ;
#8 = PERSON_AND_ORGANIZATION_ROLE ( 'design_owner' ) ;
#9 = CC_DESIGN_PERSON_AND_ORGANIZATION_ASSIGNMENT ( #119, #14, ( #249 ) ) ;
#10 = SHAPE_DEFINITION_REPRESENTATION ( #244, #216 ) ;
#11 = ADVANCED_FACE ( 'NONE', ( #116 ), #218, .F. ) ;
#12 = DIRECTION ( 'NONE',  ( -3.491481338843133355E-15, 1.224646799147353207E-16, -1.000000000000000000 ) ) ;
#13 = AXIS2_PLACEMENT_3D ( 'NONE', #281, #200, #150 ) ;
#14 = PERSON_AND_ORGANIZATION_ROLE ( 'classification_officer' ) ;
#15 = COORDINATED_UNIVERSAL_TIME_OFFSET ( 1, 0, .AHEAD. ) ;
#16 = EDGE_LOOP ( 'NONE', ( #164 ) ) ;
#17 = FACE_OUTER_BOUND ( 'NONE', #266, .T. ) ;
#18 = CONICAL_SURFACE ( 'NONE', #214, 1.164999999999998703, 0.5235987755982931535 ) ;
#19 = PERSON_AND_ORGANIZATION ( #88, #110 ) ;
#20 = CARTESIAN_POINT ( 'NONE',  ( 3.491481338843133355E-14, -1.224646799147353256E-15, 10.00000000000000000 ) ) ;
#21 = CARTESIAN_POINT ( 'NONE',  ( 8.728703347107829444E-16, -3.061616997868381785E-17, 0.2499999999999998890 ) ) ;
#22 = CIRCLE ( 'NONE', #291, 1.165000000000000036 ) ;
#23 = DIRECTION ( 'NONE',  ( -3.491481338843133355E-15, 1.224646799147353207E-16, -1.000000000000000000 ) ) ;
#24 = DIRECTION ( 'NONE',  ( -4.959476251640956400E-31, -1.000000000000000000, -1.395968462427689719E-16 ) ) ;
#25 = CLOSED_SHELL ( 'NONE', ( #11, #105, #1, #86 ) ) ;
#26 = ORIENTED_EDGE ( 'NONE', *, *, #292, .F. ) ;
#27 = LOCAL_TIME ( 15, 4, 14.00000000000000000, #45 ) ;
#28 = PRODUCT ( '327072', '327072', '', ( #111 ) ) ;
#29 = CARTESIAN_POINT ( 'NONE',  ( 7.104220552055901835E-14, -2.491825135286219831E-15, 20.34729635533384595 ) ) ;
#30 = CIRCLE ( 'NONE', #269, 1.014999999999999680 ) ;
#31 = CARTESIAN_POINT ( 'NONE',  ( 1.745740669421566678E-13, 1.199999999999995515, 50.00000000000000000 ) ) ;
#32 = DIRECTION ( 'NONE',  ( 0.0000000000000000000, 1.000000000000000000, 0.0000000000000000000 ) ) ;
#33 = LOCAL_TIME ( 15, 4, 14.00000000000000000, #15 ) ;
#34 = FACE_OUTER_BOUND ( 'NONE', #248, .T. ) ;
#35 = VERTEX_POINT ( 'NONE', #137 ) ;
#36 = CC_DESIGN_APPROVAL ( #91, ( #207 ) ) ;
#37 = DIRECTION ( 'NONE',  ( 4.275831445896958607E-31, 1.000000000000000000, 1.224646799147353454E-16 ) ) ;
#38 = FACE_BOUND ( 'NONE', #52, .T. ) ;
#39 = EDGE_LOOP ( 'NONE', ( #118 ) ) ;
#40 = APPROVAL ( #96, 'UNSPECIFIED' ) ;
#41 = ADVANCED_FACE ( 'NONE', ( #201 ), #63, .F. ) ;
#42 = EDGE_LOOP ( 'NONE', ( #61 ) ) ;
#43 = DIRECTION ( 'NONE',  ( 4.275831445896958607E-31, 1.000000000000000000, 1.224646799147353207E-16 ) ) ;
#44 = CARTESIAN_POINT ( 'NONE',  ( 3.582192684931459116E-14, -1.256464056309101033E-15, 10.25980762113533729 ) ) ;
#45 = COORDINATED_UNIVERSAL_TIME_OFFSET ( 1, 0, .AHEAD. ) ;
#46 = CARTESIAN_POINT ( 'NONE',  ( 3.491481338843133355E-14, 8.736100734005302228E-33, 10.00000000000000000 ) ) ;
#47 = AXIS2_PLACEMENT_3D ( 'NONE', #73, #183, #243 ) ;
#48 = ADVANCED_FACE ( 'NONE', ( #17, #153 ), #89, .F. ) ;
#49 = CIRCLE ( 'NONE', #81, 1.020662432702594158 ) ;
#50 = FACE_OUTER_BOUND ( 'NONE', #220, .T. ) ;
#51 = DIRECTION ( 'NONE',  ( -4.275831445896958607E-31, -1.000000000000000000, -1.224646799147353207E-16 ) ) ;
#52 = EDGE_LOOP ( 'NONE', ( #222 ) ) ;
#53 = ORIENTED_EDGE ( 'NONE', *, *, #262, .T. ) ;
#54 = AXIS2_PLACEMENT_3D ( 'NONE', #90, #280, #132 ) ;
#55 = CIRCLE ( 'NONE', #229, 1.045384493975581863 ) ;
#56 = ADVANCED_FACE ( 'NONE', ( #148, #250 ), #279, .T. ) ;
#57 = CALENDAR_DATE ( 2021, 1, 12 ) ;
#58 = APPROVAL_DATE_TIME ( #99, #40 ) ;
#59 = CARTESIAN_POINT ( 'NONE',  ( 6.982962677686266711E-14, -2.602085213965210642E-15, 20.00000000000000000 ) ) ;
#60 = ADVANCED_FACE ( 'NONE', ( #101, #123 ), #224, .T. ) ;
#61 = ORIENTED_EDGE ( 'NONE', *, *, #133, .T. ) ;
#62 = PERSON_AND_ORGANIZATION ( #88, #110 ) ;
#63 = PLANE ( 'NONE',  #268 ) ;
#64 = ORIENTED_EDGE ( 'NONE', *, *, #278, .T. ) ;
#65 =( GEOMETRIC_REPRESENTATION_CONTEXT ( 3 ) GLOBAL_UNCERTAINTY_ASSIGNED_CONTEXT ( ( #156 ) ) GLOBAL_UNIT_ASSIGNED_CONTEXT ( ( #2, #215, #3 ) ) REPRESENTATION_CONTEXT ( 'NONE', 'WORKASPACE' ) );
#66 = EDGE_CURVE ( 'NONE', #187, #187, #303, .T. ) ;
#67 = AXIS2_PLACEMENT_3D ( 'NONE', #46, #297, #85 ) ;
#68 = APPLICATION_CONTEXT ( 'configuration controlled 3d designs of mechanical parts and assemblies' ) ;
#69 = LOCAL_TIME ( 15, 4, 14.00000000000000000, #271 ) ;
#70 = DIRECTION ( 'NONE',  ( 0.0000000000000000000, 1.000000000000000000, 0.0000000000000000000 ) ) ;
#71 = CARTESIAN_POINT ( 'NONE',  ( 6.982962677686266711E-14, 1.014999999999997238, 20.00000000000000000 ) ) ;
#72 = CYLINDRICAL_SURFACE ( 'NONE', #149, 1.164999999999999369 ) ;
#73 = CARTESIAN_POINT ( 'NONE',  ( 0.0000000000000000000, 0.0000000000000000000, 0.0000000000000000000 ) ) ;
#74 = ORIENTED_EDGE ( 'NONE', *, *, #262, .F. ) ;
#75 = PERSON_AND_ORGANIZATION_ROLE ( 'creator' ) ;
#76 = CIRCLE ( 'NONE', #155, 1.165000000000000036 ) ;
#77 = PLANE ( 'NONE',  #182 ) ;
#78 = DIRECTION ( 'NONE',  ( 0.0000000000000000000, 1.000000000000000000, 0.0000000000000000000 ) ) ;
#79 = CALENDAR_DATE ( 2021, 1, 12 ) ;
#80 = FACE_BOUND ( 'NONE', #122, .T. ) ;
#81 = AXIS2_PLACEMENT_3D ( 'NONE', #138, #135, #213 ) ;
#82 = APPLICATION_CONTEXT ( 'configuration controlled 3d designs of mechanical parts and assemblies' ) ;
#83 = DIRECTION ( 'NONE',  ( 4.275831445896958607E-31, 1.000000000000000000, 1.224646799147353454E-16 ) ) ;
#84 = APPROVAL_ROLE ( '' ) ;
#85 = DIRECTION ( 'NONE',  ( -4.275831445896958607E-31, -1.000000000000000000, -1.224646799147353207E-16 ) ) ;
#86 = ADVANCED_FACE ( 'NONE', ( #104 ), #151, .T. ) ;
#87 = EDGE_LOOP ( 'NONE', ( #298 ) ) ;
#88 = PERSON ( 'UNSPECIFIED', 'UNSPECIFIED', 'UNSPECIFIED', ('UNSPECIFIED'), ('UNSPECIFIED'), ('UNSPECIFIED') ) ;
#89 = TOROIDAL_SURFACE ( 'NONE', #127, 3.015000000000000124, 2.000000000000000000 ) ;
#90 = CARTESIAN_POINT ( 'NONE',  ( 1.735266225405037467E-13, -6.086494591762345225E-15, 49.70000000000000284 ) ) ;
#91 = APPROVAL ( #102, 'UNSPECIFIED' ) ;
#92 = CARTESIAN_POINT ( 'NONE',  ( 3.491481338843133355E-14, 8.736100734005302228E-33, 10.00000000000000000 ) ) ;
#93 = CARTESIAN_POINT ( 'NONE',  ( 8.004412654963518252E-14, -2.807570021326141032E-15, 22.92554900956652020 ) ) ;
#94 = CARTESIAN_POINT ( 'NONE',  ( 8.728703347107835360E-16, 1.164999999999998703, 0.2500000000000000555 ) ) ;
#95 = EDGE_LOOP ( 'NONE', ( #241 ) ) ;
#96 = APPROVAL_STATUS ( 'not_yet_approved' ) ;
#97 = DATE_AND_TIME ( #100, #4 ) ;
#98 = APPROVAL_PERSON_ORGANIZATION ( #196, #91, #84 ) ;
#99 = DATE_AND_TIME ( #290, #27 ) ;
#100 = CALENDAR_DATE ( 2021, 1, 12 ) ;
#101 = FACE_OUTER_BOUND ( 'NONE', #39, .T. ) ;
#102 = APPROVAL_STATUS ( 'not_yet_approved' ) ;
#103 = APPROVAL_PERSON_ORGANIZATION ( #19, #166, #169 ) ;
#104 = FACE_OUTER_BOUND ( 'NONE', #179, .T. ) ;
#105 = ADVANCED_FACE ( 'NONE', ( #80, #172 ), #18, .T. ) ;
#106 = PRODUCT_DEFINITION_FORMATION_WITH_SPECIFIED_SOURCE ( 'ANY', '', #28, .NOT_KNOWN. ) ;
#107 = ADVANCED_FACE ( 'NONE', ( #175, #300 ), #208, .T. ) ;
#108 = CARTESIAN_POINT ( 'NONE',  ( 8.004412654963518252E-14, -2.807570021326141032E-15, 22.92554900956652020 ) ) ;
#109 = CC_DESIGN_PERSON_AND_ORGANIZATION_ASSIGNMENT ( #191, #144, ( #106 ) ) ;
#110 = ORGANIZATION ( 'UNSPECIFIED', 'UNSPECIFIED', '' ) ;
#111 = MECHANICAL_CONTEXT ( 'NONE', #68, 'mechanical' ) ;
#112 = EDGE_CURVE ( 'NONE', #285, #285, #171, .T. ) ;
#113 = CARTESIAN_POINT ( 'NONE',  ( 3.491481338843133355E-14, 1.164999999999998703, 10.00000000000000000 ) ) ;
#114 = VERTEX_POINT ( 'NONE', #31 ) ;
#115 = CARTESIAN_POINT ( 'NONE',  ( 3.491481338843133355E-14, 1.164999999999998703, 10.00000000000000000 ) ) ;
#116 = FACE_OUTER_BOUND ( 'NONE', #42, .T. ) ;
#117 = CARTESIAN_POINT ( 'NONE',  ( 7.104220552055901835E-14, 1.045384493975579421, 20.34729635533384595 ) ) ;
#118 = ORIENTED_EDGE ( 'NONE', *, *, #146, .F. ) ;
#119 = PERSON_AND_ORGANIZATION ( #88, #110 ) ;
#120 = COORDINATED_UNIVERSAL_TIME_OFFSET ( 1, 0, .AHEAD. ) ;
#121 = EDGE_LOOP ( 'NONE', ( #64 ) ) ;
#122 = EDGE_LOOP ( 'NONE', ( #131 ) ) ;
#123 = FACE_OUTER_BOUND ( 'NONE', #87, .T. ) ;
#124 = DATE_AND_TIME ( #79, #69 ) ;
#125 = EDGE_LOOP ( 'NONE', ( #289 ) ) ;
#126 = DIRECTION ( 'NONE',  ( -4.275831445896958607E-31, -1.000000000000000000, -1.224646799147353207E-16 ) ) ;
#127 = AXIS2_PLACEMENT_3D ( 'NONE', #59, #174, #43 ) ;
#128 = APPROVAL_ROLE ( '' ) ;
#129 = EDGE_LOOP ( 'NONE', ( #255 ) ) ;
#130 = CARTESIAN_POINT ( 'NONE',  ( 8.728703347107829444E-16, -3.061616997868381785E-17, 0.2499999999999998890 ) ) ;
#131 = ORIENTED_EDGE ( 'NONE', *, *, #133, .F. ) ;
#132 = DIRECTION ( 'NONE',  ( 0.0000000000000000000, 1.000000000000000000, 0.0000000000000000000 ) ) ;
#133 = EDGE_CURVE ( 'NONE', #35, #35, #49, .T. ) ;
#134 = APPLICATION_PROTOCOL_DEFINITION ( 'international standard', 'config_control_design', 1994, #68 ) ;
#135 = DIRECTION ( 'NONE',  ( -3.491481338843133355E-15, 1.224646799147353207E-16, -1.000000000000000000 ) ) ;
#136 = AXIS2_PLACEMENT_3D ( 'NONE', #108, #203, #299 ) ;
#137 = CARTESIAN_POINT ( 'NONE',  ( -3.785471652766321837E-31, 1.020662432702594158, -1.084202172485504434E-16 ) ) ;
#138 = CARTESIAN_POINT ( 'NONE',  ( -8.149652178161761930E-31, 2.858513188404144938E-32, -2.334153153704687138E-16 ) ) ;
#139 = CARTESIAN_POINT ( 'NONE',  ( 1.745740669421566678E-13, -6.123233995736766085E-15, 50.00000000000000000 ) ) ;
#140 = FACE_OUTER_BOUND ( 'NONE', #202, .T. ) ;
#141 = CIRCLE ( 'NONE', #13, 1.200000000000001732 ) ;
#142 = DIRECTION ( 'NONE',  ( -3.491481338843133355E-15, 1.224646799147353207E-16, -1.000000000000000000 ) ) ;
#143 = EDGE_LOOP ( 'NONE', ( #6 ) ) ;
#144 = PERSON_AND_ORGANIZATION_ROLE ( 'design_supplier' ) ;
#145 = CC_DESIGN_PERSON_AND_ORGANIZATION_ASSIGNMENT ( #176, #225, ( #207 ) ) ;
#146 = EDGE_CURVE ( 'NONE', #240, #240, #258, .T. ) ;
#147 = CC_DESIGN_APPROVAL ( #40, ( #249 ) ) ;
#148 = FACE_OUTER_BOUND ( 'NONE', #195, .T. ) ;
#149 = AXIS2_PLACEMENT_3D ( 'NONE', #245, #186, #37 ) ;
#150 = DIRECTION ( 'NONE',  ( 0.0000000000000000000, 1.000000000000000000, 0.0000000000000000000 ) ) ;
#151 = PLANE ( 'NONE',  #67 ) ;
#152 = DATE_AND_TIME ( #57, #33 ) ;
#153 = FACE_OUTER_BOUND ( 'NONE', #121, .T. ) ;
#154 = EDGE_LOOP ( 'NONE', ( #265 ) ) ;
#155 = AXIS2_PLACEMENT_3D ( 'NONE', #288, #264, #160 ) ;
#156 = UNCERTAINTY_MEASURE_WITH_UNIT (LENGTH_MEASURE( 1.000000000000000082E-05 ), #2, 'distance_accuracy_value', 'NONE');
#157 = LOCAL_TIME ( 15, 4, 14.00000000000000000, #270 ) ;
#158 = ADVANCED_FACE ( 'NONE', ( #233, #302 ), #197, .T. ) ;
#159 = VERTEX_POINT ( 'NONE', #238 ) ;
#160 = DIRECTION ( 'NONE',  ( 0.0000000000000000000, 1.000000000000000000, 0.0000000000000000000 ) ) ;
#161 = EDGE_LOOP ( 'NONE', ( #272 ) ) ;
#162 = CARTESIAN_POINT ( 'NONE',  ( 8.004412654963518252E-14, 1.499999999999994005, 22.92554900956652020 ) ) ;
#163 = AXIS2_PLACEMENT_3D ( 'NONE', #21, #276, #227 ) ;
#164 = ORIENTED_EDGE ( 'NONE', *, *, #278, .F. ) ;
#165 = CIRCLE ( 'NONE', #277, 1.014999999999998792 ) ;
#166 = APPROVAL ( #254, 'UNSPECIFIED' ) ;
#167 = EDGE_CURVE ( 'NONE', #159, #159, #165, .T. ) ;
#168 = CLOSED_SHELL ( 'NONE', ( #239, #56, #107, #48, #158, #60, #257, #41 ) ) ;
#169 = APPROVAL_ROLE ( '' ) ;
#170 = FACE_OUTER_BOUND ( 'NONE', #95, .T. ) ;
#171 = CIRCLE ( 'NONE', #54, 1.500000000000001554 ) ;
#172 = FACE_OUTER_BOUND ( 'NONE', #205, .T. ) ;
#173 = CC_DESIGN_SECURITY_CLASSIFICATION ( #249, ( #106 ) ) ;
#174 = DIRECTION ( 'NONE',  ( -3.491481338843133355E-15, 1.224646799147353207E-16, -1.000000000000000000 ) ) ;
#175 = FACE_OUTER_BOUND ( 'NONE', #154, .T. ) ;
#176 = PERSON_AND_ORGANIZATION ( #88, #110 ) ;
#177 = DIRECTION ( 'NONE',  ( -3.491481338843133355E-15, 1.224646799147353207E-16, -1.000000000000000000 ) ) ;
#178 = DIRECTION ( 'NONE',  ( 0.0000000000000000000, 1.000000000000000000, 0.0000000000000000000 ) ) ;
#179 = EDGE_LOOP ( 'NONE', ( #74 ) ) ;
#180 = AXIS2_PLACEMENT_3D ( 'NONE', #301, #181, #259 ) ;
#181 = DIRECTION ( 'NONE',  ( -3.491481338843133355E-15, 1.224646799147353207E-16, -1.000000000000000000 ) ) ;
#182 = AXIS2_PLACEMENT_3D ( 'NONE', #92, #184, #51 ) ;
#183 = DIRECTION ( 'NONE',  ( 0.0000000000000000000, 0.0000000000000000000, 1.000000000000000000 ) ) ;
#184 = DIRECTION ( 'NONE',  ( 3.491481338843133355E-15, -1.224646799147353207E-16, 1.000000000000000000 ) ) ;
#185 = CARTESIAN_POINT ( 'NONE',  ( 6.982962677686266711E-14, -2.449293598294706513E-15, 20.00000000000000000 ) ) ;
#186 = DIRECTION ( 'NONE',  ( -3.491481338843133355E-15, 1.224646799147353207E-16, -1.000000000000000000 ) ) ;
#187 = VERTEX_POINT ( 'NONE', #94 ) ;
#188 = ORIENTED_EDGE ( 'NONE', *, *, #232, .F. ) ;
#189 = DIRECTION ( 'NONE',  ( 3.491481338843133355E-15, -1.224646799147353207E-16, 1.000000000000000000 ) ) ;
#190 = CC_DESIGN_DATE_AND_TIME_ASSIGNMENT ( #124, #296, ( #207 ) ) ;
#191 = PERSON_AND_ORGANIZATION ( #88, #110 ) ;
#192 = EDGE_CURVE ( 'NONE', #114, #114, #141, .T. ) ;
#193 = CONICAL_SURFACE ( 'NONE', #237, 1.200000000000001732, 0.7853981633974453924 ) ;
#194 = APPROVAL_DATE_TIME ( #228, #166 ) ;
#195 = EDGE_LOOP ( 'NONE', ( #188 ) ) ;
#196 = PERSON_AND_ORGANIZATION ( #88, #110 ) ;
#197 = CONICAL_SURFACE ( 'NONE', #136, 1.499999999999996669, 0.1745329251994259812 ) ;
#198 = DIRECTION ( 'NONE',  ( 0.0000000000000000000, 1.000000000000000000, 0.0000000000000000000 ) ) ;
#199 = APPROVAL_DATE_TIME ( #152, #91 ) ;
#200 = DIRECTION ( 'NONE',  ( -3.491481338843133355E-15, 1.224646799147353207E-16, -1.000000000000000000 ) ) ;
#201 = FACE_OUTER_BOUND ( 'NONE', #129, .T. ) ;
#202 = EDGE_LOOP ( 'NONE', ( #231 ) ) ;
#203 = DIRECTION ( 'NONE',  ( 3.491481338843133355E-15, -1.224646799147353207E-16, 1.000000000000000000 ) ) ;
#204 = CC_DESIGN_PERSON_AND_ORGANIZATION_ASSIGNMENT ( #62, #75, ( #106 ) ) ;
#205 = EDGE_LOOP ( 'NONE', ( #252 ) ) ;
#206 = AXIS2_PLACEMENT_3D ( 'NONE', #7, #189, #126 ) ;
#207 = PRODUCT_DEFINITION ( 'UNKNOWN', '', #106, #209 ) ;
#208 = CYLINDRICAL_SURFACE ( 'NONE', #180, 1.014999999999999236 ) ;
#209 = DESIGN_CONTEXT ( 'detailed design', #82, 'design' ) ;
#210 = DIRECTION ( 'NONE',  ( -3.491481338843133355E-15, 1.224646799147353207E-16, -1.000000000000000000 ) ) ;
#211 = APPLICATION_PROTOCOL_DEFINITION ( 'international standard', 'config_control_design', 1994, #82 ) ;
#212 = VERTEX_POINT ( 'NONE', #117 ) ;
#213 = DIRECTION ( 'NONE',  ( 4.275831445896958607E-31, 1.000000000000000000, 1.224646799147353207E-16 ) ) ;
#214 = AXIS2_PLACEMENT_3D ( 'NONE', #130, #230, #24 ) ;
#215 =( NAMED_UNIT ( * ) PLANE_ANGLE_UNIT ( ) SI_UNIT ( $, .RADIAN. ) );
#216 = ADVANCED_BREP_SHAPE_REPRESENTATION ( '327072', ( #235, #234, #47 ), #65 ) ;
#217 = VERTEX_POINT ( 'NONE', #115 ) ;
#218 = PLANE ( 'NONE',  #206 ) ;
#219 = CARTESIAN_POINT ( 'NONE',  ( 1.735266225405037467E-13, 1.499999999999995559, 49.70000000000000284 ) ) ;
#220 = EDGE_LOOP ( 'NONE', ( #267 ) ) ;
#221 = DATE_TIME_ROLE ( 'classification_date' ) ;
#222 = ORIENTED_EDGE ( 'NONE', *, *, #192, .T. ) ;
#223 = PERSON_AND_ORGANIZATION ( #88, #110 ) ;
#224 = CYLINDRICAL_SURFACE ( 'NONE', #242, 1.499999999999999112 ) ;
#225 = PERSON_AND_ORGANIZATION_ROLE ( 'creator' ) ;
#226 = AXIS2_PLACEMENT_3D ( 'NONE', #44, #177, #198 ) ;
#227 = DIRECTION ( 'NONE',  ( 4.959476251640956400E-31, 1.000000000000000000, 1.395968462427689719E-16 ) ) ;
#228 = DATE_AND_TIME ( #251, #157 ) ;
#229 = AXIS2_PLACEMENT_3D ( 'NONE', #29, #247, #32 ) ;
#230 = DIRECTION ( 'NONE',  ( 3.491481338843133355E-15, -1.224646799147353207E-16, 1.000000000000000000 ) ) ;
#231 = ORIENTED_EDGE ( 'NONE', *, *, #66, .F. ) ;
#232 = EDGE_CURVE ( 'NONE', #217, #217, #22, .T. ) ;
#233 = FACE_BOUND ( 'NONE', #16, .T. ) ;
#234 = MANIFOLD_SOLID_BREP ( 'Corps-Déplacer/Copier1[2]', #25 ) ;
#235 = MANIFOLD_SOLID_BREP ( 'Corps-Déplacer/Copier1[1]', #168 ) ;
#236 = DIRECTION ( 'NONE',  ( 0.0000000000000000000, 1.000000000000000000, 0.0000000000000000000 ) ) ;
#237 = AXIS2_PLACEMENT_3D ( 'NONE', #139, #142, #236 ) ;
#238 = CARTESIAN_POINT ( 'NONE',  ( 3.582192684931459116E-14, 1.014999999999997460, 10.25980762113533729 ) ) ;
#239 = ADVANCED_FACE ( 'NONE', ( #170 ), #77, .F. ) ;
#240 = VERTEX_POINT ( 'NONE', #162 ) ;
#241 = ORIENTED_EDGE ( 'NONE', *, *, #232, .T. ) ;
#242 = AXIS2_PLACEMENT_3D ( 'NONE', #274, #293, #83 ) ;
#243 = DIRECTION ( 'NONE',  ( 1.000000000000000000, 0.0000000000000000000, 0.0000000000000000000 ) ) ;
#244 = PRODUCT_DEFINITION_SHAPE ( 'NONE', 'NONE',  #207 ) ;
#245 = CARTESIAN_POINT ( 'NONE',  ( 0.0000000000000000000, 0.0000000000000000000, 0.0000000000000000000 ) ) ;
#246 = CC_DESIGN_APPROVAL ( #166, ( #106 ) ) ;
#247 = DIRECTION ( 'NONE',  ( -3.491481338843133355E-15, 1.224646799147353207E-16, -1.000000000000000000 ) ) ;
#248 = EDGE_LOOP ( 'NONE', ( #53 ) ) ;
#249 = SECURITY_CLASSIFICATION ( '', '', #275 ) ;
#250 = FACE_BOUND ( 'NONE', #143, .T. ) ;
#251 = CALENDAR_DATE ( 2021, 1, 12 ) ;
#252 = ORIENTED_EDGE ( 'NONE', *, *, #66, .T. ) ;
#253 = DIRECTION ( 'NONE',  ( -3.491481338843133355E-15, 1.224646799147353207E-16, -1.000000000000000000 ) ) ;
#254 = APPROVAL_STATUS ( 'not_yet_approved' ) ;
#255 = ORIENTED_EDGE ( 'NONE', *, *, #192, .F. ) ;
#256 = DIRECTION ( 'NONE',  ( 4.275831445896958607E-31, 1.000000000000000000, 1.224646799147353207E-16 ) ) ;
#257 = ADVANCED_FACE ( 'NONE', ( #50, #38 ), #193, .T. ) ;
#258 = CIRCLE ( 'NONE', #294, 1.499999999999996669 ) ;
#259 = DIRECTION ( 'NONE',  ( 4.275831445896957731E-31, 1.000000000000000000, 1.224646799147353207E-16 ) ) ;
#260 = VERTEX_POINT ( 'NONE', #71 ) ;
#261 = PRODUCT_RELATED_PRODUCT_CATEGORY ( 'detail', '', ( #28 ) ) ;
#262 = EDGE_CURVE ( 'NONE', #5, #5, #76, .T. ) ;
#263 = PERSON_AND_ORGANIZATION ( #88, #110 ) ;
#264 = DIRECTION ( 'NONE',  ( -3.491481338843133355E-15, 1.224646799147353207E-16, -1.000000000000000000 ) ) ;
#265 = ORIENTED_EDGE ( 'NONE', *, *, #167, .F. ) ;
#266 = EDGE_LOOP ( 'NONE', ( #26 ) ) ;
#267 = ORIENTED_EDGE ( 'NONE', *, *, #112, .F. ) ;
#268 = AXIS2_PLACEMENT_3D ( 'NONE', #295, #253, #256 ) ;
#269 = AXIS2_PLACEMENT_3D ( 'NONE', #185, #283, #70 ) ;
#270 = COORDINATED_UNIVERSAL_TIME_OFFSET ( 1, 0, .AHEAD. ) ;
#271 = COORDINATED_UNIVERSAL_TIME_OFFSET ( 1, 0, .AHEAD. ) ;
#272 = ORIENTED_EDGE ( 'NONE', *, *, #146, .T. ) ;
#273 = CARTESIAN_POINT ( 'NONE',  ( 3.582192684931459116E-14, -1.256464056309101033E-15, 10.25980762113533729 ) ) ;
#274 = CARTESIAN_POINT ( 'NONE',  ( 0.0000000000000000000, 0.0000000000000000000, 0.0000000000000000000 ) ) ;
#275 = SECURITY_CLASSIFICATION_LEVEL ( 'unclassified' ) ;
#276 = DIRECTION ( 'NONE',  ( -3.491481338843133355E-15, 1.224646799147353207E-16, -1.000000000000000000 ) ) ;
#277 = AXIS2_PLACEMENT_3D ( 'NONE', #273, #12, #78 ) ;
#278 = EDGE_CURVE ( 'NONE', #212, #212, #55, .T. ) ;
#279 = CONICAL_SURFACE ( 'NONE', #226, 1.014999999999998792, 0.5235987755982940417 ) ;
#280 = DIRECTION ( 'NONE',  ( -3.491481338843133355E-15, 1.224646799147353207E-16, -1.000000000000000000 ) ) ;
#281 = CARTESIAN_POINT ( 'NONE',  ( 1.745740669421566678E-13, -6.123233995736766085E-15, 50.00000000000000000 ) ) ;
#282 = CC_DESIGN_DATE_AND_TIME_ASSIGNMENT ( #97, #221, ( #249 ) ) ;
#283 = DIRECTION ( 'NONE',  ( -3.491481338843133355E-15, 1.224646799147353207E-16, -1.000000000000000000 ) ) ;
#284 = CC_DESIGN_PERSON_AND_ORGANIZATION_ASSIGNMENT ( #263, #8, ( #28 ) ) ;
#285 = VERTEX_POINT ( 'NONE', #219 ) ;
#286 = APPROVAL_PERSON_ORGANIZATION ( #223, #40, #128 ) ;
#287 = DIRECTION ( 'NONE',  ( 0.0000000000000000000, 1.000000000000000000, 0.0000000000000000000 ) ) ;
#288 = CARTESIAN_POINT ( 'NONE',  ( 3.491481338843133355E-14, -1.224646799147353256E-15, 10.00000000000000000 ) ) ;
#289 = ORIENTED_EDGE ( 'NONE', *, *, #292, .T. ) ;
#290 = CALENDAR_DATE ( 2021, 1, 12 ) ;
#291 = AXIS2_PLACEMENT_3D ( 'NONE', #20, #23, #178 ) ;
#292 = EDGE_CURVE ( 'NONE', #260, #260, #30, .T. ) ;
#293 = DIRECTION ( 'NONE',  ( -3.491481338843133355E-15, 1.224646799147353207E-16, -1.000000000000000000 ) ) ;
#294 = AXIS2_PLACEMENT_3D ( 'NONE', #93, #210, #287 ) ;
#295 = CARTESIAN_POINT ( 'NONE',  ( 1.745740669421566678E-13, 8.998558695971067645E-33, 50.00000000000000000 ) ) ;
#296 = DATE_TIME_ROLE ( 'creation_date' ) ;
#297 = DIRECTION ( 'NONE',  ( 3.491481338843133355E-15, -1.224646799147353207E-16, 1.000000000000000000 ) ) ;
#298 = ORIENTED_EDGE ( 'NONE', *, *, #112, .T. ) ;
#299 = DIRECTION ( 'NONE',  ( 0.0000000000000000000, -1.000000000000000000, 0.0000000000000000000 ) ) ;
#300 = FACE_OUTER_BOUND ( 'NONE', #125, .T. ) ;
#301 = CARTESIAN_POINT ( 'NONE',  ( 0.0000000000000000000, 0.0000000000000000000, 0.0000000000000000000 ) ) ;
#302 = FACE_OUTER_BOUND ( 'NONE', #161, .T. ) ;
#303 = CIRCLE ( 'NONE', #163, 1.164999999999998703 ) ;
ENDSEC;
END-ISO-10303-21;
