ISO-10303-21;
HEADER;
FILE_DESCRIPTION (( 'STEP AP203' ),
    '1' );
FILE_NAME ('327071.step',
    '2021-12-01T14:04:13',
    ( '' ),
    ( '' ),
    'SwSTEP 2.0',
    'SolidWorks 2019',
    '' );
FILE_SCHEMA (( 'CONFIG_CONTROL_DESIGN' ));
ENDSEC;

DATA;
#1 = DIRECTION ( 'NONE',  ( -3.491481338843133355E-15, 1.224646799147353207E-16, -1.000000000000000000 ) ) ;
#2 = CARTESIAN_POINT ( 'NONE',  ( 8.024213829604036381E-14, -2.814515338453599003E-15, 22.98226182776270221 ) ) ;
#3 = ORIENTED_EDGE ( 'NONE', *, *, #15, .T. ) ;
#4 = UNCERTAINTY_MEASURE_WITH_UNIT (LENGTH_MEASURE( 1.000000000000000082E-05 ), #127, 'distance_accuracy_value', 'NONE');
#5 = DIRECTION ( 'NONE',  ( 4.275831445896958607E-31, 1.000000000000000000, 1.224646799147353207E-16 ) ) ;
#6 = AXIS2_PLACEMENT_3D ( 'NONE', #98, #30, #214 ) ;
#7 = EDGE_LOOP ( 'NONE', ( #78 ) ) ;
#8 = DIRECTION ( 'NONE',  ( 4.275831445896958607E-31, 1.000000000000000000, 1.224646799147353207E-16 ) ) ;
#9 = CALENDAR_DATE ( 2021, 1, 12 ) ;
#10 = DIRECTION ( 'NONE',  ( 3.491481338843133355E-15, -1.224646799147353207E-16, 1.000000000000000000 ) ) ;
#11 = CALENDAR_DATE ( 2021, 1, 12 ) ;
#12 = PERSON_AND_ORGANIZATION ( #211, #296 ) ;
#13 = CARTESIAN_POINT ( 'NONE',  ( 1.735266225405037467E-13, 1.499999999999995559, 49.70000000000000284 ) ) ;
#14 = CIRCLE ( 'NONE', #51, 1.035384493975581854 ) ;
#15 = EDGE_CURVE ( 'NONE', #33, #33, #86, .T. ) ;
#16 = CARTESIAN_POINT ( 'NONE',  ( 3.491481338843133355E-14, -1.224646799147353256E-15, 10.00000000000000000 ) ) ;
#17 = PERSON_AND_ORGANIZATION ( #211, #296 ) ;
#18 = DIRECTION ( 'NONE',  ( 3.491481338843133355E-15, -1.224646799147353207E-16, 1.000000000000000000 ) ) ;
#19 = ORIENTED_EDGE ( 'NONE', *, *, #303, .F. ) ;
#20 = DATE_TIME_ROLE ( 'classification_date' ) ;
#21 = APPLICATION_PROTOCOL_DEFINITION ( 'international standard', 'config_control_design', 1994, #151 ) ;
#22 = MANIFOLD_SOLID_BREP ( 'Corps-Déplacer/Copier1[1]', #42 ) ;
#23 = CC_DESIGN_DATE_AND_TIME_ASSIGNMENT ( #247, #20, ( #48 ) ) ;
#24 = PERSON_AND_ORGANIZATION ( #211, #296 ) ;
#25 = DATE_AND_TIME ( #133, #92 ) ;
#26 = PLANE ( 'NONE',  #280 ) ;
#27 = EDGE_LOOP ( 'NONE', ( #157 ) ) ;
#28 = FACE_OUTER_BOUND ( 'NONE', #76, .T. ) ;
#29 = CYLINDRICAL_SURFACE ( 'NONE', #191, 1.499999999999999112 ) ;
#30 = DIRECTION ( 'NONE',  ( -3.491481338843133355E-15, 1.224646799147353207E-16, -1.000000000000000000 ) ) ;
#31 = AXIS2_PLACEMENT_3D ( 'NONE', #2, #10, #255 ) ;
#32 = DIRECTION ( 'NONE',  ( -3.491481338843133355E-15, 1.224646799147353207E-16, -1.000000000000000000 ) ) ;
#33 = VERTEX_POINT ( 'NONE', #265 ) ;
#34 = FACE_OUTER_BOUND ( 'NONE', #297, .T. ) ;
#35 = DATE_AND_TIME ( #196, #62 ) ;
#36 = CIRCLE ( 'NONE', #108, 1.200000000000001732 ) ;
#37 = VERTEX_POINT ( 'NONE', #13 ) ;
#38 = APPROVAL_STATUS ( 'not_yet_approved' ) ;
#39 = APPROVAL_ROLE ( '' ) ;
#40 = APPROVAL ( #38, 'UNSPECIFIED' ) ;
#41 = DIRECTION ( 'NONE',  ( -3.491481338843133355E-15, 1.224646799147353207E-16, -1.000000000000000000 ) ) ;
#42 = CLOSED_SHELL ( 'NONE', ( #271, #163, #141, #263, #110, #228, #257, #135 ) ) ;
#43 = EDGE_LOOP ( 'NONE', ( #112 ) ) ;
#44 =( GEOMETRIC_REPRESENTATION_CONTEXT ( 3 ) GLOBAL_UNCERTAINTY_ASSIGNED_CONTEXT ( ( #4 ) ) GLOBAL_UNIT_ASSIGNED_CONTEXT ( ( #127, #221, #145 ) ) REPRESENTATION_CONTEXT ( 'NONE', 'WORKASPACE' ) );
#45 = PERSON_AND_ORGANIZATION_ROLE ( 'design_owner' ) ;
#46 = ADVANCED_FACE ( 'NONE', ( #47 ), #131, .T. ) ;
#47 = FACE_OUTER_BOUND ( 'NONE', #156, .T. ) ;
#48 = SECURITY_CLASSIFICATION ( '', '', #216 ) ;
#49 = PRODUCT_RELATED_PRODUCT_CATEGORY ( 'detail', '', ( #229 ) ) ;
#50 = FACE_OUTER_BOUND ( 'NONE', #295, .T. ) ;
#51 = AXIS2_PLACEMENT_3D ( 'NONE', #246, #144, #192 ) ;
#52 = DIRECTION ( 'NONE',  ( 4.275831445896958607E-31, 1.000000000000000000, 1.224646799147353454E-16 ) ) ;
#53 = EDGE_LOOP ( 'NONE', ( #102 ) ) ;
#54 = DESIGN_CONTEXT ( 'detailed design', #151, 'design' ) ;
#55 = FACE_OUTER_BOUND ( 'NONE', #299, .T. ) ;
#56 = DIRECTION ( 'NONE',  ( 4.275831445896958607E-31, 1.000000000000000000, 1.224646799147353207E-16 ) ) ;
#57 = CYLINDRICAL_SURFACE ( 'NONE', #197, 1.004999999999999449 ) ;
#58 = CARTESIAN_POINT ( 'NONE',  ( 3.491481338843133355E-14, 8.661112744872210169E-33, 10.00000000000000000 ) ) ;
#59 = ORIENTED_EDGE ( 'NONE', *, *, #75, .T. ) ;
#60 = AXIS2_PLACEMENT_3D ( 'NONE', #158, #254, #182 ) ;
#61 = ORIENTED_EDGE ( 'NONE', *, *, #173, .T. ) ;
#62 = LOCAL_TIME ( 15, 4, 13.00000000000000000, #101 ) ;
#63 = APPLICATION_CONTEXT ( 'configuration controlled 3d designs of mechanical parts and assemblies' ) ;
#64 = CARTESIAN_POINT ( 'NONE',  ( 3.582192684931459116E-14, 1.004999999999997673, 10.25980762113533729 ) ) ;
#65 = APPLICATION_PROTOCOL_DEFINITION ( 'international standard', 'config_control_design', 1994, #63 ) ;
#66 = APPROVAL_STATUS ( 'not_yet_approved' ) ;
#67 = TOROIDAL_SURFACE ( 'NONE', #136, 3.005000000000000782, 2.000000000000000444 ) ;
#68 = EDGE_CURVE ( 'NONE', #123, #123, #36, .T. ) ;
#69 = AXIS2_PLACEMENT_3D ( 'NONE', #121, #1, #8 ) ;
#70 = APPROVAL ( #148, 'UNSPECIFIED' ) ;
#71 = FACE_BOUND ( 'NONE', #53, .T. ) ;
#72 = DIRECTION ( 'NONE',  ( -3.491481338843133355E-15, 1.224646799147353207E-16, -1.000000000000000000 ) ) ;
#73 = CIRCLE ( 'NONE', #230, 1.154999999999998916 ) ;
#74 = DIRECTION ( 'NONE',  ( -4.275831445896958607E-31, -1.000000000000000000, -1.224646799147353207E-16 ) ) ;
#75 = EDGE_CURVE ( 'NONE', #269, #269, #292, .T. ) ;
#76 = EDGE_LOOP ( 'NONE', ( #286 ) ) ;
#77 = DIRECTION ( 'NONE',  ( 5.002415439966851171E-31, 1.000000000000000000, 1.408054769461695421E-16 ) ) ;
#78 = ORIENTED_EDGE ( 'NONE', *, *, #268, .T. ) ;
#79 = DIRECTION ( 'NONE',  ( -3.491481338843133355E-15, 1.224646799147353207E-16, -1.000000000000000000 ) ) ;
#80 = ADVANCED_FACE ( 'NONE', ( #50 ), #260, .F. ) ;
#81 = PRODUCT_DEFINITION_FORMATION_WITH_SPECIFIED_SOURCE ( 'ANY', '', #229, .NOT_KNOWN. ) ;
#82 = COORDINATED_UNIVERSAL_TIME_OFFSET ( 1, 0, .AHEAD. ) ;
#83 = FACE_BOUND ( 'NONE', #27, .T. ) ;
#84 = VERTEX_POINT ( 'NONE', #100 ) ;
#85 = CARTESIAN_POINT ( 'NONE',  ( 6.982962677686266711E-14, -2.602085213965210642E-15, 20.00000000000000000 ) ) ;
#86 = CIRCLE ( 'NONE', #60, 1.005000000000000115 ) ;
#87 = DIRECTION ( 'NONE',  ( -4.275831445896958607E-31, -1.000000000000000000, -1.224646799147353207E-16 ) ) ;
#88 = PRODUCT_DEFINITION_SHAPE ( 'NONE', 'NONE',  #202 ) ;
#89 = CC_DESIGN_DATE_AND_TIME_ASSIGNMENT ( #273, #159, ( #202 ) ) ;
#90 = CC_DESIGN_APPROVAL ( #236, ( #202 ) ) ;
#91 = ADVANCED_FACE ( 'NONE', ( #71, #243 ), #274, .T. ) ;
#92 = LOCAL_TIME ( 15, 4, 13.00000000000000000, #128 ) ;
#93 = DIRECTION ( 'NONE',  ( -3.491481338843133355E-15, 1.224646799147353207E-16, -1.000000000000000000 ) ) ;
#94 = CC_DESIGN_PERSON_AND_ORGANIZATION_ASSIGNMENT ( #293, #152, ( #48 ) ) ;
#95 = DIRECTION ( 'NONE',  ( -3.491481338843133355E-15, 1.224646799147353207E-16, -1.000000000000000000 ) ) ;
#96 = APPROVAL_PERSON_ORGANIZATION ( #130, #236, #200 ) ;
#97 = CARTESIAN_POINT ( 'NONE',  ( 1.735266225405037467E-13, -6.086494591762345225E-15, 49.70000000000000284 ) ) ;
#98 = CARTESIAN_POINT ( 'NONE',  ( 3.582192684931459116E-14, -1.256464056309101033E-15, 10.25980762113533729 ) ) ;
#99 = DATE_AND_TIME ( #9, #219 ) ;
#100 = CARTESIAN_POINT ( 'NONE',  ( 8.024213829604036381E-14, 1.499999999999994005, 22.98226182776270221 ) ) ;
#101 = COORDINATED_UNIVERSAL_TIME_OFFSET ( 1, 0, .AHEAD. ) ;
#102 = ORIENTED_EDGE ( 'NONE', *, *, #199, .F. ) ;
#103 = FACE_OUTER_BOUND ( 'NONE', #7, .T. ) ;
#104 = EDGE_LOOP ( 'NONE', ( #222 ) ) ;
#105 = CARTESIAN_POINT ( 'NONE',  ( -1.892735826383161356E-31, 1.010662432702594593, -5.421010862427522170E-17 ) ) ;
#106 = DIRECTION ( 'NONE',  ( 1.000000000000000000, 0.0000000000000000000, 0.0000000000000000000 ) ) ;
#107 = EDGE_LOOP ( 'NONE', ( #208 ) ) ;
#108 = AXIS2_PLACEMENT_3D ( 'NONE', #284, #79, #215 ) ;
#109 = APPROVAL_PERSON_ORGANIZATION ( #24, #40, #267 ) ;
#110 = ADVANCED_FACE ( 'NONE', ( #279, #137 ), #161, .T. ) ;
#111 = EDGE_LOOP ( 'NONE', ( #61 ) ) ;
#112 = ORIENTED_EDGE ( 'NONE', *, *, #116, .T. ) ;
#113 = CIRCLE ( 'NONE', #155, 1.500000000000001554 ) ;
#114 = CC_DESIGN_APPROVAL ( #40, ( #81 ) ) ;
#115 = FACE_OUTER_BOUND ( 'NONE', #234, .T. ) ;
#116 = EDGE_CURVE ( 'NONE', #174, #174, #73, .T. ) ;
#117 = ORIENTED_EDGE ( 'NONE', *, *, #15, .F. ) ;
#118 = CARTESIAN_POINT ( 'NONE',  ( 3.491481338843133355E-14, -1.224646799147353256E-15, 10.00000000000000000 ) ) ;
#119 = DIRECTION ( 'NONE',  ( 3.491481338843133355E-15, -1.224646799147353207E-16, 1.000000000000000000 ) ) ;
#120 = AXIS2_PLACEMENT_3D ( 'NONE', #244, #41, #224 ) ;
#121 = CARTESIAN_POINT ( 'NONE',  ( 0.0000000000000000000, 0.0000000000000000000, 0.0000000000000000000 ) ) ;
#122 = DIRECTION ( 'NONE',  ( 0.0000000000000000000, 1.000000000000000000, 0.0000000000000000000 ) ) ;
#123 = VERTEX_POINT ( 'NONE', #217 ) ;
#124 = CARTESIAN_POINT ( 'NONE',  ( 3.491481338843133355E-14, 1.154999999999998916, 10.00000000000000000 ) ) ;
#125 = CC_DESIGN_APPROVAL ( #70, ( #48 ) ) ;
#126 = ORIENTED_EDGE ( 'NONE', *, *, #129, .F. ) ;
#127 =( LENGTH_UNIT ( ) NAMED_UNIT ( * ) SI_UNIT ( .MILLI., .METRE. ) );
#128 = COORDINATED_UNIVERSAL_TIME_OFFSET ( 1, 0, .AHEAD. ) ;
#129 = EDGE_CURVE ( 'NONE', #37, #37, #113, .T. ) ;
#130 = PERSON_AND_ORGANIZATION ( #211, #296 ) ;
#131 = PLANE ( 'NONE',  #251 ) ;
#132 = CONICAL_SURFACE ( 'NONE', #6, 1.004999999999999005, 0.5235987755982940417 ) ;
#133 = CALENDAR_DATE ( 2021, 1, 12 ) ;
#134 = CARTESIAN_POINT ( 'NONE',  ( 8.728703347107829444E-16, -3.061616997868381785E-17, 0.2499999999999998890 ) ) ;
#135 = ADVANCED_FACE ( 'NONE', ( #232 ), #26, .F. ) ;
#136 = AXIS2_PLACEMENT_3D ( 'NONE', #85, #149, #178 ) ;
#137 = FACE_OUTER_BOUND ( 'NONE', #194, .T. ) ;
#138 = ORIENTED_EDGE ( 'NONE', *, *, #75, .F. ) ;
#139 = FACE_OUTER_BOUND ( 'NONE', #205, .T. ) ;
#140 = DIRECTION ( 'NONE',  ( -5.002415439966851171E-31, -1.000000000000000000, -1.408054769461695421E-16 ) ) ;
#141 = ADVANCED_FACE ( 'NONE', ( #139, #115 ), #57, .T. ) ;
#142 = CYLINDRICAL_SURFACE ( 'NONE', #69, 1.154999999999999583 ) ;
#143 = PERSON_AND_ORGANIZATION ( #211, #296 ) ;
#144 = DIRECTION ( 'NONE',  ( -3.491481338843133355E-15, 1.224646799147353207E-16, -1.000000000000000000 ) ) ;
#145 =( NAMED_UNIT ( * ) SI_UNIT ( $, .STERADIAN. ) SOLID_ANGLE_UNIT ( ) );
#146 = CC_DESIGN_PERSON_AND_ORGANIZATION_ASSIGNMENT ( #225, #190, ( #81 ) ) ;
#147 = EDGE_LOOP ( 'NONE', ( #59 ) ) ;
#148 = APPROVAL_STATUS ( 'not_yet_approved' ) ;
#149 = DIRECTION ( 'NONE',  ( -3.491481338843133355E-15, 1.224646799147353207E-16, -1.000000000000000000 ) ) ;
#150 = CARTESIAN_POINT ( 'NONE',  ( 7.104220552055901835E-14, 1.035384493975579412, 20.34729635533384595 ) ) ;
#151 = APPLICATION_CONTEXT ( 'configuration controlled 3d designs of mechanical parts and assemblies' ) ;
#152 = PERSON_AND_ORGANIZATION_ROLE ( 'classification_officer' ) ;
#153 = EDGE_LOOP ( 'NONE', ( #117 ) ) ;
#154 = COORDINATED_UNIVERSAL_TIME_OFFSET ( 1, 0, .AHEAD. ) ;
#155 = AXIS2_PLACEMENT_3D ( 'NONE', #97, #261, #122 ) ;
#156 = EDGE_LOOP ( 'NONE', ( #231 ) ) ;
#157 = ORIENTED_EDGE ( 'NONE', *, *, #68, .T. ) ;
#158 = CARTESIAN_POINT ( 'NONE',  ( 6.982962677686266711E-14, -2.449293598294706513E-15, 20.00000000000000000 ) ) ;
#159 = DATE_TIME_ROLE ( 'creation_date' ) ;
#160 = ORIENTED_EDGE ( 'NONE', *, *, #199, .T. ) ;
#161 = CONICAL_SURFACE ( 'NONE', #31, 1.499999999999996669, 0.1745329251994258701 ) ;
#162 = AXIS2_PLACEMENT_3D ( 'NONE', #16, #227, #176 ) ;
#163 = ADVANCED_FACE ( 'NONE', ( #170, #235 ), #132, .T. ) ;
#164 = CARTESIAN_POINT ( 'NONE',  ( 8.728703347107829444E-16, -3.061616997868381785E-17, 0.2499999999999998890 ) ) ;
#165 = DIRECTION ( 'NONE',  ( -3.491481338843133355E-15, 1.224646799147353207E-16, -1.000000000000000000 ) ) ;
#166 = CLOSED_SHELL ( 'NONE', ( #80, #91, #169, #46 ) ) ;
#167 = CARTESIAN_POINT ( 'NONE',  ( -6.214158037319633992E-31, 2.179633230496037415E-32, -1.779805599470461909E-16 ) ) ;
#168 = DIRECTION ( 'NONE',  ( 0.0000000000000000000, 1.000000000000000000, 0.0000000000000000000 ) ) ;
#169 = ADVANCED_FACE ( 'NONE', ( #28, #207 ), #142, .T. ) ;
#170 = FACE_OUTER_BOUND ( 'NONE', #283, .T. ) ;
#171 = CIRCLE ( 'NONE', #162, 1.155000000000000249 ) ;
#172 = DIRECTION ( 'NONE',  ( -3.491481338843133355E-15, 1.224646799147353207E-16, -1.000000000000000000 ) ) ;
#173 = EDGE_CURVE ( 'NONE', #245, #245, #240, .T. ) ;
#174 = VERTEX_POINT ( 'NONE', #266 ) ;
#175 = PERSON_AND_ORGANIZATION_ROLE ( 'design_supplier' ) ;
#176 = DIRECTION ( 'NONE',  ( 0.0000000000000000000, 1.000000000000000000, 0.0000000000000000000 ) ) ;
#177 = COORDINATED_UNIVERSAL_TIME_OFFSET ( 1, 0, .AHEAD. ) ;
#178 = DIRECTION ( 'NONE',  ( 4.275831445896958607E-31, 1.000000000000000000, 1.224646799147353207E-16 ) ) ;
#179 = APPROVAL_PERSON_ORGANIZATION ( #12, #70, #39 ) ;
#180 = VERTEX_POINT ( 'NONE', #248 ) ;
#181 = DIRECTION ( 'NONE',  ( 0.0000000000000000000, 0.0000000000000000000, 1.000000000000000000 ) ) ;
#182 = DIRECTION ( 'NONE',  ( 0.0000000000000000000, 1.000000000000000000, 0.0000000000000000000 ) ) ;
#183 = DIRECTION ( 'NONE',  ( 3.491481338843133355E-15, -1.224646799147353207E-16, 1.000000000000000000 ) ) ;
#184 = CARTESIAN_POINT ( 'NONE',  ( 0.0000000000000000000, 0.0000000000000000000, 0.0000000000000000000 ) ) ;
#185 = DIRECTION ( 'NONE',  ( -3.491481338843133355E-15, 1.224646799147353207E-16, -1.000000000000000000 ) ) ;
#186 = AXIS2_PLACEMENT_3D ( 'NONE', #275, #93, #168 ) ;
#187 = CC_DESIGN_SECURITY_CLASSIFICATION ( #48, ( #81 ) ) ;
#188 = CARTESIAN_POINT ( 'NONE',  ( -3.107079018659816996E-31, 1.089816615248018707E-32, -8.899027997352309543E-17 ) ) ;
#189 = DIRECTION ( 'NONE',  ( 0.0000000000000000000, 1.000000000000000000, 0.0000000000000000000 ) ) ;
#190 = PERSON_AND_ORGANIZATION_ROLE ( 'creator' ) ;
#191 = AXIS2_PLACEMENT_3D ( 'NONE', #184, #256, #52 ) ;
#192 = DIRECTION ( 'NONE',  ( 0.0000000000000000000, 1.000000000000000000, 0.0000000000000000000 ) ) ;
#193 = VERTEX_POINT ( 'NONE', #105 ) ;
#194 = EDGE_LOOP ( 'NONE', ( #253 ) ) ;
#195 = FACE_OUTER_BOUND ( 'NONE', #153, .T. ) ;
#196 = CALENDAR_DATE ( 2021, 1, 12 ) ;
#197 = AXIS2_PLACEMENT_3D ( 'NONE', #259, #185, #239 ) ;
#198 = LOCAL_TIME ( 15, 4, 13.00000000000000000, #82 ) ;
#199 = EDGE_CURVE ( 'NONE', #193, #193, #262, .T. ) ;
#200 = APPROVAL_ROLE ( '' ) ;
#201 = ADVANCED_BREP_SHAPE_REPRESENTATION ( '327071', ( #22, #213, #241 ), #44 ) ;
#202 = PRODUCT_DEFINITION ( 'UNKNOWN', '', #81, #54 ) ;
#203 = ORIENTED_EDGE ( 'NONE', *, *, #268, .F. ) ;
#204 = AXIS2_PLACEMENT_3D ( 'NONE', #58, #18, #87 ) ;
#205 = EDGE_LOOP ( 'NONE', ( #138 ) ) ;
#206 = APPROVAL_DATE_TIME ( #25, #70 ) ;
#207 = FACE_OUTER_BOUND ( 'NONE', #111, .T. ) ;
#208 = ORIENTED_EDGE ( 'NONE', *, *, #68, .F. ) ;
#209 = CARTESIAN_POINT ( 'NONE',  ( 3.491481338843133355E-14, 8.661112744872210169E-33, 10.00000000000000000 ) ) ;
#210 = DIRECTION ( 'NONE',  ( -4.275831445896958607E-31, -1.000000000000000000, -1.224646799147353207E-16 ) ) ;
#211 = PERSON ( 'UNSPECIFIED', 'UNSPECIFIED', 'UNSPECIFIED', ('UNSPECIFIED'), ('UNSPECIFIED'), ('UNSPECIFIED') ) ;
#212 = AXIS2_PLACEMENT_3D ( 'NONE', #164, #119, #140 ) ;
#213 = MANIFOLD_SOLID_BREP ( 'Corps-Déplacer/Copier1[2]', #166 ) ;
#214 = DIRECTION ( 'NONE',  ( 0.0000000000000000000, 1.000000000000000000, 0.0000000000000000000 ) ) ;
#215 = DIRECTION ( 'NONE',  ( 0.0000000000000000000, 1.000000000000000000, 0.0000000000000000000 ) ) ;
#216 = SECURITY_CLASSIFICATION_LEVEL ( 'unclassified' ) ;
#217 = CARTESIAN_POINT ( 'NONE',  ( 1.745740669421566678E-13, 1.199999999999995515, 50.00000000000000000 ) ) ;
#218 = AXIS2_PLACEMENT_3D ( 'NONE', #188, #183, #210 ) ;
#219 = LOCAL_TIME ( 15, 4, 13.00000000000000000, #154 ) ;
#220 = DIRECTION ( 'NONE',  ( 0.0000000000000000000, 1.000000000000000000, 0.0000000000000000000 ) ) ;
#221 =( NAMED_UNIT ( * ) PLANE_ANGLE_UNIT ( ) SI_UNIT ( $, .RADIAN. ) );
#222 = ORIENTED_EDGE ( 'NONE', *, *, #129, .T. ) ;
#223 = PERSON_AND_ORGANIZATION_ROLE ( 'creator' ) ;
#224 = DIRECTION ( 'NONE',  ( 0.0000000000000000000, 1.000000000000000000, 0.0000000000000000000 ) ) ;
#225 = PERSON_AND_ORGANIZATION ( #211, #296 ) ;
#226 = AXIS2_PLACEMENT_3D ( 'NONE', #118, #72, #189 ) ;
#227 = DIRECTION ( 'NONE',  ( -3.491481338843133355E-15, 1.224646799147353207E-16, -1.000000000000000000 ) ) ;
#228 = ADVANCED_FACE ( 'NONE', ( #55, #238 ), #29, .T. ) ;
#229 = PRODUCT ( '327071', '327071', '', ( #294 ) ) ;
#230 = AXIS2_PLACEMENT_3D ( 'NONE', #134, #95, #77 ) ;
#231 = ORIENTED_EDGE ( 'NONE', *, *, #173, .F. ) ;
#232 = FACE_OUTER_BOUND ( 'NONE', #107, .T. ) ;
#233 = CONICAL_SURFACE ( 'NONE', #272, 1.200000000000001732, 0.7853981633974453924 ) ;
#234 = EDGE_LOOP ( 'NONE', ( #3 ) ) ;
#235 = FACE_BOUND ( 'NONE', #147, .T. ) ;
#236 = APPROVAL ( #66, 'UNSPECIFIED' ) ;
#237 = EDGE_LOOP ( 'NONE', ( #281 ) ) ;
#238 = FACE_OUTER_BOUND ( 'NONE', #104, .T. ) ;
#239 = DIRECTION ( 'NONE',  ( 4.275831445896958607E-31, 1.000000000000000000, 1.224646799147352961E-16 ) ) ;
#240 = CIRCLE ( 'NONE', #226, 1.155000000000000249 ) ;
#241 = AXIS2_PLACEMENT_3D ( 'NONE', #287, #181, #106 ) ;
#242 = CC_DESIGN_PERSON_AND_ORGANIZATION_ASSIGNMENT ( #252, #45, ( #229 ) ) ;
#243 = FACE_OUTER_BOUND ( 'NONE', #43, .T. ) ;
#244 = CARTESIAN_POINT ( 'NONE',  ( 8.024213829604036381E-14, -2.814515338453599003E-15, 22.98226182776270221 ) ) ;
#245 = VERTEX_POINT ( 'NONE', #124 ) ;
#246 = CARTESIAN_POINT ( 'NONE',  ( 7.104220552055901835E-14, -2.491825135286219831E-15, 20.34729635533384595 ) ) ;
#247 = DATE_AND_TIME ( #11, #302 ) ;
#248 = CARTESIAN_POINT ( 'NONE',  ( 3.491481338843133355E-14, 1.154999999999998916, 10.00000000000000000 ) ) ;
#249 = APPROVAL_DATE_TIME ( #35, #40 ) ;
#250 = EDGE_LOOP ( 'NONE', ( #203 ) ) ;
#251 = AXIS2_PLACEMENT_3D ( 'NONE', #209, #282, #74 ) ;
#252 = PERSON_AND_ORGANIZATION ( #211, #296 ) ;
#253 = ORIENTED_EDGE ( 'NONE', *, *, #276, .T. ) ;
#254 = DIRECTION ( 'NONE',  ( -3.491481338843133355E-15, 1.224646799147353207E-16, -1.000000000000000000 ) ) ;
#255 = DIRECTION ( 'NONE',  ( 0.0000000000000000000, -1.000000000000000000, 0.0000000000000000000 ) ) ;
#256 = DIRECTION ( 'NONE',  ( -3.491481338843133355E-15, 1.224646799147353207E-16, -1.000000000000000000 ) ) ;
#257 = ADVANCED_FACE ( 'NONE', ( #34, #83 ), #233, .T. ) ;
#258 = CIRCLE ( 'NONE', #120, 1.499999999999996669 ) ;
#259 = CARTESIAN_POINT ( 'NONE',  ( 0.0000000000000000000, 0.0000000000000000000, 0.0000000000000000000 ) ) ;
#260 = PLANE ( 'NONE',  #218 ) ;
#261 = DIRECTION ( 'NONE',  ( -3.491481338843133355E-15, 1.224646799147353207E-16, -1.000000000000000000 ) ) ;
#262 = CIRCLE ( 'NONE', #301, 1.010662432702594593 ) ;
#263 = ADVANCED_FACE ( 'NONE', ( #195, #103 ), #67, .F. ) ;
#264 = PLANE ( 'NONE',  #204 ) ;
#265 = CARTESIAN_POINT ( 'NONE',  ( 6.982962677686266711E-14, 1.004999999999997673, 20.00000000000000000 ) ) ;
#266 = CARTESIAN_POINT ( 'NONE',  ( 8.728703347107835360E-16, 1.154999999999998916, 0.2500000000000000555 ) ) ;
#267 = APPROVAL_ROLE ( '' ) ;
#268 = EDGE_CURVE ( 'NONE', #290, #290, #14, .T. ) ;
#269 = VERTEX_POINT ( 'NONE', #64 ) ;
#270 = FACE_OUTER_BOUND ( 'NONE', #237, .T. ) ;
#271 = ADVANCED_FACE ( 'NONE', ( #270 ), #264, .F. ) ;
#272 = AXIS2_PLACEMENT_3D ( 'NONE', #291, #172, #220 ) ;
#273 = DATE_AND_TIME ( #300, #198 ) ;
#274 = CONICAL_SURFACE ( 'NONE', #212, 1.154999999999998916, 0.5235987755982925984 ) ;
#275 = CARTESIAN_POINT ( 'NONE',  ( 3.582192684931459116E-14, -1.256464056309101033E-15, 10.25980762113533729 ) ) ;
#276 = EDGE_CURVE ( 'NONE', #84, #84, #258, .T. ) ;
#277 = CARTESIAN_POINT ( 'NONE',  ( 1.745740669421566678E-13, 8.998558695971067645E-33, 50.00000000000000000 ) ) ;
#278 = APPROVAL_DATE_TIME ( #99, #236 ) ;
#279 = FACE_BOUND ( 'NONE', #250, .T. ) ;
#280 = AXIS2_PLACEMENT_3D ( 'NONE', #277, #32, #56 ) ;
#281 = ORIENTED_EDGE ( 'NONE', *, *, #303, .T. ) ;
#282 = DIRECTION ( 'NONE',  ( 3.491481338843133355E-15, -1.224646799147353207E-16, 1.000000000000000000 ) ) ;
#283 = EDGE_LOOP ( 'NONE', ( #19 ) ) ;
#284 = CARTESIAN_POINT ( 'NONE',  ( 1.745740669421566678E-13, -6.123233995736766085E-15, 50.00000000000000000 ) ) ;
#285 = CC_DESIGN_PERSON_AND_ORGANIZATION_ASSIGNMENT ( #17, #175, ( #81 ) ) ;
#286 = ORIENTED_EDGE ( 'NONE', *, *, #116, .F. ) ;
#287 = CARTESIAN_POINT ( 'NONE',  ( 0.0000000000000000000, 0.0000000000000000000, 0.0000000000000000000 ) ) ;
#288 = ORIENTED_EDGE ( 'NONE', *, *, #276, .F. ) ;
#289 = CC_DESIGN_PERSON_AND_ORGANIZATION_ASSIGNMENT ( #143, #223, ( #202 ) ) ;
#290 = VERTEX_POINT ( 'NONE', #150 ) ;
#291 = CARTESIAN_POINT ( 'NONE',  ( 1.745740669421566678E-13, -6.123233995736766085E-15, 50.00000000000000000 ) ) ;
#292 = CIRCLE ( 'NONE', #186, 1.004999999999999005 ) ;
#293 = PERSON_AND_ORGANIZATION ( #211, #296 ) ;
#294 = MECHANICAL_CONTEXT ( 'NONE', #63, 'mechanical' ) ;
#295 = EDGE_LOOP ( 'NONE', ( #160 ) ) ;
#296 = ORGANIZATION ( 'UNSPECIFIED', 'UNSPECIFIED', '' ) ;
#297 = EDGE_LOOP ( 'NONE', ( #126 ) ) ;
#298 = SHAPE_DEFINITION_REPRESENTATION ( #88, #201 ) ;
#299 = EDGE_LOOP ( 'NONE', ( #288 ) ) ;
#300 = CALENDAR_DATE ( 2021, 1, 12 ) ;
#301 = AXIS2_PLACEMENT_3D ( 'NONE', #167, #165, #5 ) ;
#302 = LOCAL_TIME ( 15, 4, 13.00000000000000000, #177 ) ;
#303 = EDGE_CURVE ( 'NONE', #180, #180, #171, .T. ) ;
ENDSEC;
END-ISO-10303-21;
