ISO-10303-21;
HEADER;
FILE_DESCRIPTION (( 'STEP AP203' ),
    '1' );
FILE_NAME ('327070.step',
    '2021-12-01T14:04:12',
    ( '' ),
    ( '' ),
    'SwSTEP 2.0',
    'SolidWorks 2019',
    '' );
FILE_SCHEMA (( 'CONFIG_CONTROL_DESIGN' ));
ENDSEC;

DATA;
#1 = DIRECTION ( 'NONE',  ( -3.491481338843133355E-15, 1.224646799147353207E-16, -1.000000000000000000 ) ) ;
#2 = PLANE ( 'NONE',  #200 ) ;
#3 = MANIFOLD_SOLID_BREP ( 'Corps-Déplacer/Copier1[1]', #267 ) ;
#4 = CIRCLE ( 'NONE', #292, 0.9949999999999997735 ) ;
#5 = FACE_OUTER_BOUND ( 'NONE', #270, .T. ) ;
#6 = DIRECTION ( 'NONE',  ( 0.0000000000000000000, 1.000000000000000000, 0.0000000000000000000 ) ) ;
#7 = APPROVAL_STATUS ( 'not_yet_approved' ) ;
#8 = CC_DESIGN_APPROVAL ( #170, ( #163 ) ) ;
#9 = ADVANCED_FACE ( 'NONE', ( #114, #47 ), #96, .T. ) ;
#10 = PERSON_AND_ORGANIZATION ( #223, #209 ) ;
#11 = PERSON_AND_ORGANIZATION ( #223, #209 ) ;
#12 = ORIENTED_EDGE ( 'NONE', *, *, #24, .T. ) ;
#13 = MECHANICAL_CONTEXT ( 'NONE', #193, 'mechanical' ) ;
#14 = ORIENTED_EDGE ( 'NONE', *, *, #145, .F. ) ;
#15 = AXIS2_PLACEMENT_3D ( 'NONE', #250, #142, #118 ) ;
#16 = EDGE_LOOP ( 'NONE', ( #94 ) ) ;
#17 = ADVANCED_FACE ( 'NONE', ( #273, #159 ), #208, .T. ) ;
#18 = FACE_OUTER_BOUND ( 'NONE', #198, .T. ) ;
#19 = DIRECTION ( 'NONE',  ( -5.046104657783155698E-31, -1.000000000000000000, -1.420352191029046515E-16 ) ) ;
#20 = CIRCLE ( 'NONE', #243, 1.145000000000000018 ) ;
#21 = DIRECTION ( 'NONE',  ( 0.0000000000000000000, 1.000000000000000000, 0.0000000000000000000 ) ) ;
#22 = FACE_OUTER_BOUND ( 'NONE', #34, .T. ) ;
#23 = DIRECTION ( 'NONE',  ( -3.491481338843133355E-15, 1.224646799147353207E-16, -1.000000000000000000 ) ) ;
#24 = EDGE_CURVE ( 'NONE', #164, #164, #291, .T. ) ;
#25 =( GEOMETRIC_REPRESENTATION_CONTEXT ( 3 ) GLOBAL_UNCERTAINTY_ASSIGNED_CONTEXT ( ( #283 ) ) GLOBAL_UNIT_ASSIGNED_CONTEXT ( ( #188, #289, #134 ) ) REPRESENTATION_CONTEXT ( 'NONE', 'WORKASPACE' ) );
#26 = DIRECTION ( 'NONE',  ( 4.275831445896958607E-31, 1.000000000000000000, 1.224646799147353207E-16 ) ) ;
#27 = CARTESIAN_POINT ( 'NONE',  ( 0.0000000000000000000, 0.0000000000000000000, 0.0000000000000000000 ) ) ;
#28 = DIRECTION ( 'NONE',  ( -3.491481338843133355E-15, 1.224646799147353207E-16, -1.000000000000000000 ) ) ;
#29 = VERTEX_POINT ( 'NONE', #210 ) ;
#30 = FACE_OUTER_BOUND ( 'NONE', #105, .T. ) ;
#31 = COORDINATED_UNIVERSAL_TIME_OFFSET ( 1, 0, .AHEAD. ) ;
#32 = APPROVAL ( #156, 'UNSPECIFIED' ) ;
#33 = CALENDAR_DATE ( 2021, 1, 12 ) ;
#34 = EDGE_LOOP ( 'NONE', ( #173 ) ) ;
#35 = AXIS2_PLACEMENT_3D ( 'NONE', #27, #1, #102 ) ;
#36 = PERSON_AND_ORGANIZATION ( #223, #209 ) ;
#37 = EDGE_LOOP ( 'NONE', ( #155 ) ) ;
#38 = PERSON_AND_ORGANIZATION_ROLE ( 'design_supplier' ) ;
#39 = CC_DESIGN_PERSON_AND_ORGANIZATION_ASSIGNMENT ( #11, #215, ( #217 ) ) ;
#40 = DATE_AND_TIME ( #241, #67 ) ;
#41 = EDGE_LOOP ( 'NONE', ( #175 ) ) ;
#42 = DIRECTION ( 'NONE',  ( 3.491481338843133355E-15, -1.224646799147353207E-16, 1.000000000000000000 ) ) ;
#43 = CARTESIAN_POINT ( 'NONE',  ( 0.0000000000000000000, 0.0000000000000000000, 0.0000000000000000000 ) ) ;
#44 = ADVANCED_FACE ( 'NONE', ( #18, #246 ), #143, .T. ) ;
#45 = DIRECTION ( 'NONE',  ( 3.491481338843133355E-15, -1.224646799147353207E-16, 1.000000000000000000 ) ) ;
#46 = AXIS2_PLACEMENT_3D ( 'NONE', #261, #121, #206 ) ;
#47 = FACE_OUTER_BOUND ( 'NONE', #133, .T. ) ;
#48 = ORIENTED_EDGE ( 'NONE', *, *, #303, .F. ) ;
#49 = CARTESIAN_POINT ( 'NONE',  ( -1.892735826383160481E-31, 1.000662432702594584, -5.421010862427522170E-17 ) ) ;
#50 = AXIS2_PLACEMENT_3D ( 'NONE', #43, #23, #229 ) ;
#51 = APPROVAL_PERSON_ORGANIZATION ( #36, #295, #103 ) ;
#52 = VERTEX_POINT ( 'NONE', #286 ) ;
#53 = CARTESIAN_POINT ( 'NONE',  ( 6.405924284287273902E-14, 1.025384493975576961, 18.34729635533384240 ) ) ;
#54 = FACE_OUTER_BOUND ( 'NONE', #16, .T. ) ;
#55 = CARTESIAN_POINT ( 'NONE',  ( 7.345718736475924051E-14, -2.576531295751585890E-15, 21.03897464595887712 ) ) ;
#56 = AXIS2_PLACEMENT_3D ( 'NONE', #55, #101, #6 ) ;
#57 = CC_DESIGN_DATE_AND_TIME_ASSIGNMENT ( #153, #293, ( #163 ) ) ;
#58 = ORIENTED_EDGE ( 'NONE', *, *, #95, .T. ) ;
#59 = PERSON_AND_ORGANIZATION_ROLE ( 'creator' ) ;
#60 = CALENDAR_DATE ( 2021, 1, 12 ) ;
#61 = AXIS2_PLACEMENT_3D ( 'NONE', #80, #83, #194 ) ;
#62 = EDGE_LOOP ( 'NONE', ( #130 ) ) ;
#63 = PERSON_AND_ORGANIZATION ( #223, #209 ) ;
#64 = ORIENTED_EDGE ( 'NONE', *, *, #212, .F. ) ;
#65 = ADVANCED_FACE ( 'NONE', ( #298 ), #92, .F. ) ;
#66 = ORIENTED_EDGE ( 'NONE', *, *, #117, .T. ) ;
#67 = LOCAL_TIME ( 15, 4, 12.00000000000000000, #271 ) ;
#68 = DIRECTION ( 'NONE',  ( -3.491481338843133355E-15, 1.224646799147353207E-16, -1.000000000000000000 ) ) ;
#69 = CARTESIAN_POINT ( 'NONE',  ( 2.793185071074506684E-14, -9.797174393178825657E-16, 8.000000000000000000 ) ) ;
#70 = DIRECTION ( 'NONE',  ( -3.491481338843133355E-15, 1.224646799147353207E-16, -1.000000000000000000 ) ) ;
#71 = APPROVAL_PERSON_ORGANIZATION ( #290, #32, #132 ) ;
#72 = FACE_OUTER_BOUND ( 'NONE', #37, .T. ) ;
#73 = ADVANCED_FACE ( 'NONE', ( #296, #72 ), #256, .T. ) ;
#74 = FACE_OUTER_BOUND ( 'NONE', #138, .T. ) ;
#75 = FACE_OUTER_BOUND ( 'NONE', #240, .T. ) ;
#76 = CIRCLE ( 'NONE', #120, 1.200000000000001732 ) ;
#77 = DIRECTION ( 'NONE',  ( -4.275831445896958607E-31, -1.000000000000000000, -1.224646799147353207E-16 ) ) ;
#78 = CARTESIAN_POINT ( 'NONE',  ( 2.793185071074506684E-14, 8.586124755739120847E-33, 8.000000000000000000 ) ) ;
#79 = DIRECTION ( 'NONE',  ( -3.491481338843133355E-15, 1.224646799147353207E-16, -1.000000000000000000 ) ) ;
#80 = CARTESIAN_POINT ( 'NONE',  ( 0.0000000000000000000, 0.0000000000000000000, 0.0000000000000000000 ) ) ;
#81 = AXIS2_PLACEMENT_3D ( 'NONE', #69, #70, #98 ) ;
#82 = APPROVAL_DATE_TIME ( #191, #295 ) ;
#83 = DIRECTION ( 'NONE',  ( 0.0000000000000000000, 0.0000000000000000000, 1.000000000000000000 ) ) ;
#84 = ORIENTED_EDGE ( 'NONE', *, *, #303, .T. ) ;
#85 = AXIS2_PLACEMENT_3D ( 'NONE', #275, #68, #93 ) ;
#86 = PERSON_AND_ORGANIZATION ( #223, #209 ) ;
#87 = ORIENTED_EDGE ( 'NONE', *, *, #251, .T. ) ;
#88 = CC_DESIGN_PERSON_AND_ORGANIZATION_ASSIGNMENT ( #239, #265, ( #97 ) ) ;
#89 = ORIENTED_EDGE ( 'NONE', *, *, #232, .T. ) ;
#90 = CIRCLE ( 'NONE', #297, 1.000662432702594584 ) ;
#91 = AXIS2_PLACEMENT_3D ( 'NONE', #281, #165, #230 ) ;
#92 = PLANE ( 'NONE',  #146 ) ;
#93 = DIRECTION ( 'NONE',  ( 0.0000000000000000000, 1.000000000000000000, 0.0000000000000000000 ) ) ;
#94 = ORIENTED_EDGE ( 'NONE', *, *, #117, .F. ) ;
#95 = EDGE_CURVE ( 'NONE', #151, #151, #90, .T. ) ;
#96 = CONICAL_SURFACE ( 'NONE', #262, 1.499999999999996669, 0.1745329251994266750 ) ;
#97 = SECURITY_CLASSIFICATION ( '', '', #104 ) ;
#98 = DIRECTION ( 'NONE',  ( 0.0000000000000000000, 1.000000000000000000, 0.0000000000000000000 ) ) ;
#99 = CARTESIAN_POINT ( 'NONE',  ( 0.0000000000000000000, 0.0000000000000000000, 0.0000000000000000000 ) ) ;
#100 = VERTEX_POINT ( 'NONE', #183 ) ;
#101 = DIRECTION ( 'NONE',  ( -3.491481338843133355E-15, 1.224646799147353207E-16, -1.000000000000000000 ) ) ;
#102 = DIRECTION ( 'NONE',  ( 4.275831445896958607E-31, 1.000000000000000000, 1.224646799147353207E-16 ) ) ;
#103 = APPROVAL_ROLE ( '' ) ;
#104 = SECURITY_CLASSIFICATION_LEVEL ( 'unclassified' ) ;
#105 = EDGE_LOOP ( 'NONE', ( #64 ) ) ;
#106 = EDGE_CURVE ( 'NONE', #182, #182, #141, .T. ) ;
#107 = DATE_TIME_ROLE ( 'classification_date' ) ;
#108 = ORIENTED_EDGE ( 'NONE', *, *, #251, .F. ) ;
#109 = COORDINATED_UNIVERSAL_TIME_OFFSET ( 1, 0, .AHEAD. ) ;
#110 = EDGE_LOOP ( 'NONE', ( #108 ) ) ;
#111 = EDGE_CURVE ( 'NONE', #255, #255, #176, .T. ) ;
#112 = EDGE_LOOP ( 'NONE', ( #136 ) ) ;
#113 = MANIFOLD_SOLID_BREP ( 'Corps-Déplacer/Copier1[2]', #140 ) ;
#114 = FACE_BOUND ( 'NONE', #110, .T. ) ;
#115 = AXIS2_PLACEMENT_3D ( 'NONE', #233, #28, #26 ) ;
#116 = CARTESIAN_POINT ( 'NONE',  ( 8.728703347107829444E-16, -3.061616997868381785E-17, 0.2499999999999998890 ) ) ;
#117 = EDGE_CURVE ( 'NONE', #52, #52, #4, .T. ) ;
#118 = DIRECTION ( 'NONE',  ( 0.0000000000000000000, 1.000000000000000000, 0.0000000000000000000 ) ) ;
#119 = DIRECTION ( 'NONE',  ( -3.491481338843133355E-15, 1.224646799147353207E-16, -1.000000000000000000 ) ) ;
#120 = AXIS2_PLACEMENT_3D ( 'NONE', #287, #167, #149 ) ;
#121 = DIRECTION ( 'NONE',  ( -3.491481338843133355E-15, 1.224646799147353207E-16, -1.000000000000000000 ) ) ;
#122 = DIRECTION ( 'NONE',  ( 0.0000000000000000000, 1.000000000000000000, 0.0000000000000000000 ) ) ;
#123 = PRODUCT_DEFINITION_SHAPE ( 'NONE', 'NONE',  #163 ) ;
#124 = VERTEX_POINT ( 'NONE', #207 ) ;
#125 = CYLINDRICAL_SURFACE ( 'NONE', #35, 0.9949999999999993294 ) ;
#126 = DIRECTION ( 'NONE',  ( -3.491481338843133355E-15, 1.224646799147353207E-16, -1.000000000000000000 ) ) ;
#127 = APPROVAL_STATUS ( 'not_yet_approved' ) ;
#128 = APPLICATION_PROTOCOL_DEFINITION ( 'international standard', 'config_control_design', 1994, #193 ) ;
#129 = LOCAL_TIME ( 15, 4, 12.00000000000000000, #192 ) ;
#130 = ORIENTED_EDGE ( 'NONE', *, *, #212, .T. ) ;
#131 = DATE_AND_TIME ( #60, #129 ) ;
#132 = APPROVAL_ROLE ( '' ) ;
#133 = EDGE_LOOP ( 'NONE', ( #84 ) ) ;
#134 =( NAMED_UNIT ( * ) SI_UNIT ( $, .STERADIAN. ) SOLID_ANGLE_UNIT ( ) );
#135 = ADVANCED_FACE ( 'NONE', ( #179, #162 ), #190, .T. ) ;
#136 = ORIENTED_EDGE ( 'NONE', *, *, #145, .T. ) ;
#137 = CARTESIAN_POINT ( 'NONE',  ( 6.284666409917640040E-14, -2.204364238465235428E-15, 18.00000000000000000 ) ) ;
#138 = EDGE_LOOP ( 'NONE', ( #87 ) ) ;
#139 = CARTESIAN_POINT ( 'NONE',  ( -3.085699861430331844E-31, 1.082317816334709228E-32, -8.837795657394940786E-17 ) ) ;
#140 = CLOSED_SHELL ( 'NONE', ( #65, #73, #266, #278 ) ) ;
#141 = CIRCLE ( 'NONE', #81, 1.145000000000000018 ) ;
#142 = DIRECTION ( 'NONE',  ( -3.491481338843133355E-15, 1.224646799147353207E-16, -1.000000000000000000 ) ) ;
#143 = CYLINDRICAL_SURFACE ( 'NONE', #50, 1.499999999999999112 ) ;
#144 = DIRECTION ( 'NONE',  ( 3.491481338843133355E-15, -1.224646799147353207E-16, 1.000000000000000000 ) ) ;
#145 = EDGE_CURVE ( 'NONE', #259, #259, #172, .T. ) ;
#146 = AXIS2_PLACEMENT_3D ( 'NONE', #139, #42, #222 ) ;
#147 = CARTESIAN_POINT ( 'NONE',  ( 2.883896417162832445E-14, 0.9949999999999978861, 8.259807621135337286 ) ) ;
#148 = DIRECTION ( 'NONE',  ( -4.275831445896958607E-31, -1.000000000000000000, -1.224646799147353207E-16 ) ) ;
#149 = DIRECTION ( 'NONE',  ( 0.0000000000000000000, 1.000000000000000000, 0.0000000000000000000 ) ) ;
#150 = ADVANCED_FACE ( 'NONE', ( #22 ), #300, .F. ) ;
#151 = VERTEX_POINT ( 'NONE', #49 ) ;
#152 = PERSON_AND_ORGANIZATION ( #223, #209 ) ;
#153 = DATE_AND_TIME ( #213, #268 ) ;
#154 = AXIS2_PLACEMENT_3D ( 'NONE', #78, #144, #148 ) ;
#155 = ORIENTED_EDGE ( 'NONE', *, *, #111, .T. ) ;
#156 = APPROVAL_STATUS ( 'not_yet_approved' ) ;
#157 = CALENDAR_DATE ( 2021, 1, 12 ) ;
#158 = CARTESIAN_POINT ( 'NONE',  ( 1.735266225405037467E-13, -6.086494591762345225E-15, 49.70000000000000284 ) ) ;
#159 = FACE_BOUND ( 'NONE', #62, .T. ) ;
#160 = EDGE_LOOP ( 'NONE', ( #58 ) ) ;
#161 = CARTESIAN_POINT ( 'NONE',  ( 8.728703347107829444E-16, -3.061616997868381785E-17, 0.2499999999999998890 ) ) ;
#162 = FACE_BOUND ( 'NONE', #112, .T. ) ;
#163 = PRODUCT_DEFINITION ( 'UNKNOWN', '', #217, #260 ) ;
#164 = VERTEX_POINT ( 'NONE', #253 ) ;
#165 = DIRECTION ( 'NONE',  ( -3.491481338843133355E-15, 1.224646799147353207E-16, -1.000000000000000000 ) ) ;
#166 = FACE_OUTER_BOUND ( 'NONE', #216, .T. ) ;
#167 = DIRECTION ( 'NONE',  ( -3.491481338843133355E-15, 1.224646799147353207E-16, -1.000000000000000000 ) ) ;
#168 = DIRECTION ( 'NONE',  ( 4.275831445896958607E-31, 1.000000000000000000, 1.224646799147353207E-16 ) ) ;
#169 = AXIS2_PLACEMENT_3D ( 'NONE', #252, #119, #227 ) ;
#170 = APPROVAL ( #7, 'UNSPECIFIED' ) ;
#171 = ORIENTED_EDGE ( 'NONE', *, *, #106, .F. ) ;
#172 = CIRCLE ( 'NONE', #169, 0.9949999999999988853 ) ;
#173 = ORIENTED_EDGE ( 'NONE', *, *, #106, .T. ) ;
#174 = COORDINATED_UNIVERSAL_TIME_OFFSET ( 1, 0, .AHEAD. ) ;
#175 = ORIENTED_EDGE ( 'NONE', *, *, #95, .F. ) ;
#176 = CIRCLE ( 'NONE', #238, 1.144999999999998908 ) ;
#177 = DIRECTION ( 'NONE',  ( 0.0000000000000000000, -1.000000000000000000, 0.0000000000000000000 ) ) ;
#178 = CARTESIAN_POINT ( 'NONE',  ( -6.171399722860663688E-31, 2.164635632669418455E-32, -1.767559131478988157E-16 ) ) ;
#179 = FACE_OUTER_BOUND ( 'NONE', #219, .T. ) ;
#180 = CIRCLE ( 'NONE', #56, 1.499999999999996669 ) ;
#181 = CARTESIAN_POINT ( 'NONE',  ( 2.793185071074506684E-14, -9.797174393178825657E-16, 8.000000000000000000 ) ) ;
#182 = VERTEX_POINT ( 'NONE', #282 ) ;
#183 = CARTESIAN_POINT ( 'NONE',  ( 1.745740669421566678E-13, 1.199999999999995515, 50.00000000000000000 ) ) ;
#184 = AXIS2_PLACEMENT_3D ( 'NONE', #99, #79, #168 ) ;
#185 = FACE_OUTER_BOUND ( 'NONE', #242, .T. ) ;
#186 = CC_DESIGN_PERSON_AND_ORGANIZATION_ASSIGNMENT ( #86, #236, ( #263 ) ) ;
#187 = PLANE ( 'NONE',  #91 ) ;
#188 =( LENGTH_UNIT ( ) NAMED_UNIT ( * ) SI_UNIT ( .MILLI., .METRE. ) );
#189 = ADVANCED_FACE ( 'NONE', ( #30 ), #187, .F. ) ;
#190 = CONICAL_SURFACE ( 'NONE', #15, 0.9949999999999988853, 0.5235987755982934866 ) ;
#191 = DATE_AND_TIME ( #157, #214 ) ;
#192 = COORDINATED_UNIVERSAL_TIME_OFFSET ( 1, 0, .AHEAD. ) ;
#193 = APPLICATION_CONTEXT ( 'configuration controlled 3d designs of mechanical parts and assemblies' ) ;
#194 = DIRECTION ( 'NONE',  ( 1.000000000000000000, 0.0000000000000000000, 0.0000000000000000000 ) ) ;
#195 = APPROVAL_ROLE ( '' ) ;
#196 = EDGE_LOOP ( 'NONE', ( #89 ) ) ;
#197 = PRODUCT_RELATED_PRODUCT_CATEGORY ( 'detail', '', ( #263 ) ) ;
#198 = EDGE_LOOP ( 'NONE', ( #48 ) ) ;
#199 = TOROIDAL_SURFACE ( 'NONE', #115, 2.994999999999999662, 2.000000000000000444 ) ;
#200 = AXIS2_PLACEMENT_3D ( 'NONE', #234, #211, #77 ) ;
#201 = DIRECTION ( 'NONE',  ( 0.0000000000000000000, 1.000000000000000000, 0.0000000000000000000 ) ) ;
#202 = DIRECTION ( 'NONE',  ( 3.491481338843133355E-15, -1.224646799147353207E-16, 1.000000000000000000 ) ) ;
#203 = DIRECTION ( 'NONE',  ( 5.046104657783155698E-31, 1.000000000000000000, 1.420352191029046515E-16 ) ) ;
#204 = DIRECTION ( 'NONE',  ( -3.491481338843133355E-15, 1.224646799147353207E-16, -1.000000000000000000 ) ) ;
#205 = CYLINDRICAL_SURFACE ( 'NONE', #184, 1.144999999999999352 ) ;
#206 = DIRECTION ( 'NONE',  ( 0.0000000000000000000, 1.000000000000000000, 0.0000000000000000000 ) ) ;
#207 = CARTESIAN_POINT ( 'NONE',  ( 7.345718736475924051E-14, 1.499999999999994005, 21.03897464595887712 ) ) ;
#208 = CONICAL_SURFACE ( 'NONE', #85, 1.200000000000001732, 0.7853981633974453924 ) ;
#209 = ORGANIZATION ( 'UNSPECIFIED', 'UNSPECIFIED', '' ) ;
#210 = CARTESIAN_POINT ( 'NONE',  ( 2.793185071074506684E-14, 1.144999999999998908, 8.000000000000000000 ) ) ;
#211 = DIRECTION ( 'NONE',  ( 3.491481338843133355E-15, -1.224646799147353207E-16, 1.000000000000000000 ) ) ;
#212 = EDGE_CURVE ( 'NONE', #100, #100, #76, .T. ) ;
#213 = CALENDAR_DATE ( 2021, 1, 12 ) ;
#214 = LOCAL_TIME ( 15, 4, 12.00000000000000000, #174 ) ;
#215 = PERSON_AND_ORGANIZATION_ROLE ( 'creator' ) ;
#216 = EDGE_LOOP ( 'NONE', ( #220 ) ) ;
#217 = PRODUCT_DEFINITION_FORMATION_WITH_SPECIFIED_SOURCE ( 'ANY', '', #263, .NOT_KNOWN. ) ;
#218 = APPROVAL_DATE_TIME ( #40, #32 ) ;
#219 = EDGE_LOOP ( 'NONE', ( #171 ) ) ;
#220 = ORIENTED_EDGE ( 'NONE', *, *, #232, .F. ) ;
#221 = ADVANCED_FACE ( 'NONE', ( #5, #75 ), #125, .T. ) ;
#222 = DIRECTION ( 'NONE',  ( -4.275831445896958607E-31, -1.000000000000000000, -1.224646799147353207E-16 ) ) ;
#223 = PERSON ( 'UNSPECIFIED', 'UNSPECIFIED', 'UNSPECIFIED', ('UNSPECIFIED'), ('UNSPECIFIED'), ('UNSPECIFIED') ) ;
#224 = APPLICATION_CONTEXT ( 'configuration controlled 3d designs of mechanical parts and assemblies' ) ;
#225 = APPROVAL_PERSON_ORGANIZATION ( #152, #170, #195 ) ;
#226 = DIRECTION ( 'NONE',  ( -3.491481338843133355E-15, 1.224646799147353207E-16, -1.000000000000000000 ) ) ;
#227 = DIRECTION ( 'NONE',  ( 0.0000000000000000000, 1.000000000000000000, 0.0000000000000000000 ) ) ;
#228 = CC_DESIGN_DATE_AND_TIME_ASSIGNMENT ( #131, #107, ( #97 ) ) ;
#229 = DIRECTION ( 'NONE',  ( 4.275831445896958607E-31, 1.000000000000000000, 1.224646799147353454E-16 ) ) ;
#230 = DIRECTION ( 'NONE',  ( 4.275831445896958607E-31, 1.000000000000000000, 1.224646799147353207E-16 ) ) ;
#231 = CARTESIAN_POINT ( 'NONE',  ( 8.728703347107835360E-16, 1.144999999999998908, 0.2500000000000000555 ) ) ;
#232 = EDGE_CURVE ( 'NONE', #29, #29, #20, .T. ) ;
#233 = CARTESIAN_POINT ( 'NONE',  ( 6.284666409917640040E-14, -2.168404344971008868E-15, 18.00000000000000000 ) ) ;
#234 = CARTESIAN_POINT ( 'NONE',  ( 2.793185071074506684E-14, 8.586124755739120847E-33, 8.000000000000000000 ) ) ;
#235 = FACE_OUTER_BOUND ( 'NONE', #196, .T. ) ;
#236 = PERSON_AND_ORGANIZATION_ROLE ( 'design_owner' ) ;
#237 = AXIS2_PLACEMENT_3D ( 'NONE', #116, #202, #19 ) ;
#238 = AXIS2_PLACEMENT_3D ( 'NONE', #161, #248, #203 ) ;
#239 = PERSON_AND_ORGANIZATION ( #223, #209 ) ;
#240 = EDGE_LOOP ( 'NONE', ( #66 ) ) ;
#241 = CALENDAR_DATE ( 2021, 1, 12 ) ;
#242 = EDGE_LOOP ( 'NONE', ( #294 ) ) ;
#243 = AXIS2_PLACEMENT_3D ( 'NONE', #181, #126, #122 ) ;
#244 = SHAPE_DEFINITION_REPRESENTATION ( #123, #254 ) ;
#245 = CC_DESIGN_PERSON_AND_ORGANIZATION_ASSIGNMENT ( #10, #38, ( #217 ) ) ;
#246 = FACE_OUTER_BOUND ( 'NONE', #247, .T. ) ;
#247 = EDGE_LOOP ( 'NONE', ( #12 ) ) ;
#248 = DIRECTION ( 'NONE',  ( -3.491481338843133355E-15, 1.224646799147353207E-16, -1.000000000000000000 ) ) ;
#249 = CC_DESIGN_APPROVAL ( #32, ( #97 ) ) ;
#250 = CARTESIAN_POINT ( 'NONE',  ( 2.883896417162832445E-14, -1.011534696479630343E-15, 8.259807621135337286 ) ) ;
#251 = EDGE_CURVE ( 'NONE', #284, #284, #279, .T. ) ;
#252 = CARTESIAN_POINT ( 'NONE',  ( 2.883896417162832445E-14, -1.011534696479630343E-15, 8.259807621135337286 ) ) ;
#253 = CARTESIAN_POINT ( 'NONE',  ( 1.735266225405037467E-13, 1.499999999999995559, 49.70000000000000284 ) ) ;
#254 = ADVANCED_BREP_SHAPE_REPRESENTATION ( '327070', ( #3, #113, #61 ), #25 ) ;
#255 = VERTEX_POINT ( 'NONE', #231 ) ;
#256 = CONICAL_SURFACE ( 'NONE', #237, 1.144999999999998908, 0.5235987755982925984 ) ;
#257 = CC_DESIGN_PERSON_AND_ORGANIZATION_ASSIGNMENT ( #63, #59, ( #163 ) ) ;
#258 = CC_DESIGN_SECURITY_CLASSIFICATION ( #97, ( #217 ) ) ;
#259 = VERTEX_POINT ( 'NONE', #147 ) ;
#260 = DESIGN_CONTEXT ( 'detailed design', #224, 'design' ) ;
#261 = CARTESIAN_POINT ( 'NONE',  ( 6.405924284287273902E-14, -2.246895775456748746E-15, 18.34729635533384240 ) ) ;
#262 = AXIS2_PLACEMENT_3D ( 'NONE', #302, #45, #177 ) ;
#263 = PRODUCT ( '327070', '327070', '', ( #13 ) ) ;
#264 = DATE_AND_TIME ( #33, #301 ) ;
#265 = PERSON_AND_ORGANIZATION_ROLE ( 'classification_officer' ) ;
#266 = ADVANCED_FACE ( 'NONE', ( #185, #235 ), #205, .T. ) ;
#267 = CLOSED_SHELL ( 'NONE', ( #150, #135, #221, #272, #9, #44, #17, #189 ) ) ;
#268 = LOCAL_TIME ( 15, 4, 12.00000000000000000, #31 ) ;
#269 = APPROVAL_DATE_TIME ( #264, #170 ) ;
#270 = EDGE_LOOP ( 'NONE', ( #14 ) ) ;
#271 = COORDINATED_UNIVERSAL_TIME_OFFSET ( 1, 0, .AHEAD. ) ;
#272 = ADVANCED_FACE ( 'NONE', ( #54, #74 ), #199, .F. ) ;
#273 = FACE_OUTER_BOUND ( 'NONE', #280, .T. ) ;
#274 = AXIS2_PLACEMENT_3D ( 'NONE', #158, #204, #201 ) ;
#275 = CARTESIAN_POINT ( 'NONE',  ( 1.745740669421566678E-13, -6.123233995736766085E-15, 50.00000000000000000 ) ) ;
#276 = DIRECTION ( 'NONE',  ( 4.275831445896957731E-31, 1.000000000000000000, 1.224646799147352961E-16 ) ) ;
#277 = DIRECTION ( 'NONE',  ( -3.491481338843133355E-15, 1.224646799147353207E-16, -1.000000000000000000 ) ) ;
#278 = ADVANCED_FACE ( 'NONE', ( #166 ), #2, .T. ) ;
#279 = CIRCLE ( 'NONE', #46, 1.025384493975578959 ) ;
#280 = EDGE_LOOP ( 'NONE', ( #299 ) ) ;
#281 = CARTESIAN_POINT ( 'NONE',  ( 1.745740669421566678E-13, 8.998558695971067645E-33, 50.00000000000000000 ) ) ;
#282 = CARTESIAN_POINT ( 'NONE',  ( 2.793185071074506684E-14, 1.144999999999998908, 8.000000000000000000 ) ) ;
#283 = UNCERTAINTY_MEASURE_WITH_UNIT (LENGTH_MEASURE( 1.000000000000000082E-05 ), #188, 'distance_accuracy_value', 'NONE');
#284 = VERTEX_POINT ( 'NONE', #53 ) ;
#285 = CC_DESIGN_APPROVAL ( #295, ( #217 ) ) ;
#286 = CARTESIAN_POINT ( 'NONE',  ( 6.284666409917640040E-14, 0.9949999999999976641, 18.00000000000000000 ) ) ;
#287 = CARTESIAN_POINT ( 'NONE',  ( 1.745740669421566678E-13, -6.123233995736766085E-15, 50.00000000000000000 ) ) ;
#288 = APPLICATION_PROTOCOL_DEFINITION ( 'international standard', 'config_control_design', 1994, #224 ) ;
#289 =( NAMED_UNIT ( * ) PLANE_ANGLE_UNIT ( ) SI_UNIT ( $, .RADIAN. ) );
#290 = PERSON_AND_ORGANIZATION ( #223, #209 ) ;
#291 = CIRCLE ( 'NONE', #274, 1.500000000000001554 ) ;
#292 = AXIS2_PLACEMENT_3D ( 'NONE', #137, #226, #21 ) ;
#293 = DATE_TIME_ROLE ( 'creation_date' ) ;
#294 = ORIENTED_EDGE ( 'NONE', *, *, #111, .F. ) ;
#295 = APPROVAL ( #127, 'UNSPECIFIED' ) ;
#296 = FACE_BOUND ( 'NONE', #41, .T. ) ;
#297 = AXIS2_PLACEMENT_3D ( 'NONE', #178, #277, #276 ) ;
#298 = FACE_OUTER_BOUND ( 'NONE', #160, .T. ) ;
#299 = ORIENTED_EDGE ( 'NONE', *, *, #24, .F. ) ;
#300 = PLANE ( 'NONE',  #154 ) ;
#301 = LOCAL_TIME ( 15, 4, 12.00000000000000000, #109 ) ;
#302 = CARTESIAN_POINT ( 'NONE',  ( 7.345718736475924051E-14, -2.576531295751585890E-15, 21.03897464595887712 ) ) ;
#303 = EDGE_CURVE ( 'NONE', #124, #124, #180, .T. ) ;
ENDSEC;
END-ISO-10303-21;
