ISO-10303-21;
HEADER;
FILE_DESCRIPTION (( 'STEP AP203' ),
    '1' );
FILE_NAME ('327069.step',
    '2021-12-01T14:04:12',
    ( '' ),
    ( '' ),
    'SwSTEP 2.0',
    'SolidWorks 2019',
    '' );
FILE_SCHEMA (( 'CONFIG_CONTROL_DESIGN' ));
ENDSEC;

DATA;
#1 = DIRECTION ( 'NONE',  ( -3.491481338843133355E-15, 1.224646799147353207E-16, -1.000000000000000000 ) ) ;
#2 = CC_DESIGN_PERSON_AND_ORGANIZATION_ASSIGNMENT ( #210, #65, ( #9 ) ) ;
#3 = DIRECTION ( 'NONE',  ( -3.491481338843133355E-15, 1.224646799147353207E-16, -1.000000000000000000 ) ) ;
#4 = CIRCLE ( 'NONE', #279, 1.200000000000001732 ) ;
#5 = DESIGN_CONTEXT ( 'detailed design', #243, 'design' ) ;
#6 = ORIENTED_EDGE ( 'NONE', *, *, #281, .F. ) ;
#7 = DIRECTION ( 'NONE',  ( 4.275831445896958607E-31, 1.000000000000000000, 1.224646799147353207E-16 ) ) ;
#8 = EDGE_LOOP ( 'NONE', ( #84 ) ) ;
#9 = PRODUCT_DEFINITION_FORMATION_WITH_SPECIFIED_SOURCE ( 'ANY', '', #54, .NOT_KNOWN. ) ;
#10 = DIRECTION ( 'NONE',  ( 4.275831445896958607E-31, 1.000000000000000000, 1.224646799147353454E-16 ) ) ;
#11 = EDGE_CURVE ( 'NONE', #245, #245, #83, .T. ) ;
#12 = DIRECTION ( 'NONE',  ( 0.0000000000000000000, 1.000000000000000000, 0.0000000000000000000 ) ) ;
#13 = CARTESIAN_POINT ( 'NONE',  ( 2.793185071074506684E-14, -9.797174393178825657E-16, 8.000000000000000000 ) ) ;
#14 = DIRECTION ( 'NONE',  ( -3.491481338843133355E-15, 1.224646799147353207E-16, -1.000000000000000000 ) ) ;
#15 = CIRCLE ( 'NONE', #241, 0.9899999999999988809 ) ;
#16 = FACE_BOUND ( 'NONE', #8, .T. ) ;
#17 = MECHANICAL_CONTEXT ( 'NONE', #249, 'mechanical' ) ;
#18 = APPROVAL_DATE_TIME ( #183, #48 ) ;
#19 = EDGE_LOOP ( 'NONE', ( #68 ) ) ;
#20 = AXIS2_PLACEMENT_3D ( 'NONE', #238, #1, #7 ) ;
#21 = DATE_AND_TIME ( #138, #97 ) ;
#22 = PERSON_AND_ORGANIZATION ( #215, #172 ) ;
#23 = ORIENTED_EDGE ( 'NONE', *, *, #106, .T. ) ;
#24 = APPROVAL_PERSON_ORGANIZATION ( #259, #48, #157 ) ;
#25 = DIRECTION ( 'NONE',  ( -3.491481338843133355E-15, 1.224646799147353207E-16, -1.000000000000000000 ) ) ;
#26 = FACE_OUTER_BOUND ( 'NONE', #142, .T. ) ;
#27 = DIRECTION ( 'NONE',  ( 0.0000000000000000000, 1.000000000000000000, 0.0000000000000000000 ) ) ;
#28 = CONICAL_SURFACE ( 'NONE', #216, 0.9899999999999988809, 0.5235987755982934866 ) ;
#29 = PLANE ( 'NONE',  #103 ) ;
#30 = ORIENTED_EDGE ( 'NONE', *, *, #106, .F. ) ;
#31 = DIRECTION ( 'NONE',  ( -3.491481338843133355E-15, 1.224646799147353207E-16, -1.000000000000000000 ) ) ;
#32 = AXIS2_PLACEMENT_3D ( 'NONE', #82, #85, #181 ) ;
#33 = TOROIDAL_SURFACE ( 'NONE', #47, 2.990000000000000213, 2.000000000000000000 ) ;
#34 = VERTEX_POINT ( 'NONE', #231 ) ;
#35 = FACE_OUTER_BOUND ( 'NONE', #295, .T. ) ;
#36 = DIRECTION ( 'NONE',  ( -5.068236695755889494E-31, -1.000000000000000000, -1.426581805901981114E-16 ) ) ;
#37 = DIRECTION ( 'NONE',  ( 0.0000000000000000000, 1.000000000000000000, 0.0000000000000000000 ) ) ;
#38 = CIRCLE ( 'NONE', #274, 1.500000000000001554 ) ;
#39 = SECURITY_CLASSIFICATION_LEVEL ( 'unclassified' ) ;
#40 = PRODUCT_DEFINITION ( 'UNKNOWN', '', #9, #5 ) ;
#41 = APPROVAL_STATUS ( 'not_yet_approved' ) ;
#42 = EDGE_LOOP ( 'NONE', ( #190 ) ) ;
#43 = DATE_TIME_ROLE ( 'classification_date' ) ;
#44 = CLOSED_SHELL ( 'NONE', ( #221, #188, #208, #271, #76, #199, #148, #153 ) ) ;
#45 = COORDINATED_UNIVERSAL_TIME_OFFSET ( 1, 0, .AHEAD. ) ;
#46 = PERSON_AND_ORGANIZATION_ROLE ( 'design_owner' ) ;
#47 = AXIS2_PLACEMENT_3D ( 'NONE', #77, #250, #272 ) ;
#48 = APPROVAL ( #113, 'UNSPECIFIED' ) ;
#49 = EDGE_LOOP ( 'NONE', ( #23 ) ) ;
#50 = CYLINDRICAL_SURFACE ( 'NONE', #297, 1.139999999999999458 ) ;
#51 = CARTESIAN_POINT ( 'NONE',  ( 1.745740669421566678E-13, 8.998558695971067645E-33, 50.00000000000000000 ) ) ;
#52 = CIRCLE ( 'NONE', #135, 1.139999999999999902 ) ;
#53 = ORIENTED_EDGE ( 'NONE', *, *, #236, .T. ) ;
#54 = PRODUCT ( '327069', '327069', '', ( #17 ) ) ;
#55 = EDGE_CURVE ( 'NONE', #56, #56, #4, .T. ) ;
#56 = VERTEX_POINT ( 'NONE', #105 ) ;
#57 = DIRECTION ( 'NONE',  ( 3.491481338843133355E-15, -1.224646799147353207E-16, 1.000000000000000000 ) ) ;
#58 = CC_DESIGN_DATE_AND_TIME_ASSIGNMENT ( #21, #235, ( #40 ) ) ;
#59 = PLANE ( 'NONE',  #167 ) ;
#60 = CYLINDRICAL_SURFACE ( 'NONE', #247, 0.9899999999999995470 ) ;
#61 = CARTESIAN_POINT ( 'NONE',  ( 7.355619323796182484E-14, 1.499999999999994005, 21.06733105505696813 ) ) ;
#62 = APPROVAL_DATE_TIME ( #253, #101 ) ;
#63 = LOCAL_TIME ( 15, 4, 12.00000000000000000, #185 ) ;
#64 = APPLICATION_PROTOCOL_DEFINITION ( 'international standard', 'config_control_design', 1994, #249 ) ;
#65 = PERSON_AND_ORGANIZATION_ROLE ( 'creator' ) ;
#66 = AXIS2_PLACEMENT_3D ( 'NONE', #174, #80, #220 ) ;
#67 = COORDINATED_UNIVERSAL_TIME_OFFSET ( 1, 0, .AHEAD. ) ;
#68 = ORIENTED_EDGE ( 'NONE', *, *, #11, .F. ) ;
#69 = CIRCLE ( 'NONE', #20, 0.9956624327025944687 ) ;
#70 = CARTESIAN_POINT ( 'NONE',  ( 7.355619323796182484E-14, -2.580003954315314679E-15, 21.06733105505696813 ) ) ;
#71 = DIRECTION ( 'NONE',  ( -3.491481338843133355E-15, 1.224646799147353207E-16, -1.000000000000000000 ) ) ;
#72 = FACE_OUTER_BOUND ( 'NONE', #49, .T. ) ;
#73 = AXIS2_PLACEMENT_3D ( 'NONE', #265, #71, #193 ) ;
#74 = EDGE_LOOP ( 'NONE', ( #173 ) ) ;
#75 = PRODUCT_RELATED_PRODUCT_CATEGORY ( 'detail', '', ( #54 ) ) ;
#76 = ADVANCED_FACE ( 'NONE', ( #191, #72 ), #145, .T. ) ;
#77 = CARTESIAN_POINT ( 'NONE',  ( 6.284666409917640040E-14, -2.168404344971008868E-15, 18.00000000000000000 ) ) ;
#78 = FACE_OUTER_BOUND ( 'NONE', #204, .T. ) ;
#79 = FACE_OUTER_BOUND ( 'NONE', #280, .T. ) ;
#80 = DIRECTION ( 'NONE',  ( 3.491481338843133355E-15, -1.224646799147353207E-16, 1.000000000000000000 ) ) ;
#81 = FACE_OUTER_BOUND ( 'NONE', #74, .T. ) ;
#82 = CARTESIAN_POINT ( 'NONE',  ( 0.0000000000000000000, 0.0000000000000000000, 0.0000000000000000000 ) ) ;
#83 = CIRCLE ( 'NONE', #222, 1.020384493975580620 ) ;
#84 = ORIENTED_EDGE ( 'NONE', *, *, #143, .T. ) ;
#85 = DIRECTION ( 'NONE',  ( 0.0000000000000000000, 0.0000000000000000000, 1.000000000000000000 ) ) ;
#86 =( NAMED_UNIT ( * ) PLANE_ANGLE_UNIT ( ) SI_UNIT ( $, .RADIAN. ) );
#87 = AXIS2_PLACEMENT_3D ( 'NONE', #286, #140, #195 ) ;
#88 = VERTEX_POINT ( 'NONE', #254 ) ;
#89 = DIRECTION ( 'NONE',  ( 3.491481338843133355E-15, -1.224646799147353207E-16, 1.000000000000000000 ) ) ;
#90 = COORDINATED_UNIVERSAL_TIME_OFFSET ( 1, 0, .AHEAD. ) ;
#91 = CARTESIAN_POINT ( 'NONE',  ( 2.883896417162832445E-14, -1.011534696479630343E-15, 8.259807621135337286 ) ) ;
#92 = CONICAL_SURFACE ( 'NONE', #73, 1.200000000000001732, 0.7853981633974453924 ) ;
#93 = LOCAL_TIME ( 15, 4, 12.00000000000000000, #303 ) ;
#94 = DIRECTION ( 'NONE',  ( -3.491481338843133355E-15, 1.224646799147353207E-16, -1.000000000000000000 ) ) ;
#95 = EDGE_LOOP ( 'NONE', ( #120 ) ) ;
#96 = EDGE_LOOP ( 'NONE', ( #230 ) ) ;
#97 = LOCAL_TIME ( 15, 4, 12.00000000000000000, #67 ) ;
#98 = CARTESIAN_POINT ( 'NONE',  ( 2.883896417162832445E-14, 0.9899999999999977707, 8.259807621135337286 ) ) ;
#99 = EDGE_CURVE ( 'NONE', #150, #150, #257, .T. ) ;
#100 = CARTESIAN_POINT ( 'NONE',  ( 1.735266225405037467E-13, -6.086494591762345225E-15, 49.70000000000000284 ) ) ;
#101 = APPROVAL ( #41, 'UNSPECIFIED' ) ;
#102 = DIRECTION ( 'NONE',  ( -3.491481338843133355E-15, 1.224646799147353207E-16, -1.000000000000000000 ) ) ;
#103 = AXIS2_PLACEMENT_3D ( 'NONE', #141, #289, #121 ) ;
#104 = LOCAL_TIME ( 15, 4, 12.00000000000000000, #90 ) ;
#105 = CARTESIAN_POINT ( 'NONE',  ( 1.745740669421566678E-13, 1.199999999999995515, 50.00000000000000000 ) ) ;
#106 = EDGE_CURVE ( 'NONE', #178, #178, #267, .T. ) ;
#107 = FACE_BOUND ( 'NONE', #95, .T. ) ;
#108 = PERSON_AND_ORGANIZATION_ROLE ( 'creator' ) ;
#109 =( LENGTH_UNIT ( ) NAMED_UNIT ( * ) SI_UNIT ( .MILLI., .METRE. ) );
#110 = AXIS2_PLACEMENT_3D ( 'NONE', #13, #126, #37 ) ;
#111 = ORIENTED_EDGE ( 'NONE', *, *, #55, .F. ) ;
#112 = ADVANCED_FACE ( 'NONE', ( #212 ), #29, .F. ) ;
#113 = APPROVAL_STATUS ( 'not_yet_approved' ) ;
#114 = UNCERTAINTY_MEASURE_WITH_UNIT (LENGTH_MEASURE( 1.000000000000000082E-05 ), #109, 'distance_accuracy_value', 'NONE');
#115 = CALENDAR_DATE ( 2021, 1, 12 ) ;
#116 = ADVANCED_FACE ( 'NONE', ( #26, #219 ), #50, .T. ) ;
#117 = APPROVAL_DATE_TIME ( #264, #287 ) ;
#118 = EDGE_CURVE ( 'NONE', #154, #154, #69, .T. ) ;
#119 = DIRECTION ( 'NONE',  ( 0.0000000000000000000, 1.000000000000000000, 0.0000000000000000000 ) ) ;
#120 = ORIENTED_EDGE ( 'NONE', *, *, #118, .F. ) ;
#121 = DIRECTION ( 'NONE',  ( -4.275831445896958607E-31, -1.000000000000000000, -1.224646799147353207E-16 ) ) ;
#122 = AXIS2_PLACEMENT_3D ( 'NONE', #70, #3, #119 ) ;
#123 = EDGE_CURVE ( 'NONE', #251, #251, #237, .T. ) ;
#124 = FACE_OUTER_BOUND ( 'NONE', #239, .T. ) ;
#125 = ORIENTED_EDGE ( 'NONE', *, *, #99, .T. ) ;
#126 = DIRECTION ( 'NONE',  ( -3.491481338843133355E-15, 1.224646799147353207E-16, -1.000000000000000000 ) ) ;
#127 = CLOSED_SHELL ( 'NONE', ( #112, #176, #116, #163 ) ) ;
#128 = DIRECTION ( 'NONE',  ( -3.491481338843133355E-15, 1.224646799147353207E-16, -1.000000000000000000 ) ) ;
#129 = CARTESIAN_POINT ( 'NONE',  ( 2.793185071074506684E-14, -9.797174393178825657E-16, 8.000000000000000000 ) ) ;
#130 = FACE_OUTER_BOUND ( 'NONE', #96, .T. ) ;
#131 = CARTESIAN_POINT ( 'NONE',  ( 8.728703347107835360E-16, 1.139999999999998792, 0.2500000000000000555 ) ) ;
#132 = CALENDAR_DATE ( 2021, 1, 12 ) ;
#133 = EDGE_LOOP ( 'NONE', ( #6 ) ) ;
#134 = PERSON_AND_ORGANIZATION ( #215, #172 ) ;
#135 = AXIS2_PLACEMENT_3D ( 'NONE', #129, #248, #224 ) ;
#136 = CC_DESIGN_PERSON_AND_ORGANIZATION_ASSIGNMENT ( #256, #161, ( #233 ) ) ;
#137 = VERTEX_POINT ( 'NONE', #186 ) ;
#138 = CALENDAR_DATE ( 2021, 1, 12 ) ;
#139 = SHAPE_DEFINITION_REPRESENTATION ( #258, #149 ) ;
#140 = DIRECTION ( 'NONE',  ( -3.491481338843133355E-15, 1.224646799147353207E-16, -1.000000000000000000 ) ) ;
#141 = CARTESIAN_POINT ( 'NONE',  ( -3.075010282815589487E-31, 1.078568416878054693E-32, -8.807179487416257640E-17 ) ) ;
#142 = EDGE_LOOP ( 'NONE', ( #277 ) ) ;
#143 = EDGE_CURVE ( 'NONE', #228, #228, #15, .T. ) ;
#144 = EDGE_LOOP ( 'NONE', ( #53 ) ) ;
#145 = CONICAL_SURFACE ( 'NONE', #227, 1.499999999999996669, 0.1745329251994263975 ) ;
#146 = CC_DESIGN_APPROVAL ( #287, ( #233 ) ) ;
#147 = DIRECTION ( 'NONE',  ( 0.0000000000000000000, 1.000000000000000000, 0.0000000000000000000 ) ) ;
#148 = ADVANCED_FACE ( 'NONE', ( #192, #168 ), #92, .T. ) ;
#149 = ADVANCED_BREP_SHAPE_REPRESENTATION ( '327069', ( #284, #182, #32 ), #165 ) ;
#150 = VERTEX_POINT ( 'NONE', #276 ) ;
#151 = CARTESIAN_POINT ( 'NONE',  ( 6.405924284287275164E-14, 1.020384493975578399, 18.34729635533384595 ) ) ;
#152 = CARTESIAN_POINT ( 'NONE',  ( 0.0000000000000000000, 0.0000000000000000000, 0.0000000000000000000 ) ) ;
#153 = ADVANCED_FACE ( 'NONE', ( #124 ), #194, .F. ) ;
#154 = VERTEX_POINT ( 'NONE', #246 ) ;
#155 = LOCAL_TIME ( 15, 4, 12.00000000000000000, #45 ) ;
#156 =( NAMED_UNIT ( * ) SI_UNIT ( $, .STERADIAN. ) SOLID_ANGLE_UNIT ( ) );
#157 = APPROVAL_ROLE ( '' ) ;
#158 = ORIENTED_EDGE ( 'NONE', *, *, #281, .T. ) ;
#159 = PERSON_AND_ORGANIZATION_ROLE ( 'design_supplier' ) ;
#160 = ORIENTED_EDGE ( 'NONE', *, *, #118, .T. ) ;
#161 = PERSON_AND_ORGANIZATION_ROLE ( 'classification_officer' ) ;
#162 = CIRCLE ( 'NONE', #110, 1.139999999999999902 ) ;
#163 = ADVANCED_FACE ( 'NONE', ( #273 ), #202, .T. ) ;
#164 = ORIENTED_EDGE ( 'NONE', *, *, #55, .T. ) ;
#165 =( GEOMETRIC_REPRESENTATION_CONTEXT ( 3 ) GLOBAL_UNCERTAINTY_ASSIGNED_CONTEXT ( ( #114 ) ) GLOBAL_UNIT_ASSIGNED_CONTEXT ( ( #109, #86, #156 ) ) REPRESENTATION_CONTEXT ( 'NONE', 'WORKASPACE' ) );
#166 = DIRECTION ( 'NONE',  ( 4.275831445896958607E-31, 1.000000000000000000, 1.224646799147353454E-16 ) ) ;
#167 = AXIS2_PLACEMENT_3D ( 'NONE', #197, #275, #198 ) ;
#168 = FACE_BOUND ( 'NONE', #300, .T. ) ;
#169 = EDGE_LOOP ( 'NONE', ( #160 ) ) ;
#170 = APPROVAL_ROLE ( '' ) ;
#171 = EDGE_LOOP ( 'NONE', ( #207 ) ) ;
#172 = ORGANIZATION ( 'UNSPECIFIED', 'UNSPECIFIED', '' ) ;
#173 = ORIENTED_EDGE ( 'NONE', *, *, #143, .F. ) ;
#174 = CARTESIAN_POINT ( 'NONE',  ( 2.793185071074506684E-14, 8.548630761172572764E-33, 8.000000000000000000 ) ) ;
#175 = DIRECTION ( 'NONE',  ( 4.275831445896958607E-31, 1.000000000000000000, 1.224646799147353207E-16 ) ) ;
#176 = ADVANCED_FACE ( 'NONE', ( #107, #35 ), #211, .T. ) ;
#177 = FACE_OUTER_BOUND ( 'NONE', #270, .T. ) ;
#178 = VERTEX_POINT ( 'NONE', #61 ) ;
#179 = DIRECTION ( 'NONE',  ( 0.0000000000000000000, 1.000000000000000000, 0.0000000000000000000 ) ) ;
#180 = APPROVAL_PERSON_ORGANIZATION ( #299, #101, #229 ) ;
#181 = DIRECTION ( 'NONE',  ( 1.000000000000000000, 0.0000000000000000000, 0.0000000000000000000 ) ) ;
#182 = MANIFOLD_SOLID_BREP ( 'Corps-Déplacer/Copier1[2]', #127 ) ;
#183 = DATE_AND_TIME ( #301, #155 ) ;
#184 = EDGE_LOOP ( 'NONE', ( #261 ) ) ;
#185 = COORDINATED_UNIVERSAL_TIME_OFFSET ( 1, 0, .AHEAD. ) ;
#186 = CARTESIAN_POINT ( 'NONE',  ( 1.735266225405037467E-13, 1.499999999999995559, 49.70000000000000284 ) ) ;
#187 = AXIS2_PLACEMENT_3D ( 'NONE', #152, #102, #10 ) ;
#188 = ADVANCED_FACE ( 'NONE', ( #78, #16 ), #28, .T. ) ;
#189 = ORIENTED_EDGE ( 'NONE', *, *, #236, .F. ) ;
#190 = ORIENTED_EDGE ( 'NONE', *, *, #262, .F. ) ;
#191 = FACE_BOUND ( 'NONE', #19, .T. ) ;
#192 = FACE_OUTER_BOUND ( 'NONE', #133, .T. ) ;
#193 = DIRECTION ( 'NONE',  ( 0.0000000000000000000, 1.000000000000000000, 0.0000000000000000000 ) ) ;
#194 = PLANE ( 'NONE',  #232 ) ;
#195 = DIRECTION ( 'NONE',  ( 0.0000000000000000000, 1.000000000000000000, 0.0000000000000000000 ) ) ;
#196 = CC_DESIGN_APPROVAL ( #48, ( #40 ) ) ;
#197 = CARTESIAN_POINT ( 'NONE',  ( 2.793185071074506684E-14, 8.548630761172572764E-33, 8.000000000000000000 ) ) ;
#198 = DIRECTION ( 'NONE',  ( -4.275831445896958607E-31, -1.000000000000000000, -1.224646799147353207E-16 ) ) ;
#199 = ADVANCED_FACE ( 'NONE', ( #79, #292 ), #291, .T. ) ;
#200 = DIRECTION ( 'NONE',  ( 4.275831445896958607E-31, 1.000000000000000000, 1.224646799147353207E-16 ) ) ;
#201 = AXIS2_PLACEMENT_3D ( 'NONE', #266, #213, #217 ) ;
#202 = PLANE ( 'NONE',  #66 ) ;
#203 = CARTESIAN_POINT ( 'NONE',  ( 0.0000000000000000000, 0.0000000000000000000, 0.0000000000000000000 ) ) ;
#204 = EDGE_LOOP ( 'NONE', ( #189 ) ) ;
#205 = CC_DESIGN_PERSON_AND_ORGANIZATION_ASSIGNMENT ( #206, #46, ( #54 ) ) ;
#206 = PERSON_AND_ORGANIZATION ( #215, #172 ) ;
#207 = ORIENTED_EDGE ( 'NONE', *, *, #99, .F. ) ;
#208 = ADVANCED_FACE ( 'NONE', ( #81, #177 ), #60, .T. ) ;
#209 = APPLICATION_PROTOCOL_DEFINITION ( 'international standard', 'config_control_design', 1994, #243 ) ;
#210 = PERSON_AND_ORGANIZATION ( #215, #172 ) ;
#211 = CONICAL_SURFACE ( 'NONE', #252, 1.139999999999998792, 0.5235987755982925984 ) ;
#212 = FACE_OUTER_BOUND ( 'NONE', #169, .T. ) ;
#213 = DIRECTION ( 'NONE',  ( -3.491481338843133355E-15, 1.224646799147353207E-16, -1.000000000000000000 ) ) ;
#214 = APPROVAL_STATUS ( 'not_yet_approved' ) ;
#215 = PERSON ( 'UNSPECIFIED', 'UNSPECIFIED', 'UNSPECIFIED', ('UNSPECIFIED'), ('UNSPECIFIED'), ('UNSPECIFIED') ) ;
#216 = AXIS2_PLACEMENT_3D ( 'NONE', #223, #31, #12 ) ;
#217 = DIRECTION ( 'NONE',  ( 5.068236695755889494E-31, 1.000000000000000000, 1.426581805901981114E-16 ) ) ;
#218 = CC_DESIGN_APPROVAL ( #101, ( #9 ) ) ;
#219 = FACE_OUTER_BOUND ( 'NONE', #184, .T. ) ;
#220 = DIRECTION ( 'NONE',  ( -4.275831445896958607E-31, -1.000000000000000000, -1.224646799147353207E-16 ) ) ;
#221 = ADVANCED_FACE ( 'NONE', ( #226 ), #59, .F. ) ;
#222 = AXIS2_PLACEMENT_3D ( 'NONE', #240, #25, #27 ) ;
#223 = CARTESIAN_POINT ( 'NONE',  ( 2.883896417162832445E-14, -1.011534696479630343E-15, 8.259807621135337286 ) ) ;
#224 = DIRECTION ( 'NONE',  ( 0.0000000000000000000, 1.000000000000000000, 0.0000000000000000000 ) ) ;
#225 = CC_DESIGN_PERSON_AND_ORGANIZATION_ASSIGNMENT ( #278, #159, ( #9 ) ) ;
#226 = FACE_OUTER_BOUND ( 'NONE', #144, .T. ) ;
#227 = AXIS2_PLACEMENT_3D ( 'NONE', #242, #89, #285 ) ;
#228 = VERTEX_POINT ( 'NONE', #98 ) ;
#229 = APPROVAL_ROLE ( '' ) ;
#230 = ORIENTED_EDGE ( 'NONE', *, *, #11, .T. ) ;
#231 = CARTESIAN_POINT ( 'NONE',  ( 2.793185071074506684E-14, 1.139999999999998792, 8.000000000000000000 ) ) ;
#232 = AXIS2_PLACEMENT_3D ( 'NONE', #51, #128, #200 ) ;
#233 = SECURITY_CLASSIFICATION ( '', '', #39 ) ;
#234 = DATE_AND_TIME ( #132, #93 ) ;
#235 = DATE_TIME_ROLE ( 'creation_date' ) ;
#236 = EDGE_CURVE ( 'NONE', #34, #34, #52, .T. ) ;
#237 = CIRCLE ( 'NONE', #201, 1.139999999999998792 ) ;
#238 = CARTESIAN_POINT ( 'NONE',  ( -6.150020565631178973E-31, 2.157136833756109386E-32, -1.761435897483251528E-16 ) ) ;
#239 = EDGE_LOOP ( 'NONE', ( #111 ) ) ;
#240 = CARTESIAN_POINT ( 'NONE',  ( 6.405924284287275164E-14, -2.246895775456749140E-15, 18.34729635533384595 ) ) ;
#241 = AXIS2_PLACEMENT_3D ( 'NONE', #91, #94, #147 ) ;
#242 = CARTESIAN_POINT ( 'NONE',  ( 7.355619323796182484E-14, -2.580003954315314679E-15, 21.06733105505696813 ) ) ;
#243 = APPLICATION_CONTEXT ( 'configuration controlled 3d designs of mechanical parts and assemblies' ) ;
#244 = DIRECTION ( 'NONE',  ( -3.491481338843133355E-15, 1.224646799147353207E-16, -1.000000000000000000 ) ) ;
#245 = VERTEX_POINT ( 'NONE', #151 ) ;
#246 = CARTESIAN_POINT ( 'NONE',  ( -1.892735826383161356E-31, 0.9956624327025944687, -5.421010862427522170E-17 ) ) ;
#247 = AXIS2_PLACEMENT_3D ( 'NONE', #203, #290, #175 ) ;
#248 = DIRECTION ( 'NONE',  ( -3.491481338843133355E-15, 1.224646799147353207E-16, -1.000000000000000000 ) ) ;
#249 = APPLICATION_CONTEXT ( 'configuration controlled 3d designs of mechanical parts and assemblies' ) ;
#250 = DIRECTION ( 'NONE',  ( -3.491481338843133355E-15, 1.224646799147353207E-16, -1.000000000000000000 ) ) ;
#251 = VERTEX_POINT ( 'NONE', #131 ) ;
#252 = AXIS2_PLACEMENT_3D ( 'NONE', #293, #57, #36 ) ;
#253 = DATE_AND_TIME ( #115, #63 ) ;
#254 = CARTESIAN_POINT ( 'NONE',  ( 2.793185071074506684E-14, 1.139999999999998792, 8.000000000000000000 ) ) ;
#255 = ORIENTED_EDGE ( 'NONE', *, *, #123, .T. ) ;
#256 = PERSON_AND_ORGANIZATION ( #215, #172 ) ;
#257 = CIRCLE ( 'NONE', #87, 0.9899999999999999911 ) ;
#258 = PRODUCT_DEFINITION_SHAPE ( 'NONE', 'NONE',  #40 ) ;
#259 = PERSON_AND_ORGANIZATION ( #215, #172 ) ;
#260 = CC_DESIGN_DATE_AND_TIME_ASSIGNMENT ( #234, #43, ( #233 ) ) ;
#261 = ORIENTED_EDGE ( 'NONE', *, *, #262, .T. ) ;
#262 = EDGE_CURVE ( 'NONE', #88, #88, #162, .T. ) ;
#263 = DIRECTION ( 'NONE',  ( -3.491481338843133355E-15, 1.224646799147353207E-16, -1.000000000000000000 ) ) ;
#264 = DATE_AND_TIME ( #282, #104 ) ;
#265 = CARTESIAN_POINT ( 'NONE',  ( 1.745740669421566678E-13, -6.123233995736766085E-15, 50.00000000000000000 ) ) ;
#266 = CARTESIAN_POINT ( 'NONE',  ( 8.728703347107829444E-16, -3.061616997868381785E-17, 0.2499999999999998890 ) ) ;
#267 = CIRCLE ( 'NONE', #122, 1.499999999999996669 ) ;
#268 = DIRECTION ( 'NONE',  ( 0.0000000000000000000, 1.000000000000000000, 0.0000000000000000000 ) ) ;
#269 = APPROVAL_PERSON_ORGANIZATION ( #134, #287, #170 ) ;
#270 = EDGE_LOOP ( 'NONE', ( #125 ) ) ;
#271 = ADVANCED_FACE ( 'NONE', ( #294, #130 ), #33, .F. ) ;
#272 = DIRECTION ( 'NONE',  ( 4.275831445896958607E-31, 1.000000000000000000, 1.224646799147353207E-16 ) ) ;
#273 = FACE_OUTER_BOUND ( 'NONE', #42, .T. ) ;
#274 = AXIS2_PLACEMENT_3D ( 'NONE', #100, #14, #179 ) ;
#275 = DIRECTION ( 'NONE',  ( 3.491481338843133355E-15, -1.224646799147353207E-16, 1.000000000000000000 ) ) ;
#276 = CARTESIAN_POINT ( 'NONE',  ( 6.284666409917640040E-14, 0.9899999999999977707, 18.00000000000000000 ) ) ;
#277 = ORIENTED_EDGE ( 'NONE', *, *, #123, .F. ) ;
#278 = PERSON_AND_ORGANIZATION ( #215, #172 ) ;
#279 = AXIS2_PLACEMENT_3D ( 'NONE', #288, #263, #268 ) ;
#280 = EDGE_LOOP ( 'NONE', ( #30 ) ) ;
#281 = EDGE_CURVE ( 'NONE', #137, #137, #38, .T. ) ;
#282 = CALENDAR_DATE ( 2021, 1, 12 ) ;
#283 = CARTESIAN_POINT ( 'NONE',  ( 0.0000000000000000000, 0.0000000000000000000, 0.0000000000000000000 ) ) ;
#284 = MANIFOLD_SOLID_BREP ( 'Corps-Déplacer/Copier1[1]', #44 ) ;
#285 = DIRECTION ( 'NONE',  ( 0.0000000000000000000, -1.000000000000000000, 0.0000000000000000000 ) ) ;
#286 = CARTESIAN_POINT ( 'NONE',  ( 6.284666409917640040E-14, -2.204364238465235428E-15, 18.00000000000000000 ) ) ;
#287 = APPROVAL ( #214, 'UNSPECIFIED' ) ;
#288 = CARTESIAN_POINT ( 'NONE',  ( 1.745740669421566678E-13, -6.123233995736766085E-15, 50.00000000000000000 ) ) ;
#289 = DIRECTION ( 'NONE',  ( 3.491481338843133355E-15, -1.224646799147353207E-16, 1.000000000000000000 ) ) ;
#290 = DIRECTION ( 'NONE',  ( -3.491481338843133355E-15, 1.224646799147353207E-16, -1.000000000000000000 ) ) ;
#291 = CYLINDRICAL_SURFACE ( 'NONE', #187, 1.499999999999999112 ) ;
#292 = FACE_OUTER_BOUND ( 'NONE', #302, .T. ) ;
#293 = CARTESIAN_POINT ( 'NONE',  ( 8.728703347107829444E-16, -3.061616997868381785E-17, 0.2499999999999998890 ) ) ;
#294 = FACE_OUTER_BOUND ( 'NONE', #171, .T. ) ;
#295 = EDGE_LOOP ( 'NONE', ( #255 ) ) ;
#296 = CC_DESIGN_PERSON_AND_ORGANIZATION_ASSIGNMENT ( #22, #108, ( #40 ) ) ;
#297 = AXIS2_PLACEMENT_3D ( 'NONE', #283, #244, #166 ) ;
#298 = CC_DESIGN_SECURITY_CLASSIFICATION ( #233, ( #9 ) ) ;
#299 = PERSON_AND_ORGANIZATION ( #215, #172 ) ;
#300 = EDGE_LOOP ( 'NONE', ( #164 ) ) ;
#301 = CALENDAR_DATE ( 2021, 1, 12 ) ;
#302 = EDGE_LOOP ( 'NONE', ( #158 ) ) ;
#303 = COORDINATED_UNIVERSAL_TIME_OFFSET ( 1, 0, .AHEAD. ) ;
ENDSEC;
END-ISO-10303-21;
