ISO-10303-21;
HEADER;
FILE_DESCRIPTION (( 'STEP AP203' ),
    '1' );
FILE_NAME ('327068.step',
    '2021-12-01T14:04:11',
    ( '' ),
    ( '' ),
    'SwSTEP 2.0',
    'SolidWorks 2019',
    '' );
FILE_SCHEMA (( 'CONFIG_CONTROL_DESIGN' ));
ENDSEC;

DATA;
#1 = ADVANCED_FACE ( 'NONE', ( #106, #103 ), #86, .T. ) ;
#2 = APPROVAL_DATE_TIME ( #187, #293 ) ;
#3 = EDGE_LOOP ( 'NONE', ( #169 ) ) ;
#4 = AXIS2_PLACEMENT_3D ( 'NONE', #11, #288, #82 ) ;
#5 = LOCAL_TIME ( 15, 4, 11.00000000000000000, #147 ) ;
#6 = DIRECTION ( 'NONE',  ( 0.0000000000000000000, 0.0000000000000000000, 1.000000000000000000 ) ) ;
#7 = COORDINATED_UNIVERSAL_TIME_OFFSET ( 1, 0, .AHEAD. ) ;
#8 = CARTESIAN_POINT ( 'NONE',  ( 0.0000000000000000000, 0.0000000000000000000, 0.0000000000000000000 ) ) ;
#9 = ORIENTED_EDGE ( 'NONE', *, *, #28, .F. ) ;
#10 = DIRECTION ( 'NONE',  ( -3.491481338843133355E-15, 1.224646799147353207E-16, -1.000000000000000000 ) ) ;
#11 = CARTESIAN_POINT ( 'NONE',  ( 1.745740669421566678E-13, -6.123233995736766085E-15, 50.00000000000000000 ) ) ;
#12 = DIRECTION ( 'NONE',  ( 0.0000000000000000000, 1.000000000000000000, 0.0000000000000000000 ) ) ;
#13 = CLOSED_SHELL ( 'NONE', ( #90, #231, #165, #297, #250, #159, #105, #72 ) ) ;
#14 = APPROVAL_PERSON_ORGANIZATION ( #25, #200, #27 ) ;
#15 = DIRECTION ( 'NONE',  ( -3.491481338843133355E-15, 1.224646799147353207E-16, -1.000000000000000000 ) ) ;
#16 = EDGE_CURVE ( 'NONE', #20, #20, #271, .T. ) ;
#17 = ORIENTED_EDGE ( 'NONE', *, *, #267, .T. ) ;
#18 = CARTESIAN_POINT ( 'NONE',  ( 2.883896417162832445E-14, -1.011534696479630343E-15, 8.259807621135337286 ) ) ;
#19 = VERTEX_POINT ( 'NONE', #299 ) ;
#20 = VERTEX_POINT ( 'NONE', #64 ) ;
#21 = DIRECTION ( 'NONE',  ( -4.275831445896958607E-31, -1.000000000000000000, -1.224646799147353207E-16 ) ) ;
#22 = CARTESIAN_POINT ( 'NONE',  ( 1.745740669421566678E-13, 1.199999999999995515, 50.00000000000000000 ) ) ;
#23 = ADVANCED_BREP_SHAPE_REPRESENTATION ( '327068', ( #146, #227, #29 ), #248 ) ;
#24 = EDGE_CURVE ( 'NONE', #270, #270, #153, .T. ) ;
#25 = PERSON_AND_ORGANIZATION ( #195, #272 ) ;
#26 = ORIENTED_EDGE ( 'NONE', *, *, #24, .F. ) ;
#27 = APPROVAL_ROLE ( '' ) ;
#28 = EDGE_CURVE ( 'NONE', #19, #19, #215, .T. ) ;
#29 = AXIS2_PLACEMENT_3D ( 'NONE', #8, #6, #99 ) ;
#30 = APPROVAL ( #150, 'UNSPECIFIED' ) ;
#31 = COORDINATED_UNIVERSAL_TIME_OFFSET ( 1, 0, .AHEAD. ) ;
#32 = PERSON_AND_ORGANIZATION ( #195, #272 ) ;
#33 = AXIS2_PLACEMENT_3D ( 'NONE', #87, #182, #181 ) ;
#34 = CARTESIAN_POINT ( 'NONE',  ( 7.365519911116439655E-14, -2.583476612879043467E-15, 21.09568746415505558 ) ) ;
#35 = DIRECTION ( 'NONE',  ( -3.491481338843133355E-15, 1.224646799147353207E-16, -1.000000000000000000 ) ) ;
#36 = DIRECTION ( 'NONE',  ( 0.0000000000000000000, 1.000000000000000000, 0.0000000000000000000 ) ) ;
#37 = FACE_OUTER_BOUND ( 'NONE', #213, .T. ) ;
#38 = DIRECTION ( 'NONE',  ( -3.491481338843133355E-15, 1.224646799147353207E-16, -1.000000000000000000 ) ) ;
#39 = FACE_OUTER_BOUND ( 'NONE', #120, .T. ) ;
#40 = CARTESIAN_POINT ( 'NONE',  ( 1.745740669421566678E-13, -6.123233995736766085E-15, 50.00000000000000000 ) ) ;
#41 = PRODUCT_RELATED_PRODUCT_CATEGORY ( 'detail', '', ( #302 ) ) ;
#42 = DIRECTION ( 'NONE',  ( -3.491481338843133355E-15, 1.224646799147353207E-16, -1.000000000000000000 ) ) ;
#43 = DIRECTION ( 'NONE',  ( 0.0000000000000000000, 1.000000000000000000, 0.0000000000000000000 ) ) ;
#44 = EDGE_CURVE ( 'NONE', #296, #296, #210, .T. ) ;
#45 = CARTESIAN_POINT ( 'NONE',  ( 2.793185071074506684E-14, -9.797174393178825657E-16, 8.000000000000000000 ) ) ;
#46 = PERSON_AND_ORGANIZATION ( #195, #272 ) ;
#47 = EDGE_CURVE ( 'NONE', #88, #88, #83, .T. ) ;
#48 = CALENDAR_DATE ( 2021, 1, 12 ) ;
#49 = ORIENTED_EDGE ( 'NONE', *, *, #24, .T. ) ;
#50 = CC_DESIGN_DATE_AND_TIME_ASSIGNMENT ( #230, #183, ( #93 ) ) ;
#51 = PERSON_AND_ORGANIZATION ( #195, #272 ) ;
#52 = EDGE_LOOP ( 'NONE', ( #17 ) ) ;
#53 = CC_DESIGN_SECURITY_CLASSIFICATION ( #229, ( #131 ) ) ;
#54 = PERSON_AND_ORGANIZATION_ROLE ( 'classification_officer' ) ;
#55 = EDGE_LOOP ( 'NONE', ( #276 ) ) ;
#56 = CARTESIAN_POINT ( 'NONE',  ( 2.793185071074506684E-14, -9.797174393178825657E-16, 8.000000000000000000 ) ) ;
#57 = AXIS2_PLACEMENT_3D ( 'NONE', #138, #113, #206 ) ;
#58 = DIRECTION ( 'NONE',  ( 4.275831445896958607E-31, 1.000000000000000000, 1.224646799147353454E-16 ) ) ;
#59 = CYLINDRICAL_SURFACE ( 'NONE', #161, 0.9849999999999995426 ) ;
#60 = DIRECTION ( 'NONE',  ( -4.275831445896958607E-31, -1.000000000000000000, -1.224646799147353207E-16 ) ) ;
#61 = AXIS2_PLACEMENT_3D ( 'NONE', #140, #42, #160 ) ;
#62 = TOROIDAL_SURFACE ( 'NONE', #168, 2.985000000000000320, 2.000000000000000000 ) ;
#63 = DIRECTION ( 'NONE',  ( 0.0000000000000000000, 1.000000000000000000, 0.0000000000000000000 ) ) ;
#64 = CARTESIAN_POINT ( 'NONE',  ( 6.284666409917640040E-14, 0.9849999999999979883, 18.00000000000000000 ) ) ;
#65 = VERTEX_POINT ( 'NONE', #273 ) ;
#66 = AXIS2_PLACEMENT_3D ( 'NONE', #240, #104, #196 ) ;
#67 = DIRECTION ( 'NONE',  ( -3.491481338843133355E-15, 1.224646799147353207E-16, -1.000000000000000000 ) ) ;
#68 = VERTEX_POINT ( 'NONE', #163 ) ;
#69 = FACE_OUTER_BOUND ( 'NONE', #3, .T. ) ;
#70 = APPROVAL_STATUS ( 'not_yet_approved' ) ;
#71 = ORIENTED_EDGE ( 'NONE', *, *, #214, .F. ) ;
#72 = ADVANCED_FACE ( 'NONE', ( #133 ), #287, .F. ) ;
#73 =( NAMED_UNIT ( * ) SI_UNIT ( $, .STERADIAN. ) SOLID_ANGLE_UNIT ( ) );
#74 = EDGE_LOOP ( 'NONE', ( #235 ) ) ;
#75 = DATE_AND_TIME ( #238, #277 ) ;
#76 = ORIENTED_EDGE ( 'NONE', *, *, #28, .T. ) ;
#77 = APPROVAL_STATUS ( 'not_yet_approved' ) ;
#78 = AXIS2_PLACEMENT_3D ( 'NONE', #132, #67, #158 ) ;
#79 = MECHANICAL_CONTEXT ( 'NONE', #278, 'mechanical' ) ;
#80 = EDGE_CURVE ( 'NONE', #249, #249, #203, .T. ) ;
#81 = ORIENTED_EDGE ( 'NONE', *, *, #267, .F. ) ;
#82 = DIRECTION ( 'NONE',  ( 0.0000000000000000000, 1.000000000000000000, 0.0000000000000000000 ) ) ;
#83 = CIRCLE ( 'NONE', #107, 1.015384493975582059 ) ;
#84 = FACE_OUTER_BOUND ( 'NONE', #194, .T. ) ;
#85 = DIRECTION ( 'NONE',  ( 3.491481338843133355E-15, -1.224646799147353207E-16, 1.000000000000000000 ) ) ;
#86 = CYLINDRICAL_SURFACE ( 'NONE', #66, 1.134999999999999343 ) ;
#87 = CARTESIAN_POINT ( 'NONE',  ( -3.064320704200847130E-31, 1.074819017421400022E-32, -8.776563317437573261E-17 ) ) ;
#88 = VERTEX_POINT ( 'NONE', #269 ) ;
#89 = DIRECTION ( 'NONE',  ( -3.491481338843133355E-15, 1.224646799147353207E-16, -1.000000000000000000 ) ) ;
#90 = ADVANCED_FACE ( 'NONE', ( #264 ), #127, .F. ) ;
#91 = AXIS2_PLACEMENT_3D ( 'NONE', #56, #38, #36 ) ;
#92 = CARTESIAN_POINT ( 'NONE',  ( 7.365519911116439655E-14, 1.499999999999994005, 21.09568746415505558 ) ) ;
#93 = PRODUCT_DEFINITION ( 'UNKNOWN', '', #131, #115 ) ;
#94 = PERSON_AND_ORGANIZATION_ROLE ( 'creator' ) ;
#95 = PRODUCT_DEFINITION_SHAPE ( 'NONE', 'NONE',  #93 ) ;
#96 = PERSON_AND_ORGANIZATION ( #195, #272 ) ;
#97 = AXIS2_PLACEMENT_3D ( 'NONE', #18, #111, #298 ) ;
#98 = CIRCLE ( 'NONE', #301, 1.135000000000000009 ) ;
#99 = DIRECTION ( 'NONE',  ( 1.000000000000000000, 0.0000000000000000000, 0.0000000000000000000 ) ) ;
#100 = EDGE_LOOP ( 'NONE', ( #49 ) ) ;
#101 = APPROVAL_DATE_TIME ( #75, #30 ) ;
#102 = PERSON_AND_ORGANIZATION ( #195, #272 ) ;
#103 = FACE_OUTER_BOUND ( 'NONE', #151, .T. ) ;
#104 = DIRECTION ( 'NONE',  ( -3.491481338843133355E-15, 1.224646799147353207E-16, -1.000000000000000000 ) ) ;
#105 = ADVANCED_FACE ( 'NONE', ( #156, #216 ), #198, .T. ) ;
#106 = FACE_OUTER_BOUND ( 'NONE', #171, .T. ) ;
#107 = AXIS2_PLACEMENT_3D ( 'NONE', #265, #154, #243 ) ;
#108 = CC_DESIGN_APPROVAL ( #200, ( #93 ) ) ;
#109 = CARTESIAN_POINT ( 'NONE',  ( 2.793185071074506684E-14, 8.511136766606028787E-33, 8.000000000000000000 ) ) ;
#110 = EDGE_LOOP ( 'NONE', ( #81 ) ) ;
#111 = DIRECTION ( 'NONE',  ( -3.491481338843133355E-15, 1.224646799147353207E-16, -1.000000000000000000 ) ) ;
#112 = CONICAL_SURFACE ( 'NONE', #97, 0.9849999999999988765, 0.5235987755982934866 ) ;
#113 = DIRECTION ( 'NONE',  ( 3.491481338843133355E-15, -1.224646799147353207E-16, 1.000000000000000000 ) ) ;
#114 = DIRECTION ( 'NONE',  ( -5.090563729657896679E-31, -1.000000000000000000, -1.432866307249566614E-16 ) ) ;
#115 = DESIGN_CONTEXT ( 'detailed design', #123, 'design' ) ;
#116 = FACE_OUTER_BOUND ( 'NONE', #280, .T. ) ;
#117 = AXIS2_PLACEMENT_3D ( 'NONE', #34, #35, #12 ) ;
#118 = VERTEX_POINT ( 'NONE', #303 ) ;
#119 =( LENGTH_UNIT ( ) NAMED_UNIT ( * ) SI_UNIT ( .MILLI., .METRE. ) );
#120 = EDGE_LOOP ( 'NONE', ( #184 ) ) ;
#121 = DATE_TIME_ROLE ( 'classification_date' ) ;
#122 = PERSON_AND_ORGANIZATION ( #195, #272 ) ;
#123 = APPLICATION_CONTEXT ( 'configuration controlled 3d designs of mechanical parts and assemblies' ) ;
#124 =( NAMED_UNIT ( * ) PLANE_ANGLE_UNIT ( ) SI_UNIT ( $, .RADIAN. ) );
#125 = CC_DESIGN_PERSON_AND_ORGANIZATION_ASSIGNMENT ( #46, #279, ( #131 ) ) ;
#126 = CONICAL_SURFACE ( 'NONE', #57, 1.499999999999996669, 0.1745329251994259256 ) ;
#127 = PLANE ( 'NONE',  #148 ) ;
#128 = CARTESIAN_POINT ( 'NONE',  ( 6.284666409917640040E-14, -2.204364238465235428E-15, 18.00000000000000000 ) ) ;
#129 = CARTESIAN_POINT ( 'NONE',  ( 0.0000000000000000000, 0.0000000000000000000, 0.0000000000000000000 ) ) ;
#130 = CLOSED_SHELL ( 'NONE', ( #226, #244, #1, #218 ) ) ;
#131 = PRODUCT_DEFINITION_FORMATION_WITH_SPECIFIED_SOURCE ( 'ANY', '', #302, .NOT_KNOWN. ) ;
#132 = CARTESIAN_POINT ( 'NONE',  ( 1.735266225405037467E-13, -6.086494591762345225E-15, 49.70000000000000284 ) ) ;
#133 = FACE_OUTER_BOUND ( 'NONE', #110, .T. ) ;
#134 = CC_DESIGN_PERSON_AND_ORGANIZATION_ASSIGNMENT ( #51, #54, ( #229 ) ) ;
#135 = FACE_BOUND ( 'NONE', #188, .T. ) ;
#136 = CIRCLE ( 'NONE', #211, 1.200000000000001732 ) ;
#137 = CC_DESIGN_APPROVAL ( #30, ( #229 ) ) ;
#138 = CARTESIAN_POINT ( 'NONE',  ( 7.365519911116439655E-14, -2.583476612879043467E-15, 21.09568746415505558 ) ) ;
#139 = CC_DESIGN_PERSON_AND_ORGANIZATION_ASSIGNMENT ( #209, #208, ( #302 ) ) ;
#140 = CARTESIAN_POINT ( 'NONE',  ( -6.128641408401694259E-31, 2.149638034842800043E-32, -1.755312663487514652E-16 ) ) ;
#141 = CARTESIAN_POINT ( 'NONE',  ( 8.728703347107835360E-16, 1.134999999999998899, 0.2500000000000000555 ) ) ;
#142 = APPLICATION_PROTOCOL_DEFINITION ( 'international standard', 'config_control_design', 1994, #123 ) ;
#143 = SECURITY_CLASSIFICATION_LEVEL ( 'unclassified' ) ;
#144 = ORIENTED_EDGE ( 'NONE', *, *, #47, .F. ) ;
#145 = ORIENTED_EDGE ( 'NONE', *, *, #214, .T. ) ;
#146 = MANIFOLD_SOLID_BREP ( 'Corps-Déplacer/Copier1[1]', #13 ) ;
#147 = COORDINATED_UNIVERSAL_TIME_OFFSET ( 1, 0, .AHEAD. ) ;
#148 = AXIS2_PLACEMENT_3D ( 'NONE', #109, #85, #60 ) ;
#149 = LOCAL_TIME ( 15, 4, 11.00000000000000000, #172 ) ;
#150 = APPROVAL_STATUS ( 'not_yet_approved' ) ;
#151 = EDGE_LOOP ( 'NONE', ( #233 ) ) ;
#152 = CARTESIAN_POINT ( 'NONE',  ( 2.883896417162832445E-14, -1.011534696479630343E-15, 8.259807621135337286 ) ) ;
#153 = CIRCLE ( 'NONE', #91, 1.135000000000000009 ) ;
#154 = DIRECTION ( 'NONE',  ( -3.491481338843133355E-15, 1.224646799147353207E-16, -1.000000000000000000 ) ) ;
#155 = CARTESIAN_POINT ( 'NONE',  ( 0.0000000000000000000, 0.0000000000000000000, 0.0000000000000000000 ) ) ;
#156 = FACE_OUTER_BOUND ( 'NONE', #266, .T. ) ;
#157 = DIRECTION ( 'NONE',  ( -3.491481338843133355E-15, 1.224646799147353207E-16, -1.000000000000000000 ) ) ;
#158 = DIRECTION ( 'NONE',  ( 0.0000000000000000000, 1.000000000000000000, 0.0000000000000000000 ) ) ;
#159 = ADVANCED_FACE ( 'NONE', ( #263, #84 ), #241, .T. ) ;
#160 = DIRECTION ( 'NONE',  ( 4.275831445896958607E-31, 1.000000000000000000, 1.224646799147353207E-16 ) ) ;
#161 = AXIS2_PLACEMENT_3D ( 'NONE', #155, #219, #220 ) ;
#162 = DIRECTION ( 'NONE',  ( -3.491481338843133355E-15, 1.224646799147353207E-16, -1.000000000000000000 ) ) ;
#163 = CARTESIAN_POINT ( 'NONE',  ( -1.892735826383161356E-31, 0.9906624327025944643, -5.421010862427522170E-17 ) ) ;
#164 = CARTESIAN_POINT ( 'NONE',  ( 8.728703347107829444E-16, -3.061616997868381785E-17, 0.2499999999999998890 ) ) ;
#165 = ADVANCED_FACE ( 'NONE', ( #37, #193 ), #59, .T. ) ;
#166 = CIRCLE ( 'NONE', #61, 0.9906624327025944643 ) ;
#167 = APPROVAL_DATE_TIME ( #286, #200 ) ;
#168 = AXIS2_PLACEMENT_3D ( 'NONE', #268, #222, #202 ) ;
#169 = ORIENTED_EDGE ( 'NONE', *, *, #80, .T. ) ;
#170 = CALENDAR_DATE ( 2021, 1, 12 ) ;
#171 = EDGE_LOOP ( 'NONE', ( #174 ) ) ;
#172 = COORDINATED_UNIVERSAL_TIME_OFFSET ( 1, 0, .AHEAD. ) ;
#173 = AXIS2_PLACEMENT_3D ( 'NONE', #239, #10, #291 ) ;
#174 = ORIENTED_EDGE ( 'NONE', *, *, #44, .F. ) ;
#175 = EDGE_LOOP ( 'NONE', ( #71 ) ) ;
#176 = EDGE_LOOP ( 'NONE', ( #76 ) ) ;
#177 = EDGE_LOOP ( 'NONE', ( #260 ) ) ;
#178 = ORIENTED_EDGE ( 'NONE', *, *, #204, .F. ) ;
#179 = ORIENTED_EDGE ( 'NONE', *, *, #44, .T. ) ;
#180 = FACE_BOUND ( 'NONE', #176, .T. ) ;
#181 = DIRECTION ( 'NONE',  ( -4.275831445896958607E-31, -1.000000000000000000, -1.224646799147353207E-16 ) ) ;
#182 = DIRECTION ( 'NONE',  ( 3.491481338843133355E-15, -1.224646799147353207E-16, 1.000000000000000000 ) ) ;
#183 = DATE_TIME_ROLE ( 'creation_date' ) ;
#184 = ORIENTED_EDGE ( 'NONE', *, *, #281, .F. ) ;
#185 = CONICAL_SURFACE ( 'NONE', #261, 1.134999999999998899, 0.5235987755982925984 ) ;
#186 = APPROVAL_PERSON_ORGANIZATION ( #32, #293, #275 ) ;
#187 = DATE_AND_TIME ( #170, #262 ) ;
#188 = EDGE_LOOP ( 'NONE', ( #144 ) ) ;
#189 = CALENDAR_DATE ( 2021, 1, 12 ) ;
#190 = EDGE_LOOP ( 'NONE', ( #26 ) ) ;
#191 = EDGE_LOOP ( 'NONE', ( #257 ) ) ;
#192 = DIRECTION ( 'NONE',  ( -3.491481338843133355E-15, 1.224646799147353207E-16, -1.000000000000000000 ) ) ;
#193 = FACE_OUTER_BOUND ( 'NONE', #74, .T. ) ;
#194 = EDGE_LOOP ( 'NONE', ( #283 ) ) ;
#195 = PERSON ( 'UNSPECIFIED', 'UNSPECIFIED', 'UNSPECIFIED', ('UNSPECIFIED'), ('UNSPECIFIED'), ('UNSPECIFIED') ) ;
#196 = DIRECTION ( 'NONE',  ( 4.275831445896958607E-31, 1.000000000000000000, 1.224646799147352961E-16 ) ) ;
#197 = FACE_OUTER_BOUND ( 'NONE', #177, .T. ) ;
#198 = CONICAL_SURFACE ( 'NONE', #4, 1.200000000000001732, 0.7853981633974453924 ) ;
#199 = FACE_OUTER_BOUND ( 'NONE', #55, .T. ) ;
#200 = APPROVAL ( #77, 'UNSPECIFIED' ) ;
#201 = PLANE ( 'NONE',  #294 ) ;
#202 = DIRECTION ( 'NONE',  ( 4.275831445896957731E-31, 1.000000000000000000, 1.224646799147353207E-16 ) ) ;
#203 = CIRCLE ( 'NONE', #117, 1.499999999999996669 ) ;
#204 = EDGE_CURVE ( 'NONE', #65, #65, #289, .T. ) ;
#205 = CC_DESIGN_APPROVAL ( #293, ( #131 ) ) ;
#206 = DIRECTION ( 'NONE',  ( 0.0000000000000000000, -1.000000000000000000, 0.0000000000000000000 ) ) ;
#207 = CC_DESIGN_DATE_AND_TIME_ASSIGNMENT ( #232, #121, ( #229 ) ) ;
#208 = PERSON_AND_ORGANIZATION_ROLE ( 'design_owner' ) ;
#209 = PERSON_AND_ORGANIZATION ( #195, #272 ) ;
#210 = CIRCLE ( 'NONE', #255, 1.134999999999998899 ) ;
#211 = AXIS2_PLACEMENT_3D ( 'NONE', #40, #162, #43 ) ;
#212 = APPROVAL_ROLE ( '' ) ;
#213 = EDGE_LOOP ( 'NONE', ( #9 ) ) ;
#214 = EDGE_CURVE ( 'NONE', #68, #68, #166, .T. ) ;
#215 = CIRCLE ( 'NONE', #247, 0.9849999999999988765 ) ;
#216 = FACE_BOUND ( 'NONE', #52, .T. ) ;
#217 = DIRECTION ( 'NONE',  ( 0.0000000000000000000, 1.000000000000000000, 0.0000000000000000000 ) ) ;
#218 = ADVANCED_FACE ( 'NONE', ( #39 ), #201, .T. ) ;
#219 = DIRECTION ( 'NONE',  ( -3.491481338843133355E-15, 1.224646799147353207E-16, -1.000000000000000000 ) ) ;
#220 = DIRECTION ( 'NONE',  ( 4.275831445896959482E-31, 1.000000000000000000, 1.224646799147353454E-16 ) ) ;
#221 = DIRECTION ( 'NONE',  ( 0.0000000000000000000, 1.000000000000000000, 0.0000000000000000000 ) ) ;
#222 = DIRECTION ( 'NONE',  ( -3.491481338843133355E-15, 1.224646799147353207E-16, -1.000000000000000000 ) ) ;
#223 = FACE_BOUND ( 'NONE', #175, .T. ) ;
#224 = UNCERTAINTY_MEASURE_WITH_UNIT (LENGTH_MEASURE( 1.000000000000000082E-05 ), #119, 'distance_accuracy_value', 'NONE');
#225 = DIRECTION ( 'NONE',  ( 3.491481338843133355E-15, -1.224646799147353207E-16, 1.000000000000000000 ) ) ;
#226 = ADVANCED_FACE ( 'NONE', ( #116 ), #246, .F. ) ;
#227 = MANIFOLD_SOLID_BREP ( 'Corps-Déplacer/Copier1[2]', #130 ) ;
#228 = VERTEX_POINT ( 'NONE', #22 ) ;
#229 = SECURITY_CLASSIFICATION ( '', '', #143 ) ;
#230 = DATE_AND_TIME ( #256, #149 ) ;
#231 = ADVANCED_FACE ( 'NONE', ( #295, #180 ), #112, .T. ) ;
#232 = DATE_AND_TIME ( #189, #5 ) ;
#233 = ORIENTED_EDGE ( 'NONE', *, *, #281, .T. ) ;
#234 = PERSON_AND_ORGANIZATION_ROLE ( 'design_supplier' ) ;
#235 = ORIENTED_EDGE ( 'NONE', *, *, #16, .T. ) ;
#236 = LOCAL_TIME ( 15, 4, 11.00000000000000000, #31 ) ;
#237 = EDGE_LOOP ( 'NONE', ( #179 ) ) ;
#238 = CALENDAR_DATE ( 2021, 1, 12 ) ;
#239 = CARTESIAN_POINT ( 'NONE',  ( 1.745740669421566678E-13, 8.998558695971067645E-33, 50.00000000000000000 ) ) ;
#240 = CARTESIAN_POINT ( 'NONE',  ( 0.0000000000000000000, 0.0000000000000000000, 0.0000000000000000000 ) ) ;
#241 = CYLINDRICAL_SURFACE ( 'NONE', #284, 1.499999999999999112 ) ;
#242 = CARTESIAN_POINT ( 'NONE',  ( 8.728703347107829444E-16, -3.061616997868381785E-17, 0.2499999999999998890 ) ) ;
#243 = DIRECTION ( 'NONE',  ( 0.0000000000000000000, 1.000000000000000000, 0.0000000000000000000 ) ) ;
#244 = ADVANCED_FACE ( 'NONE', ( #223, #274 ), #185, .T. ) ;
#245 = CARTESIAN_POINT ( 'NONE',  ( 2.793185071074506684E-14, 1.134999999999998899, 8.000000000000000000 ) ) ;
#246 = PLANE ( 'NONE',  #33 ) ;
#247 = AXIS2_PLACEMENT_3D ( 'NONE', #152, #192, #63 ) ;
#248 =( GEOMETRIC_REPRESENTATION_CONTEXT ( 3 ) GLOBAL_UNCERTAINTY_ASSIGNED_CONTEXT ( ( #224 ) ) GLOBAL_UNIT_ASSIGNED_CONTEXT ( ( #119, #124, #73 ) ) REPRESENTATION_CONTEXT ( 'NONE', 'WORKASPACE' ) );
#249 = VERTEX_POINT ( 'NONE', #92 ) ;
#250 = ADVANCED_FACE ( 'NONE', ( #135, #69 ), #126, .T. ) ;
#251 = CARTESIAN_POINT ( 'NONE',  ( 2.793185071074506684E-14, 8.511136766606028787E-33, 8.000000000000000000 ) ) ;
#252 = DIRECTION ( 'NONE',  ( 3.491481338843133355E-15, -1.224646799147353207E-16, 1.000000000000000000 ) ) ;
#253 = COORDINATED_UNIVERSAL_TIME_OFFSET ( 1, 0, .AHEAD. ) ;
#254 = CC_DESIGN_PERSON_AND_ORGANIZATION_ASSIGNMENT ( #122, #234, ( #131 ) ) ;
#255 = AXIS2_PLACEMENT_3D ( 'NONE', #242, #290, #292 ) ;
#256 = CALENDAR_DATE ( 2021, 1, 12 ) ;
#257 = ORIENTED_EDGE ( 'NONE', *, *, #80, .F. ) ;
#258 = CC_DESIGN_PERSON_AND_ORGANIZATION_ASSIGNMENT ( #102, #94, ( #93 ) ) ;
#259 = APPLICATION_PROTOCOL_DEFINITION ( 'international standard', 'config_control_design', 1994, #278 ) ;
#260 = ORIENTED_EDGE ( 'NONE', *, *, #16, .F. ) ;
#261 = AXIS2_PLACEMENT_3D ( 'NONE', #164, #252, #114 ) ;
#262 = LOCAL_TIME ( 15, 4, 11.00000000000000000, #253 ) ;
#263 = FACE_OUTER_BOUND ( 'NONE', #191, .T. ) ;
#264 = FACE_OUTER_BOUND ( 'NONE', #100, .T. ) ;
#265 = CARTESIAN_POINT ( 'NONE',  ( 6.405924284287275164E-14, -2.246895775456749140E-15, 18.34729635533384595 ) ) ;
#266 = EDGE_LOOP ( 'NONE', ( #178 ) ) ;
#267 = EDGE_CURVE ( 'NONE', #228, #228, #136, .T. ) ;
#268 = CARTESIAN_POINT ( 'NONE',  ( 6.284666409917640040E-14, -2.168404344971008868E-15, 18.00000000000000000 ) ) ;
#269 = CARTESIAN_POINT ( 'NONE',  ( 6.405924284287275164E-14, 1.015384493975579838, 18.34729635533384595 ) ) ;
#270 = VERTEX_POINT ( 'NONE', #245 ) ;
#271 = CIRCLE ( 'NONE', #300, 0.9850000000000002087 ) ;
#272 = ORGANIZATION ( 'UNSPECIFIED', 'UNSPECIFIED', '' ) ;
#273 = CARTESIAN_POINT ( 'NONE',  ( 1.735266225405037467E-13, 1.499999999999995559, 49.70000000000000284 ) ) ;
#274 = FACE_OUTER_BOUND ( 'NONE', #237, .T. ) ;
#275 = APPROVAL_ROLE ( '' ) ;
#276 = ORIENTED_EDGE ( 'NONE', *, *, #47, .T. ) ;
#277 = LOCAL_TIME ( 15, 4, 11.00000000000000000, #7 ) ;
#278 = APPLICATION_CONTEXT ( 'configuration controlled 3d designs of mechanical parts and assemblies' ) ;
#279 = PERSON_AND_ORGANIZATION_ROLE ( 'creator' ) ;
#280 = EDGE_LOOP ( 'NONE', ( #145 ) ) ;
#281 = EDGE_CURVE ( 'NONE', #118, #118, #98, .T. ) ;
#282 = SHAPE_DEFINITION_REPRESENTATION ( #95, #23 ) ;
#283 = ORIENTED_EDGE ( 'NONE', *, *, #204, .T. ) ;
#284 = AXIS2_PLACEMENT_3D ( 'NONE', #129, #15, #58 ) ;
#285 = APPROVAL_PERSON_ORGANIZATION ( #96, #30, #212 ) ;
#286 = DATE_AND_TIME ( #48, #236 ) ;
#287 = PLANE ( 'NONE',  #173 ) ;
#288 = DIRECTION ( 'NONE',  ( -3.491481338843133355E-15, 1.224646799147353207E-16, -1.000000000000000000 ) ) ;
#289 = CIRCLE ( 'NONE', #78, 1.500000000000001554 ) ;
#290 = DIRECTION ( 'NONE',  ( -3.491481338843133355E-15, 1.224646799147353207E-16, -1.000000000000000000 ) ) ;
#291 = DIRECTION ( 'NONE',  ( 4.275831445896958607E-31, 1.000000000000000000, 1.224646799147353207E-16 ) ) ;
#292 = DIRECTION ( 'NONE',  ( 5.090563729657896679E-31, 1.000000000000000000, 1.432866307249566614E-16 ) ) ;
#293 = APPROVAL ( #70, 'UNSPECIFIED' ) ;
#294 = AXIS2_PLACEMENT_3D ( 'NONE', #251, #225, #21 ) ;
#295 = FACE_OUTER_BOUND ( 'NONE', #190, .T. ) ;
#296 = VERTEX_POINT ( 'NONE', #141 ) ;
#297 = ADVANCED_FACE ( 'NONE', ( #197, #199 ), #62, .F. ) ;
#298 = DIRECTION ( 'NONE',  ( 0.0000000000000000000, 1.000000000000000000, 0.0000000000000000000 ) ) ;
#299 = CARTESIAN_POINT ( 'NONE',  ( 2.883896417162832445E-14, 0.9849999999999977662, 8.259807621135337286 ) ) ;
#300 = AXIS2_PLACEMENT_3D ( 'NONE', #128, #157, #217 ) ;
#301 = AXIS2_PLACEMENT_3D ( 'NONE', #45, #89, #221 ) ;
#302 = PRODUCT ( '327068', '327068', '', ( #79 ) ) ;
#303 = CARTESIAN_POINT ( 'NONE',  ( 2.793185071074506684E-14, 1.134999999999998899, 8.000000000000000000 ) ) ;
ENDSEC;
END-ISO-10303-21;
