ISO-10303-21;
HEADER;
FILE_DESCRIPTION (( 'STEP AP203' ),
    '1' );
FILE_NAME ('327067.step',
    '2021-12-01T14:04:10',
    ( '' ),
    ( '' ),
    'SwSTEP 2.0',
    'SolidWorks 2019',
    '' );
FILE_SCHEMA (( 'CONFIG_CONTROL_DESIGN' ));
ENDSEC;

DATA;
#1 = VERTEX_POINT ( 'NONE', #220 ) ;
#2 = APPROVAL_PERSON_ORGANIZATION ( #104, #161, #181 ) ;
#3 = CARTESIAN_POINT ( 'NONE',  ( 1.735266225405037467E-13, 1.499999999999995559, 49.70000000000000284 ) ) ;
#4 = PERSON_AND_ORGANIZATION ( #167, #64 ) ;
#5 = CARTESIAN_POINT ( 'NONE',  ( 8.728703347107835360E-16, 1.129999999999998783, 0.2500000000000000555 ) ) ;
#6 = LOCAL_TIME ( 15, 4, 10.00000000000000000, #45 ) ;
#7 = DIRECTION ( 'NONE',  ( 0.0000000000000000000, 1.000000000000000000, 0.0000000000000000000 ) ) ;
#8 = DIRECTION ( 'NONE',  ( 0.0000000000000000000, 1.000000000000000000, 0.0000000000000000000 ) ) ;
#9 = EDGE_LOOP ( 'NONE', ( #172 ) ) ;
#10 = AXIS2_PLACEMENT_3D ( 'NONE', #63, #91, #210 ) ;
#11 = FACE_BOUND ( 'NONE', #269, .T. ) ;
#12 = CC_DESIGN_PERSON_AND_ORGANIZATION_ASSIGNMENT ( #119, #286, ( #99 ) ) ;
#13 = ORIENTED_EDGE ( 'NONE', *, *, #127, .F. ) ;
#14 = CARTESIAN_POINT ( 'NONE',  ( 6.405924284287275164E-14, 1.010384493975578835, 18.34729635533384595 ) ) ;
#15 = CARTESIAN_POINT ( 'NONE',  ( 2.793185071074506684E-14, 1.129999999999998783, 8.000000000000000000 ) ) ;
#16 = AXIS2_PLACEMENT_3D ( 'NONE', #215, #188, #299 ) ;
#17 = ADVANCED_FACE ( 'NONE', ( #107, #58 ), #103, .T. ) ;
#18 = CARTESIAN_POINT ( 'NONE',  ( 8.728703347107829444E-16, -3.061616997868381785E-17, 0.2499999999999998890 ) ) ;
#19 = FACE_OUTER_BOUND ( 'NONE', #224, .T. ) ;
#20 = DIRECTION ( 'NONE',  ( -4.275831445896958607E-31, -1.000000000000000000, -1.224646799147353207E-16 ) ) ;
#21 = DATE_AND_TIME ( #48, #6 ) ;
#22 = ORIENTED_EDGE ( 'NONE', *, *, #190, .T. ) ;
#23 = ADVANCED_FACE ( 'NONE', ( #159, #11 ), #44, .T. ) ;
#24 = AXIS2_PLACEMENT_3D ( 'NONE', #182, #205, #284 ) ;
#25 = AXIS2_PLACEMENT_3D ( 'NONE', #96, #197, #94 ) ;
#26 =( NAMED_UNIT ( * ) SI_UNIT ( $, .STERADIAN. ) SOLID_ANGLE_UNIT ( ) );
#27 = ORIENTED_EDGE ( 'NONE', *, *, #127, .T. ) ;
#28 = CALENDAR_DATE ( 2021, 1, 12 ) ;
#29 = ORIENTED_EDGE ( 'NONE', *, *, #287, .T. ) ;
#30 = CIRCLE ( 'NONE', #211, 1.129999999999999893 ) ;
#31 = COORDINATED_UNIVERSAL_TIME_OFFSET ( 1, 0, .AHEAD. ) ;
#32 = DIRECTION ( 'NONE',  ( 0.0000000000000000000, 1.000000000000000000, 0.0000000000000000000 ) ) ;
#33 = EDGE_LOOP ( 'NONE', ( #102 ) ) ;
#34 = CARTESIAN_POINT ( 'NONE',  ( 2.793185071074506684E-14, -9.797174393178825657E-16, 8.000000000000000000 ) ) ;
#35 = CIRCLE ( 'NONE', #200, 1.129999999999998783 ) ;
#36 = DIRECTION ( 'NONE',  ( 0.0000000000000000000, -1.000000000000000000, 0.0000000000000000000 ) ) ;
#37 = CARTESIAN_POINT ( 'NONE',  ( 7.375420498436699351E-14, -2.586949271442772651E-15, 21.12404387325315014 ) ) ;
#38 = ADVANCED_FACE ( 'NONE', ( #180, #275 ), #222, .T. ) ;
#39 = DIRECTION ( 'NONE',  ( 3.491481338843133355E-15, -1.224646799147353207E-16, 1.000000000000000000 ) ) ;
#40 = DIRECTION ( 'NONE',  ( -3.491481338843133355E-15, 1.224646799147353207E-16, -1.000000000000000000 ) ) ;
#41 = CC_DESIGN_PERSON_AND_ORGANIZATION_ASSIGNMENT ( #267, #50, ( #171 ) ) ;
#42 = DIRECTION ( 'NONE',  ( 4.275831445896958607E-31, 1.000000000000000000, 1.224646799147353207E-16 ) ) ;
#43 = CARTESIAN_POINT ( 'NONE',  ( 2.793185071074506684E-14, 8.473642772039479336E-33, 8.000000000000000000 ) ) ;
#44 = CONICAL_SURFACE ( 'NONE', #153, 1.200000000000001732, 0.7853981633974453924 ) ;
#45 = COORDINATED_UNIVERSAL_TIME_OFFSET ( 1, 0, .AHEAD. ) ;
#46 = ORIENTED_EDGE ( 'NONE', *, *, #232, .T. ) ;
#47 = VERTEX_POINT ( 'NONE', #3 ) ;
#48 = CALENDAR_DATE ( 2021, 1, 12 ) ;
#49 = LOCAL_TIME ( 15, 4, 10.00000000000000000, #198 ) ;
#50 = PERSON_AND_ORGANIZATION_ROLE ( 'design_supplier' ) ;
#51 = EDGE_LOOP ( 'NONE', ( #274 ) ) ;
#52 = DATE_AND_TIME ( #124, #186 ) ;
#53 = DIRECTION ( 'NONE',  ( -3.491481338843133355E-15, 1.224646799147353207E-16, -1.000000000000000000 ) ) ;
#54 = CYLINDRICAL_SURFACE ( 'NONE', #134, 0.9799999999999995381 ) ;
#55 = ORIENTED_EDGE ( 'NONE', *, *, #67, .T. ) ;
#56 = ORIENTED_EDGE ( 'NONE', *, *, #67, .F. ) ;
#57 = AXIS2_PLACEMENT_3D ( 'NONE', #162, #168, #297 ) ;
#58 = FACE_BOUND ( 'NONE', #291, .T. ) ;
#59 = CC_DESIGN_DATE_AND_TIME_ASSIGNMENT ( #271, #130, ( #242 ) ) ;
#60 = VERTEX_POINT ( 'NONE', #254 ) ;
#61 = FACE_BOUND ( 'NONE', #223, .T. ) ;
#62 = CIRCLE ( 'NONE', #302, 1.200000000000001732 ) ;
#63 = CARTESIAN_POINT ( 'NONE',  ( 1.745740669421566678E-13, 8.998558695971067645E-33, 50.00000000000000000 ) ) ;
#64 = ORGANIZATION ( 'UNSPECIFIED', 'UNSPECIFIED', '' ) ;
#65 = EDGE_CURVE ( 'NONE', #87, #87, #114, .T. ) ;
#66 = PLANE ( 'NONE',  #175 ) ;
#67 = EDGE_CURVE ( 'NONE', #68, #68, #282, .T. ) ;
#68 = VERTEX_POINT ( 'NONE', #14 ) ;
#69 = CARTESIAN_POINT ( 'NONE',  ( 2.883896417162832445E-14, 0.9799999999999977618, 8.259807621135337286 ) ) ;
#70 = CIRCLE ( 'NONE', #273, 0.9799999999999988720 ) ;
#71 = EDGE_LOOP ( 'NONE', ( #13 ) ) ;
#72 = APPROVAL_PERSON_ORGANIZATION ( #177, #89, #173 ) ;
#73 = CC_DESIGN_PERSON_AND_ORGANIZATION_ASSIGNMENT ( #285, #262, ( #242 ) ) ;
#74 = CALENDAR_DATE ( 2021, 1, 12 ) ;
#75 = PERSON_AND_ORGANIZATION ( #167, #64 ) ;
#76 = CLOSED_SHELL ( 'NONE', ( #137, #184, #139, #199 ) ) ;
#77 = VERTEX_POINT ( 'NONE', #69 ) ;
#78 = CARTESIAN_POINT ( 'NONE',  ( 6.405924284287275164E-14, -2.246895775456749140E-15, 18.34729635533384595 ) ) ;
#79 = DIRECTION ( 'NONE',  ( 0.0000000000000000000, 1.000000000000000000, 0.0000000000000000000 ) ) ;
#80 = CIRCLE ( 'NONE', #256, 0.9856624327025944599 ) ;
#81 = CARTESIAN_POINT ( 'NONE',  ( 2.793185071074506684E-14, -9.797174393178825657E-16, 8.000000000000000000 ) ) ;
#82 = ORIENTED_EDGE ( 'NONE', *, *, #98, .T. ) ;
#83 = EDGE_LOOP ( 'NONE', ( #295 ) ) ;
#84 = PRODUCT_RELATED_PRODUCT_CATEGORY ( 'detail', '', ( #99 ) ) ;
#85 = CC_DESIGN_SECURITY_CLASSIFICATION ( #242, ( #171 ) ) ;
#86 = VERTEX_POINT ( 'NONE', #187 ) ;
#87 = VERTEX_POINT ( 'NONE', #236 ) ;
#88 = DIRECTION ( 'NONE',  ( -3.491481338843133355E-15, 1.224646799147353207E-16, -1.000000000000000000 ) ) ;
#89 = APPROVAL ( #264, 'UNSPECIFIED' ) ;
#90 = DIRECTION ( 'NONE',  ( 5.113088347930720289E-31, 1.000000000000000000, 1.439206423653326056E-16 ) ) ;
#91 = DIRECTION ( 'NONE',  ( -3.491481338843133355E-15, 1.224646799147353207E-16, -1.000000000000000000 ) ) ;
#92 = EDGE_CURVE ( 'NONE', #86, #86, #80, .T. ) ;
#93 = APPROVAL_ROLE ( '' ) ;
#94 = DIRECTION ( 'NONE',  ( 1.000000000000000000, 0.0000000000000000000, 0.0000000000000000000 ) ) ;
#95 = AXIS2_PLACEMENT_3D ( 'NONE', #34, #101, #155 ) ;
#96 = CARTESIAN_POINT ( 'NONE',  ( 0.0000000000000000000, 0.0000000000000000000, 0.0000000000000000000 ) ) ;
#97 = APPROVAL_DATE_TIME ( #221, #89 ) ;
#98 = EDGE_CURVE ( 'NONE', #60, #60, #169, .T. ) ;
#99 = PRODUCT ( '327067', '327067', '', ( #241 ) ) ;
#100 = EDGE_LOOP ( 'NONE', ( #143 ) ) ;
#101 = DIRECTION ( 'NONE',  ( -3.491481338843133355E-15, 1.224646799147353207E-16, -1.000000000000000000 ) ) ;
#102 = ORIENTED_EDGE ( 'NONE', *, *, #92, .T. ) ;
#103 = CONICAL_SURFACE ( 'NONE', #219, 0.9799999999999988720, 0.5235987755982934866 ) ;
#104 = PERSON_AND_ORGANIZATION ( #167, #64 ) ;
#105 = ADVANCED_FACE ( 'NONE', ( #252, #131 ), #54, .T. ) ;
#106 = ORIENTED_EDGE ( 'NONE', *, *, #65, .F. ) ;
#107 = FACE_OUTER_BOUND ( 'NONE', #149, .T. ) ;
#108 = CARTESIAN_POINT ( 'NONE',  ( 1.745740669421566678E-13, -6.123233995736766085E-15, 50.00000000000000000 ) ) ;
#109 = LOCAL_TIME ( 15, 4, 10.00000000000000000, #157 ) ;
#110 = DIRECTION ( 'NONE',  ( 4.275831445896958607E-31, 1.000000000000000000, 1.224646799147353207E-16 ) ) ;
#111 = CYLINDRICAL_SURFACE ( 'NONE', #116, 1.499999999999999112 ) ;
#112 = DESIGN_CONTEXT ( 'detailed design', #135, 'design' ) ;
#113 = CARTESIAN_POINT ( 'NONE',  ( 0.0000000000000000000, 0.0000000000000000000, 0.0000000000000000000 ) ) ;
#114 = CIRCLE ( 'NONE', #163, 1.499999999999996669 ) ;
#115 = DIRECTION ( 'NONE',  ( 4.275831445896958607E-31, 1.000000000000000000, 1.224646799147353454E-16 ) ) ;
#116 = AXIS2_PLACEMENT_3D ( 'NONE', #113, #230, #115 ) ;
#117 = DATE_TIME_ROLE ( 'creation_date' ) ;
#118 = ORIENTED_EDGE ( 'NONE', *, *, #190, .F. ) ;
#119 = PERSON_AND_ORGANIZATION ( #167, #64 ) ;
#120 = APPROVAL ( #218, 'UNSPECIFIED' ) ;
#121 = CALENDAR_DATE ( 2021, 1, 12 ) ;
#122 = ORIENTED_EDGE ( 'NONE', *, *, #92, .F. ) ;
#123 = AXIS2_PLACEMENT_3D ( 'NONE', #209, #253, #36 ) ;
#124 = CALENDAR_DATE ( 2021, 1, 12 ) ;
#125 = EDGE_LOOP ( 'NONE', ( #55 ) ) ;
#126 = PLANE ( 'NONE',  #24 ) ;
#127 = EDGE_CURVE ( 'NONE', #132, #132, #30, .T. ) ;
#128 = EDGE_LOOP ( 'NONE', ( #56 ) ) ;
#129 = AXIS2_PLACEMENT_3D ( 'NONE', #283, #40, #110 ) ;
#130 = DATE_TIME_ROLE ( 'classification_date' ) ;
#131 = FACE_OUTER_BOUND ( 'NONE', #154, .T. ) ;
#132 = VERTEX_POINT ( 'NONE', #15 ) ;
#133 = MANIFOLD_SOLID_BREP ( 'Corps-Déplacer/Copier1[2]', #76 ) ;
#134 = AXIS2_PLACEMENT_3D ( 'NONE', #228, #179, #272 ) ;
#135 = APPLICATION_CONTEXT ( 'configuration controlled 3d designs of mechanical parts and assemblies' ) ;
#136 = FACE_OUTER_BOUND ( 'NONE', #240, .T. ) ;
#137 = ADVANCED_FACE ( 'NONE', ( #152 ), #126, .F. ) ;
#138 = CARTESIAN_POINT ( 'NONE',  ( 2.793185071074506684E-14, 8.473642772039479336E-33, 8.000000000000000000 ) ) ;
#139 = ADVANCED_FACE ( 'NONE', ( #279, #255 ), #301, .T. ) ;
#140 = DIRECTION ( 'NONE',  ( -4.275831445896958607E-31, -1.000000000000000000, -1.224646799147353207E-16 ) ) ;
#141 = COORDINATED_UNIVERSAL_TIME_OFFSET ( 1, 0, .AHEAD. ) ;
#142 = AXIS2_PLACEMENT_3D ( 'NONE', #192, #160, #42 ) ;
#143 = ORIENTED_EDGE ( 'NONE', *, *, #156, .F. ) ;
#144 = VERTEX_POINT ( 'NONE', #5 ) ;
#145 = VERTEX_POINT ( 'NONE', #239 ) ;
#146 = CONICAL_SURFACE ( 'NONE', #246, 1.129999999999998783, 0.5235987755982925984 ) ;
#147 = APPROVAL_PERSON_ORGANIZATION ( #4, #120, #93 ) ;
#148 = SECURITY_CLASSIFICATION_LEVEL ( 'unclassified' ) ;
#149 = EDGE_LOOP ( 'NONE', ( #178 ) ) ;
#150 = SHAPE_DEFINITION_REPRESENTATION ( #204, #245 ) ;
#151 = CC_DESIGN_PERSON_AND_ORGANIZATION_ASSIGNMENT ( #238, #265, ( #280 ) ) ;
#152 = FACE_OUTER_BOUND ( 'NONE', #33, .T. ) ;
#153 = AXIS2_PLACEMENT_3D ( 'NONE', #290, #208, #32 ) ;
#154 = EDGE_LOOP ( 'NONE', ( #29 ) ) ;
#155 = DIRECTION ( 'NONE',  ( 0.0000000000000000000, 1.000000000000000000, 0.0000000000000000000 ) ) ;
#156 = EDGE_CURVE ( 'NONE', #77, #77, #70, .T. ) ;
#157 = COORDINATED_UNIVERSAL_TIME_OFFSET ( 1, 0, .AHEAD. ) ;
#158 = DIRECTION ( 'NONE',  ( 4.275831445896957731E-31, 1.000000000000000000, 1.224646799147353207E-16 ) ) ;
#159 = FACE_OUTER_BOUND ( 'NONE', #9, .T. ) ;
#160 = DIRECTION ( 'NONE',  ( -3.491481338843133355E-15, 1.224646799147353207E-16, -1.000000000000000000 ) ) ;
#161 = APPROVAL ( #249, 'UNSPECIFIED' ) ;
#162 = CARTESIAN_POINT ( 'NONE',  ( 1.735266225405037467E-13, -6.086494591762345225E-15, 49.70000000000000284 ) ) ;
#163 = AXIS2_PLACEMENT_3D ( 'NONE', #37, #294, #7 ) ;
#164 = CIRCLE ( 'NONE', #16, 0.9799999999999999822 ) ;
#165 = CARTESIAN_POINT ( 'NONE',  ( 8.728703347107829444E-16, -3.061616997868381785E-17, 0.2499999999999998890 ) ) ;
#166 = FACE_OUTER_BOUND ( 'NONE', #250, .T. ) ;
#167 = PERSON ( 'UNSPECIFIED', 'UNSPECIFIED', 'UNSPECIFIED', ('UNSPECIFIED'), ('UNSPECIFIED'), ('UNSPECIFIED') ) ;
#168 = DIRECTION ( 'NONE',  ( -3.491481338843133355E-15, 1.224646799147353207E-16, -1.000000000000000000 ) ) ;
#169 = CIRCLE ( 'NONE', #95, 1.129999999999999893 ) ;
#170 = APPLICATION_PROTOCOL_DEFINITION ( 'international standard', 'config_control_design', 1994, #135 ) ;
#171 = PRODUCT_DEFINITION_FORMATION_WITH_SPECIFIED_SOURCE ( 'ANY', '', #99, .NOT_KNOWN. ) ;
#172 = ORIENTED_EDGE ( 'NONE', *, *, #232, .F. ) ;
#173 = APPROVAL_ROLE ( '' ) ;
#174 = PERSON_AND_ORGANIZATION_ROLE ( 'creator' ) ;
#175 = AXIS2_PLACEMENT_3D ( 'NONE', #138, #212, #20 ) ;
#176 = LOCAL_TIME ( 15, 4, 10.00000000000000000, #141 ) ;
#177 = PERSON_AND_ORGANIZATION ( #167, #64 ) ;
#178 = ORIENTED_EDGE ( 'NONE', *, *, #98, .F. ) ;
#179 = DIRECTION ( 'NONE',  ( -3.491481338843133355E-15, 1.224646799147353207E-16, -1.000000000000000000 ) ) ;
#180 = FACE_BOUND ( 'NONE', #128, .T. ) ;
#181 = APPROVAL_ROLE ( '' ) ;
#182 = CARTESIAN_POINT ( 'NONE',  ( -3.053631125586104772E-31, 1.071069617964745487E-32, -8.745947147458890115E-17 ) ) ;
#183 = CARTESIAN_POINT ( 'NONE',  ( 2.883896417162832445E-14, -1.011534696479630343E-15, 8.259807621135337286 ) ) ;
#184 = ADVANCED_FACE ( 'NONE', ( #61, #189 ), #146, .T. ) ;
#185 = DIRECTION ( 'NONE',  ( -3.491481338843133355E-15, 1.224646799147353207E-16, -1.000000000000000000 ) ) ;
#186 = LOCAL_TIME ( 15, 4, 10.00000000000000000, #31 ) ;
#187 = CARTESIAN_POINT ( 'NONE',  ( -1.892735826383161356E-31, 0.9856624327025944599, -5.421010862427522170E-17 ) ) ;
#188 = DIRECTION ( 'NONE',  ( -3.491481338843133355E-15, 1.224646799147353207E-16, -1.000000000000000000 ) ) ;
#189 = FACE_OUTER_BOUND ( 'NONE', #83, .T. ) ;
#190 = EDGE_CURVE ( 'NONE', #145, #145, #62, .T. ) ;
#191 = DIRECTION ( 'NONE',  ( -5.113088347930720289E-31, -1.000000000000000000, -1.439206423653326056E-16 ) ) ;
#192 = CARTESIAN_POINT ( 'NONE',  ( 6.284666409917640040E-14, -2.168404344971008868E-15, 18.00000000000000000 ) ) ;
#193 = DATE_AND_TIME ( #121, #49 ) ;
#194 = EDGE_LOOP ( 'NONE', ( #292 ) ) ;
#195 = ADVANCED_FACE ( 'NONE', ( #231 ), #281, .F. ) ;
#196 = CLOSED_SHELL ( 'NONE', ( #293, #17, #105, #266, #38, #259, #23, #195 ) ) ;
#197 = DIRECTION ( 'NONE',  ( 0.0000000000000000000, 0.0000000000000000000, 1.000000000000000000 ) ) ;
#198 = COORDINATED_UNIVERSAL_TIME_OFFSET ( 1, 0, .AHEAD. ) ;
#199 = ADVANCED_FACE ( 'NONE', ( #229 ), #66, .T. ) ;
#200 = AXIS2_PLACEMENT_3D ( 'NONE', #165, #257, #90 ) ;
#201 = CC_DESIGN_DATE_AND_TIME_ASSIGNMENT ( #21, #117, ( #280 ) ) ;
#202 = APPROVAL_DATE_TIME ( #52, #161 ) ;
#203 = ORIENTED_EDGE ( 'NONE', *, *, #156, .T. ) ;
#204 = PRODUCT_DEFINITION_SHAPE ( 'NONE', 'NONE',  #280 ) ;
#205 = DIRECTION ( 'NONE',  ( 3.491481338843133355E-15, -1.224646799147353207E-16, 1.000000000000000000 ) ) ;
#206 = DIRECTION ( 'NONE',  ( -3.491481338843133355E-15, 1.224646799147353207E-16, -1.000000000000000000 ) ) ;
#207 = CC_DESIGN_APPROVAL ( #89, ( #280 ) ) ;
#208 = DIRECTION ( 'NONE',  ( -3.491481338843133355E-15, 1.224646799147353207E-16, -1.000000000000000000 ) ) ;
#209 = CARTESIAN_POINT ( 'NONE',  ( 7.375420498436699351E-14, -2.586949271442772651E-15, 21.12404387325315014 ) ) ;
#210 = DIRECTION ( 'NONE',  ( 4.275831445896958607E-31, 1.000000000000000000, 1.224646799147353207E-16 ) ) ;
#211 = AXIS2_PLACEMENT_3D ( 'NONE', #81, #53, #251 ) ;
#212 = DIRECTION ( 'NONE',  ( 3.491481338843133355E-15, -1.224646799147353207E-16, 1.000000000000000000 ) ) ;
#213 = FACE_OUTER_BOUND ( 'NONE', #125, .T. ) ;
#214 = EDGE_CURVE ( 'NONE', #144, #144, #35, .T. ) ;
#215 = CARTESIAN_POINT ( 'NONE',  ( 6.284666409917640040E-14, -2.204364238465235428E-15, 18.00000000000000000 ) ) ;
#216 = CIRCLE ( 'NONE', #57, 1.500000000000001554 ) ;
#217 = FACE_OUTER_BOUND ( 'NONE', #194, .T. ) ;
#218 = APPROVAL_STATUS ( 'not_yet_approved' ) ;
#219 = AXIS2_PLACEMENT_3D ( 'NONE', #183, #185, #79 ) ;
#220 = CARTESIAN_POINT ( 'NONE',  ( 6.284666409917640040E-14, 0.9799999999999977618, 18.00000000000000000 ) ) ;
#221 = DATE_AND_TIME ( #74, #176 ) ;
#222 = CONICAL_SURFACE ( 'NONE', #123, 1.499999999999996669, 0.1745329251994261199 ) ;
#223 = EDGE_LOOP ( 'NONE', ( #122 ) ) ;
#224 = EDGE_LOOP ( 'NONE', ( #106 ) ) ;
#225 = DIRECTION ( 'NONE',  ( -3.491481338843133355E-15, 1.224646799147353207E-16, -1.000000000000000000 ) ) ;
#226 = ORIENTED_EDGE ( 'NONE', *, *, #214, .F. ) ;
#227 = CC_DESIGN_APPROVAL ( #161, ( #242 ) ) ;
#228 = CARTESIAN_POINT ( 'NONE',  ( 0.0000000000000000000, 0.0000000000000000000, 0.0000000000000000000 ) ) ;
#229 = FACE_OUTER_BOUND ( 'NONE', #71, .T. ) ;
#230 = DIRECTION ( 'NONE',  ( -3.491481338843133355E-15, 1.224646799147353207E-16, -1.000000000000000000 ) ) ;
#231 = FACE_OUTER_BOUND ( 'NONE', #263, .T. ) ;
#232 = EDGE_CURVE ( 'NONE', #47, #47, #216, .T. ) ;
#233 = UNCERTAINTY_MEASURE_WITH_UNIT (LENGTH_MEASURE( 1.000000000000000082E-05 ), #244, 'distance_accuracy_value', 'NONE');
#234 = DIRECTION ( 'NONE',  ( -3.491481338843133355E-15, 1.224646799147353207E-16, -1.000000000000000000 ) ) ;
#235 = CC_DESIGN_PERSON_AND_ORGANIZATION_ASSIGNMENT ( #75, #174, ( #171 ) ) ;
#236 = CARTESIAN_POINT ( 'NONE',  ( 7.375420498436699351E-14, 1.499999999999994005, 21.12404387325315014 ) ) ;
#237 = MANIFOLD_SOLID_BREP ( 'Corps-Déplacer/Copier1[1]', #196 ) ;
#238 = PERSON_AND_ORGANIZATION ( #167, #64 ) ;
#239 = CARTESIAN_POINT ( 'NONE',  ( 1.745740669421566678E-13, 1.199999999999995515, 50.00000000000000000 ) ) ;
#240 = EDGE_LOOP ( 'NONE', ( #46 ) ) ;
#241 = MECHANICAL_CONTEXT ( 'NONE', #268, 'mechanical' ) ;
#242 = SECURITY_CLASSIFICATION ( '', '', #148 ) ;
#243 =( NAMED_UNIT ( * ) PLANE_ANGLE_UNIT ( ) SI_UNIT ( $, .RADIAN. ) );
#244 =( LENGTH_UNIT ( ) NAMED_UNIT ( * ) SI_UNIT ( .MILLI., .METRE. ) );
#245 = ADVANCED_BREP_SHAPE_REPRESENTATION ( '327067', ( #237, #133, #25 ), #298 ) ;
#246 = AXIS2_PLACEMENT_3D ( 'NONE', #18, #39, #191 ) ;
#247 = CC_DESIGN_APPROVAL ( #120, ( #171 ) ) ;
#248 = EDGE_LOOP ( 'NONE', ( #226 ) ) ;
#249 = APPROVAL_STATUS ( 'not_yet_approved' ) ;
#250 = EDGE_LOOP ( 'NONE', ( #82 ) ) ;
#251 = DIRECTION ( 'NONE',  ( 0.0000000000000000000, 1.000000000000000000, 0.0000000000000000000 ) ) ;
#252 = FACE_OUTER_BOUND ( 'NONE', #100, .T. ) ;
#253 = DIRECTION ( 'NONE',  ( 3.491481338843133355E-15, -1.224646799147353207E-16, 1.000000000000000000 ) ) ;
#254 = CARTESIAN_POINT ( 'NONE',  ( 2.793185071074506684E-14, 1.129999999999998783, 8.000000000000000000 ) ) ;
#255 = FACE_OUTER_BOUND ( 'NONE', #277, .T. ) ;
#256 = AXIS2_PLACEMENT_3D ( 'NONE', #276, #206, #158 ) ;
#257 = DIRECTION ( 'NONE',  ( -3.491481338843133355E-15, 1.224646799147353207E-16, -1.000000000000000000 ) ) ;
#258 = PLANE ( 'NONE',  #289 ) ;
#259 = ADVANCED_FACE ( 'NONE', ( #19, #136 ), #111, .T. ) ;
#260 = DIRECTION ( 'NONE',  ( 3.491481338843133355E-15, -1.224646799147353207E-16, 1.000000000000000000 ) ) ;
#261 = TOROIDAL_SURFACE ( 'NONE', #142, 2.979999999999999982, 2.000000000000000000 ) ;
#262 = PERSON_AND_ORGANIZATION_ROLE ( 'classification_officer' ) ;
#263 = EDGE_LOOP ( 'NONE', ( #118 ) ) ;
#264 = APPROVAL_STATUS ( 'not_yet_approved' ) ;
#265 = PERSON_AND_ORGANIZATION_ROLE ( 'creator' ) ;
#266 = ADVANCED_FACE ( 'NONE', ( #217, #213 ), #261, .F. ) ;
#267 = PERSON_AND_ORGANIZATION ( #167, #64 ) ;
#268 = APPLICATION_CONTEXT ( 'configuration controlled 3d designs of mechanical parts and assemblies' ) ;
#269 = EDGE_LOOP ( 'NONE', ( #22 ) ) ;
#270 = APPLICATION_PROTOCOL_DEFINITION ( 'international standard', 'config_control_design', 1994, #268 ) ;
#271 = DATE_AND_TIME ( #28, #109 ) ;
#272 = DIRECTION ( 'NONE',  ( 4.275831445896958607E-31, 1.000000000000000000, 1.224646799147353207E-16 ) ) ;
#273 = AXIS2_PLACEMENT_3D ( 'NONE', #278, #88, #300 ) ;
#274 = ORIENTED_EDGE ( 'NONE', *, *, #65, .T. ) ;
#275 = FACE_OUTER_BOUND ( 'NONE', #51, .T. ) ;
#276 = CARTESIAN_POINT ( 'NONE',  ( -6.107262251172209545E-31, 2.142139235929490974E-32, -1.749189429491778023E-16 ) ) ;
#277 = EDGE_LOOP ( 'NONE', ( #27 ) ) ;
#278 = CARTESIAN_POINT ( 'NONE',  ( 2.883896417162832445E-14, -1.011534696479630343E-15, 8.259807621135337286 ) ) ;
#279 = FACE_OUTER_BOUND ( 'NONE', #248, .T. ) ;
#280 = PRODUCT_DEFINITION ( 'UNKNOWN', '', #171, #112 ) ;
#281 = PLANE ( 'NONE',  #10 ) ;
#282 = CIRCLE ( 'NONE', #296, 1.010384493975581055 ) ;
#283 = CARTESIAN_POINT ( 'NONE',  ( 0.0000000000000000000, 0.0000000000000000000, 0.0000000000000000000 ) ) ;
#284 = DIRECTION ( 'NONE',  ( -4.275831445896958607E-31, -1.000000000000000000, -1.224646799147353207E-16 ) ) ;
#285 = PERSON_AND_ORGANIZATION ( #167, #64 ) ;
#286 = PERSON_AND_ORGANIZATION_ROLE ( 'design_owner' ) ;
#287 = EDGE_CURVE ( 'NONE', #1, #1, #164, .T. ) ;
#288 = APPROVAL_DATE_TIME ( #193, #120 ) ;
#289 = AXIS2_PLACEMENT_3D ( 'NONE', #43, #260, #140 ) ;
#290 = CARTESIAN_POINT ( 'NONE',  ( 1.745740669421566678E-13, -6.123233995736766085E-15, 50.00000000000000000 ) ) ;
#291 = EDGE_LOOP ( 'NONE', ( #203 ) ) ;
#292 = ORIENTED_EDGE ( 'NONE', *, *, #287, .F. ) ;
#293 = ADVANCED_FACE ( 'NONE', ( #166 ), #258, .F. ) ;
#294 = DIRECTION ( 'NONE',  ( -3.491481338843133355E-15, 1.224646799147353207E-16, -1.000000000000000000 ) ) ;
#295 = ORIENTED_EDGE ( 'NONE', *, *, #214, .T. ) ;
#296 = AXIS2_PLACEMENT_3D ( 'NONE', #78, #225, #8 ) ;
#297 = DIRECTION ( 'NONE',  ( 0.0000000000000000000, 1.000000000000000000, 0.0000000000000000000 ) ) ;
#298 =( GEOMETRIC_REPRESENTATION_CONTEXT ( 3 ) GLOBAL_UNCERTAINTY_ASSIGNED_CONTEXT ( ( #233 ) ) GLOBAL_UNIT_ASSIGNED_CONTEXT ( ( #244, #243, #26 ) ) REPRESENTATION_CONTEXT ( 'NONE', 'WORKASPACE' ) );
#299 = DIRECTION ( 'NONE',  ( 0.0000000000000000000, 1.000000000000000000, 0.0000000000000000000 ) ) ;
#300 = DIRECTION ( 'NONE',  ( 0.0000000000000000000, 1.000000000000000000, 0.0000000000000000000 ) ) ;
#301 = CYLINDRICAL_SURFACE ( 'NONE', #129, 1.129999999999999449 ) ;
#302 = AXIS2_PLACEMENT_3D ( 'NONE', #108, #234, #303 ) ;
#303 = DIRECTION ( 'NONE',  ( 0.0000000000000000000, 1.000000000000000000, 0.0000000000000000000 ) ) ;
ENDSEC;
END-ISO-10303-21;
