ISO-10303-21;
HEADER;
FILE_DESCRIPTION (( 'STEP AP203' ),
    '1' );
FILE_NAME ('327066.step',
    '2021-12-01T14:04:10',
    ( '' ),
    ( '' ),
    'SwSTEP 2.0',
    'SolidWorks 2019',
    '' );
FILE_SCHEMA (( 'CONFIG_CONTROL_DESIGN' ));
ENDSEC;

DATA;
#1 = DIRECTION ( 'NONE',  ( 0.0000000000000000000, 1.000000000000000000, 0.0000000000000000000 ) ) ;
#2 = DIRECTION ( 'NONE',  ( 0.0000000000000000000, 1.000000000000000000, 0.0000000000000000000 ) ) ;
#3 = DIRECTION ( 'NONE',  ( -3.491481338843133355E-15, 1.224646799147353207E-16, -1.000000000000000000 ) ) ;
#4 = AXIS2_PLACEMENT_3D ( 'NONE', #8, #56, #144 ) ;
#5 = FACE_OUTER_BOUND ( 'NONE', #238, .T. ) ;
#6 = EDGE_CURVE ( 'NONE', #96, #96, #145, .T. ) ;
#7 = FACE_OUTER_BOUND ( 'NONE', #295, .T. ) ;
#8 = CARTESIAN_POINT ( 'NONE',  ( 1.745740669421566678E-13, -6.123233995736766085E-15, 50.00000000000000000 ) ) ;
#9 = CLOSED_SHELL ( 'NONE', ( #85, #72, #17, #291, #24, #296, #179, #90 ) ) ;
#10 = AXIS2_PLACEMENT_3D ( 'NONE', #120, #243, #266 ) ;
#11 = APPROVAL_ROLE ( '' ) ;
#12 = VERTEX_POINT ( 'NONE', #175 ) ;
#13 = ORIENTED_EDGE ( 'NONE', *, *, #109, .F. ) ;
#14 = CARTESIAN_POINT ( 'NONE',  ( 6.284666409917640040E-14, 0.9699999999999977529, 18.00000000000000000 ) ) ;
#15 = CC_DESIGN_DATE_AND_TIME_ASSIGNMENT ( #131, #103, ( #201 ) ) ;
#16 = PLANE ( 'NONE',  #245 ) ;
#17 = ADVANCED_FACE ( 'NONE', ( #255, #212 ), #65, .T. ) ;
#18 = ORIENTED_EDGE ( 'NONE', *, *, #114, .T. ) ;
#19 = APPROVAL_DATE_TIME ( #137, #269 ) ;
#20 = EDGE_LOOP ( 'NONE', ( #258 ) ) ;
#21 = PERSON_AND_ORGANIZATION ( #39, #170 ) ;
#22 = ORIENTED_EDGE ( 'NONE', *, *, #221, .T. ) ;
#23 = CIRCLE ( 'NONE', #101, 0.9699999999999999734 ) ;
#24 = ADVANCED_FACE ( 'NONE', ( #302, #135 ), #194, .T. ) ;
#25 = EDGE_LOOP ( 'NONE', ( #163 ) ) ;
#26 = FACE_OUTER_BOUND ( 'NONE', #187, .T. ) ;
#27 = DIRECTION ( 'NONE',  ( -3.491481338843133355E-15, 1.224646799147353207E-16, -1.000000000000000000 ) ) ;
#28 = TOROIDAL_SURFACE ( 'NONE', #130, 2.970000000000000195, 2.000000000000000888 ) ;
#29 = DIRECTION ( 'NONE',  ( -4.275831445896958607E-31, -1.000000000000000000, -1.224646799147353207E-16 ) ) ;
#30 = DIRECTION ( 'NONE',  ( -3.491481338843133355E-15, 1.224646799147353207E-16, -1.000000000000000000 ) ) ;
#31 = FACE_OUTER_BOUND ( 'NONE', #236, .T. ) ;
#32 = CIRCLE ( 'NONE', #262, 1.499999999999996669 ) ;
#33 = VERTEX_POINT ( 'NONE', #64 ) ;
#34 = EDGE_LOOP ( 'NONE', ( #276 ) ) ;
#35 =( NAMED_UNIT ( * ) PLANE_ANGLE_UNIT ( ) SI_UNIT ( $, .RADIAN. ) );
#36 = VERTEX_POINT ( 'NONE', #82 ) ;
#37 = CC_DESIGN_DATE_AND_TIME_ASSIGNMENT ( #299, #235, ( #140 ) ) ;
#38 = COORDINATED_UNIVERSAL_TIME_OFFSET ( 1, 0, .AHEAD. ) ;
#39 = PERSON ( 'UNSPECIFIED', 'UNSPECIFIED', 'UNSPECIFIED', ('UNSPECIFIED'), ('UNSPECIFIED'), ('UNSPECIFIED') ) ;
#40 = PERSON_AND_ORGANIZATION ( #39, #170 ) ;
#41 = CARTESIAN_POINT ( 'NONE',  ( 7.395221673077214955E-14, -2.593894588570230228E-15, 21.18075669144932860 ) ) ;
#42 = CIRCLE ( 'NONE', #50, 1.200000000000001732 ) ;
#43 = DIRECTION ( 'NONE',  ( -3.491481338843133355E-15, 1.224646799147353207E-16, -1.000000000000000000 ) ) ;
#44 = UNCERTAINTY_MEASURE_WITH_UNIT (LENGTH_MEASURE( 1.000000000000000082E-05 ), #298, 'distance_accuracy_value', 'NONE');
#45 = COORDINATED_UNIVERSAL_TIME_OFFSET ( 1, 0, .AHEAD. ) ;
#46 = EDGE_LOOP ( 'NONE', ( #88 ) ) ;
#47 = DIRECTION ( 'NONE',  ( -4.275831445896958607E-31, -1.000000000000000000, -1.224646799147353207E-16 ) ) ;
#48 = AXIS2_PLACEMENT_3D ( 'NONE', #141, #87, #2 ) ;
#49 = ORIENTED_EDGE ( 'NONE', *, *, #109, .T. ) ;
#50 = AXIS2_PLACEMENT_3D ( 'NONE', #191, #167, #149 ) ;
#51 = DIRECTION ( 'NONE',  ( 4.275831445896958607E-31, 1.000000000000000000, 1.224646799147353207E-16 ) ) ;
#52 = VERTEX_POINT ( 'NONE', #240 ) ;
#53 = APPLICATION_CONTEXT ( 'configuration controlled 3d designs of mechanical parts and assemblies' ) ;
#54 = DIRECTION ( 'NONE',  ( 3.491481338843133355E-15, -1.224646799147353207E-16, 1.000000000000000000 ) ) ;
#55 = CIRCLE ( 'NONE', #68, 1.500000000000001554 ) ;
#56 = DIRECTION ( 'NONE',  ( -3.491481338843133355E-15, 1.224646799147353207E-16, -1.000000000000000000 ) ) ;
#57 = DIRECTION ( 'NONE',  ( 3.439160614977210071E-31, 1.000000000000000000, 1.452056481007373419E-16 ) ) ;
#58 = CIRCLE ( 'NONE', #203, 1.119999999999998996 ) ;
#59 = CALENDAR_DATE ( 2021, 1, 12 ) ;
#60 = APPROVAL_DATE_TIME ( #247, #155 ) ;
#61 = ORIENTED_EDGE ( 'NONE', *, *, #6, .T. ) ;
#62 = EDGE_CURVE ( 'NONE', #52, #52, #32, .T. ) ;
#63 = CONICAL_SURFACE ( 'NONE', #83, 1.119999999999998996, 0.5235987755982927094 ) ;
#64 = CARTESIAN_POINT ( 'NONE',  ( -8.552847072295026068E-47, 0.9756624327025946730, 0.0000000000000000000 ) ) ;
#65 = CYLINDRICAL_SURFACE ( 'NONE', #218, 0.9699999999999993072 ) ;
#66 = CC_DESIGN_PERSON_AND_ORGANIZATION_ASSIGNMENT ( #21, #89, ( #79 ) ) ;
#67 = CARTESIAN_POINT ( 'NONE',  ( 1.735266225405037467E-13, -6.086494591762345225E-15, 49.70000000000000284 ) ) ;
#68 = AXIS2_PLACEMENT_3D ( 'NONE', #67, #159, #169 ) ;
#69 = ORIENTED_EDGE ( 'NONE', *, *, #166, .T. ) ;
#70 = PERSON_AND_ORGANIZATION ( #39, #170 ) ;
#71 = FACE_OUTER_BOUND ( 'NONE', #283, .T. ) ;
#72 = ADVANCED_FACE ( 'NONE', ( #71, #300 ), #189, .T. ) ;
#73 = EDGE_LOOP ( 'NONE', ( #213 ) ) ;
#74 = CC_DESIGN_APPROVAL ( #155, ( #79 ) ) ;
#75 = CYLINDRICAL_SURFACE ( 'NONE', #199, 1.119999999999999440 ) ;
#76 = CARTESIAN_POINT ( 'NONE',  ( 2.883896417162832445E-14, 0.9699999999999977529, 8.259807621135337286 ) ) ;
#77 = DIRECTION ( 'NONE',  ( 0.0000000000000000000, 1.000000000000000000, 0.0000000000000000000 ) ) ;
#78 = FACE_OUTER_BOUND ( 'NONE', #73, .T. ) ;
#79 = PRODUCT_DEFINITION_FORMATION_WITH_SPECIFIED_SOURCE ( 'ANY', '', #97, .NOT_KNOWN. ) ;
#80 = CARTESIAN_POINT ( 'NONE',  ( -4.171768110330079855E-31, 1.463259278021382904E-32, -1.194841875257552548E-16 ) ) ;
#81 = DATE_AND_TIME ( #271, #115 ) ;
#82 = CARTESIAN_POINT ( 'NONE',  ( 2.793185071074506684E-14, 1.119999999999998996, 8.000000000000000000 ) ) ;
#83 = AXIS2_PLACEMENT_3D ( 'NONE', #121, #242, #287 ) ;
#84 = CARTESIAN_POINT ( 'NONE',  ( 1.735266225405037467E-13, 1.499999999999995559, 49.70000000000000284 ) ) ;
#85 = ADVANCED_FACE ( 'NONE', ( #162 ), #16, .F. ) ;
#86 =( NAMED_UNIT ( * ) SI_UNIT ( $, .STERADIAN. ) SOLID_ANGLE_UNIT ( ) );
#87 = DIRECTION ( 'NONE',  ( -3.491481338843133355E-15, 1.224646799147353207E-16, -1.000000000000000000 ) ) ;
#88 = ORIENTED_EDGE ( 'NONE', *, *, #62, .F. ) ;
#89 = PERSON_AND_ORGANIZATION_ROLE ( 'design_supplier' ) ;
#90 = ADVANCED_FACE ( 'NONE', ( #205 ), #93, .F. ) ;
#91 = DIRECTION ( 'NONE',  ( 3.491481338843133355E-15, -1.224646799147353207E-16, 1.000000000000000000 ) ) ;
#92 = PERSON_AND_ORGANIZATION_ROLE ( 'classification_officer' ) ;
#93 = PLANE ( 'NONE',  #95 ) ;
#94 = CARTESIAN_POINT ( 'NONE',  ( -2.085884055165039927E-31, 7.316296390106914519E-33, -5.974209376287762738E-17 ) ) ;
#95 = AXIS2_PLACEMENT_3D ( 'NONE', #182, #229, #281 ) ;
#96 = VERTEX_POINT ( 'NONE', #76 ) ;
#97 = PRODUCT ( '327066', '327066', '', ( #102 ) ) ;
#98 = PLANE ( 'NONE',  #160 ) ;
#99 = CARTESIAN_POINT ( 'NONE',  ( 2.793185071074506684E-14, -9.797174393178825657E-16, 8.000000000000000000 ) ) ;
#100 = CARTESIAN_POINT ( 'NONE',  ( 0.0000000000000000000, 0.0000000000000000000, 0.0000000000000000000 ) ) ;
#101 = AXIS2_PLACEMENT_3D ( 'NONE', #290, #244, #77 ) ;
#102 = MECHANICAL_CONTEXT ( 'NONE', #53, 'mechanical' ) ;
#103 = DATE_TIME_ROLE ( 'creation_date' ) ;
#104 = PERSON_AND_ORGANIZATION ( #39, #170 ) ;
#105 = AXIS2_PLACEMENT_3D ( 'NONE', #143, #239, #118 ) ;
#106 = VERTEX_POINT ( 'NONE', #277 ) ;
#107 = CARTESIAN_POINT ( 'NONE',  ( 1.745740669421566678E-13, 1.199999999999995515, 50.00000000000000000 ) ) ;
#108 = COORDINATED_UNIVERSAL_TIME_OFFSET ( 1, 0, .AHEAD. ) ;
#109 = EDGE_CURVE ( 'NONE', #198, #198, #55, .T. ) ;
#110 = LOCAL_TIME ( 15, 4, 10.00000000000000000, #108 ) ;
#111 = CARTESIAN_POINT ( 'NONE',  ( 2.793185071074506684E-14, 8.398654782906390014E-33, 8.000000000000000000 ) ) ;
#112 = SHAPE_DEFINITION_REPRESENTATION ( #204, #263 ) ;
#113 = ORIENTED_EDGE ( 'NONE', *, *, #206, .T. ) ;
#114 = EDGE_CURVE ( 'NONE', #36, #36, #146, .T. ) ;
#115 = LOCAL_TIME ( 15, 4, 10.00000000000000000, #176 ) ;
#116 = ORIENTED_EDGE ( 'NONE', *, *, #259, .T. ) ;
#117 = ORIENTED_EDGE ( 'NONE', *, *, #166, .F. ) ;
#118 = DIRECTION ( 'NONE',  ( 4.275831445896958607E-31, 1.000000000000000000, 1.224646799147353454E-16 ) ) ;
#119 = CC_DESIGN_PERSON_AND_ORGANIZATION_ASSIGNMENT ( #128, #186, ( #79 ) ) ;
#120 = CARTESIAN_POINT ( 'NONE',  ( 2.793185071074506684E-14, -9.797174393178825657E-16, 8.000000000000000000 ) ) ;
#121 = CARTESIAN_POINT ( 'NONE',  ( 8.728703347107829444E-16, -3.061616997868381785E-17, 0.2499999999999998890 ) ) ;
#122 = APPROVAL ( #251, 'UNSPECIFIED' ) ;
#123 = FACE_OUTER_BOUND ( 'NONE', #177, .T. ) ;
#124 = PLANE ( 'NONE',  #184 ) ;
#125 = APPROVAL_PERSON_ORGANIZATION ( #249, #122, #11 ) ;
#126 = ORIENTED_EDGE ( 'NONE', *, *, #114, .F. ) ;
#127 = EDGE_LOOP ( 'NONE', ( #22 ) ) ;
#128 = PERSON_AND_ORGANIZATION ( #39, #170 ) ;
#129 = CLOSED_SHELL ( 'NONE', ( #234, #136, #279, #211 ) ) ;
#130 = AXIS2_PLACEMENT_3D ( 'NONE', #188, #217, #51 ) ;
#131 = DATE_AND_TIME ( #246, #272 ) ;
#132 = DIRECTION ( 'NONE',  ( 0.0000000000000000000, 0.0000000000000000000, 1.000000000000000000 ) ) ;
#133 = MANIFOLD_SOLID_BREP ( 'Corps-Déplacer/Copier1[1]', #9 ) ;
#134 = DIRECTION ( 'NONE',  ( -3.491481338843133355E-15, 1.224646799147353207E-16, -1.000000000000000000 ) ) ;
#135 = FACE_OUTER_BOUND ( 'NONE', #20, .T. ) ;
#136 = ADVANCED_FACE ( 'NONE', ( #289, #193 ), #63, .T. ) ;
#137 = DATE_AND_TIME ( #257, #110 ) ;
#138 = EDGE_LOOP ( 'NONE', ( #117 ) ) ;
#139 = DIRECTION ( 'NONE',  ( 0.0000000000000000000, -1.000000000000000000, 0.0000000000000000000 ) ) ;
#140 = SECURITY_CLASSIFICATION ( '', '', #282 ) ;
#141 = CARTESIAN_POINT ( 'NONE',  ( 2.883896417162832445E-14, -1.011534696479630343E-15, 8.259807621135337286 ) ) ;
#142 = APPLICATION_CONTEXT ( 'configuration controlled 3d designs of mechanical parts and assemblies' ) ;
#143 = CARTESIAN_POINT ( 'NONE',  ( 0.0000000000000000000, 0.0000000000000000000, 0.0000000000000000000 ) ) ;
#144 = DIRECTION ( 'NONE',  ( 0.0000000000000000000, 1.000000000000000000, 0.0000000000000000000 ) ) ;
#145 = CIRCLE ( 'NONE', #48, 0.9699999999999987521 ) ;
#146 = CIRCLE ( 'NONE', #10, 1.120000000000000107 ) ;
#147 = CARTESIAN_POINT ( 'NONE',  ( 6.405924284287275164E-14, -2.246895775456749140E-15, 18.34729635533384595 ) ) ;
#148 = CC_DESIGN_PERSON_AND_ORGANIZATION_ASSIGNMENT ( #40, #92, ( #140 ) ) ;
#149 = DIRECTION ( 'NONE',  ( 0.0000000000000000000, 1.000000000000000000, 0.0000000000000000000 ) ) ;
#150 = PERSON_AND_ORGANIZATION ( #39, #170 ) ;
#151 = PERSON_AND_ORGANIZATION_ROLE ( 'design_owner' ) ;
#152 = PRODUCT_RELATED_PRODUCT_CATEGORY ( 'detail', '', ( #97 ) ) ;
#153 = PERSON_AND_ORGANIZATION_ROLE ( 'creator' ) ;
#154 = APPROVAL_PERSON_ORGANIZATION ( #70, #269, #210 ) ;
#155 = APPROVAL ( #202, 'UNSPECIFIED' ) ;
#156 = VERTEX_POINT ( 'NONE', #14 ) ;
#157 = DIRECTION ( 'NONE',  ( 4.275831445896958607E-31, 1.000000000000000000, 1.224646799147353207E-16 ) ) ;
#158 = EDGE_CURVE ( 'NONE', #106, #106, #58, .T. ) ;
#159 = DIRECTION ( 'NONE',  ( -3.491481338843133355E-15, 1.224646799147353207E-16, -1.000000000000000000 ) ) ;
#160 = AXIS2_PLACEMENT_3D ( 'NONE', #171, #293, #29 ) ;
#161 = EDGE_LOOP ( 'NONE', ( #18 ) ) ;
#162 = FACE_OUTER_BOUND ( 'NONE', #161, .T. ) ;
#163 = ORIENTED_EDGE ( 'NONE', *, *, #206, .F. ) ;
#164 = AXIS2_PLACEMENT_3D ( 'NONE', #254, #91, #139 ) ;
#165 = CC_DESIGN_SECURITY_CLASSIFICATION ( #140, ( #79 ) ) ;
#166 = EDGE_CURVE ( 'NONE', #12, #12, #256, .T. ) ;
#167 = DIRECTION ( 'NONE',  ( -3.491481338843133355E-15, 1.224646799147353207E-16, -1.000000000000000000 ) ) ;
#168 = FACE_OUTER_BOUND ( 'NONE', #261, .T. ) ;
#169 = DIRECTION ( 'NONE',  ( 0.0000000000000000000, 1.000000000000000000, 0.0000000000000000000 ) ) ;
#170 = ORGANIZATION ( 'UNSPECIFIED', 'UNSPECIFIED', '' ) ;
#171 = CARTESIAN_POINT ( 'NONE',  ( 2.793185071074506684E-14, 8.398654782906390014E-33, 8.000000000000000000 ) ) ;
#172 = CARTESIAN_POINT ( 'NONE',  ( 8.728703347107829444E-16, -3.061616997868381785E-17, 0.2499999999999998890 ) ) ;
#173 = APPROVAL_DATE_TIME ( #81, #122 ) ;
#174 = EDGE_CURVE ( 'NONE', #275, #275, #241, .T. ) ;
#175 = CARTESIAN_POINT ( 'NONE',  ( 6.405924284287275164E-14, 1.000384493975577049, 18.34729635533384595 ) ) ;
#176 = COORDINATED_UNIVERSAL_TIME_OFFSET ( 1, 0, .AHEAD. ) ;
#177 = EDGE_LOOP ( 'NONE', ( #285 ) ) ;
#178 = PERSON_AND_ORGANIZATION ( #39, #170 ) ;
#179 = ADVANCED_FACE ( 'NONE', ( #7, #214 ), #226, .T. ) ;
#180 = LOCAL_TIME ( 15, 4, 10.00000000000000000, #45 ) ;
#181 = ORIENTED_EDGE ( 'NONE', *, *, #6, .F. ) ;
#182 = CARTESIAN_POINT ( 'NONE',  ( 1.745740669421566678E-13, 8.998558695971067645E-33, 50.00000000000000000 ) ) ;
#183 = ORIENTED_EDGE ( 'NONE', *, *, #259, .F. ) ;
#184 = AXIS2_PLACEMENT_3D ( 'NONE', #94, #54, #192 ) ;
#185 = DIRECTION ( 'NONE',  ( 0.0000000000000000000, 1.000000000000000000, 0.0000000000000000000 ) ) ;
#186 = PERSON_AND_ORGANIZATION_ROLE ( 'creator' ) ;
#187 = EDGE_LOOP ( 'NONE', ( #69 ) ) ;
#188 = CARTESIAN_POINT ( 'NONE',  ( 6.284666409917640040E-14, -2.168404344971008868E-15, 18.00000000000000000 ) ) ;
#189 = CONICAL_SURFACE ( 'NONE', #227, 0.9699999999999987521, 0.5235987755982943748 ) ;
#190 = APPROVAL_PERSON_ORGANIZATION ( #178, #155, #294 ) ;
#191 = CARTESIAN_POINT ( 'NONE',  ( 1.745740669421566678E-13, -6.123233995736766085E-15, 50.00000000000000000 ) ) ;
#192 = DIRECTION ( 'NONE',  ( -4.275831445896958607E-31, -1.000000000000000000, -1.224646799147353207E-16 ) ) ;
#193 = FACE_OUTER_BOUND ( 'NONE', #34, .T. ) ;
#194 = CONICAL_SURFACE ( 'NONE', #164, 1.499999999999996669, 0.1745329251994268138 ) ;
#195 = CC_DESIGN_APPROVAL ( #269, ( #140 ) ) ;
#196 = DIRECTION ( 'NONE',  ( -3.491481338843133355E-15, 1.224646799147353207E-16, -1.000000000000000000 ) ) ;
#197 = DIRECTION ( 'NONE',  ( 1.000000000000000000, 0.0000000000000000000, 0.0000000000000000000 ) ) ;
#198 = VERTEX_POINT ( 'NONE', #84 ) ;
#199 = AXIS2_PLACEMENT_3D ( 'NONE', #100, #27, #220 ) ;
#200 = CARTESIAN_POINT ( 'NONE',  ( 2.793185071074506684E-14, 1.119999999999998996, 8.000000000000000000 ) ) ;
#201 = PRODUCT_DEFINITION ( 'UNKNOWN', '', #79, #230 ) ;
#202 = APPROVAL_STATUS ( 'not_yet_approved' ) ;
#203 = AXIS2_PLACEMENT_3D ( 'NONE', #172, #196, #57 ) ;
#204 = PRODUCT_DEFINITION_SHAPE ( 'NONE', 'NONE',  #201 ) ;
#205 = FACE_OUTER_BOUND ( 'NONE', #250, .T. ) ;
#206 = EDGE_CURVE ( 'NONE', #156, #156, #23, .T. ) ;
#207 = EDGE_LOOP ( 'NONE', ( #181 ) ) ;
#208 = DIRECTION ( 'NONE',  ( -3.491481338843133355E-15, 1.224646799147353207E-16, -1.000000000000000000 ) ) ;
#209 = CC_DESIGN_APPROVAL ( #122, ( #201 ) ) ;
#210 = APPROVAL_ROLE ( '' ) ;
#211 = ADVANCED_FACE ( 'NONE', ( #78 ), #98, .T. ) ;
#212 = FACE_OUTER_BOUND ( 'NONE', #232, .T. ) ;
#213 = ORIENTED_EDGE ( 'NONE', *, *, #174, .F. ) ;
#214 = FACE_BOUND ( 'NONE', #127, .T. ) ;
#215 = DIRECTION ( 'NONE',  ( 0.0000000000000000000, 1.000000000000000000, 0.0000000000000000000 ) ) ;
#216 = DIRECTION ( 'NONE',  ( -3.491481338843133355E-15, 1.224646799147353207E-16, -1.000000000000000000 ) ) ;
#217 = DIRECTION ( 'NONE',  ( -3.491481338843133355E-15, 1.224646799147353207E-16, -1.000000000000000000 ) ) ;
#218 = AXIS2_PLACEMENT_3D ( 'NONE', #280, #208, #157 ) ;
#219 = AXIS2_PLACEMENT_3D ( 'NONE', #80, #3, #270 ) ;
#220 = DIRECTION ( 'NONE',  ( 4.275831445896958607E-31, 1.000000000000000000, 1.224646799147353207E-16 ) ) ;
#221 = EDGE_CURVE ( 'NONE', #225, #225, #42, .T. ) ;
#222 = CARTESIAN_POINT ( 'NONE',  ( 0.0000000000000000000, 0.0000000000000000000, 0.0000000000000000000 ) ) ;
#223 = EDGE_LOOP ( 'NONE', ( #183 ) ) ;
#224 = EDGE_LOOP ( 'NONE', ( #61 ) ) ;
#225 = VERTEX_POINT ( 'NONE', #107 ) ;
#226 = CONICAL_SURFACE ( 'NONE', #4, 1.200000000000001732, 0.7853981633974453924 ) ;
#227 = AXIS2_PLACEMENT_3D ( 'NONE', #228, #43, #1 ) ;
#228 = CARTESIAN_POINT ( 'NONE',  ( 2.883896417162832445E-14, -1.011534696479630343E-15, 8.259807621135337286 ) ) ;
#229 = DIRECTION ( 'NONE',  ( -3.491481338843133355E-15, 1.224646799147353207E-16, -1.000000000000000000 ) ) ;
#230 = DESIGN_CONTEXT ( 'detailed design', #142, 'design' ) ;
#231 = CALENDAR_DATE ( 2021, 1, 12 ) ;
#232 = EDGE_LOOP ( 'NONE', ( #113 ) ) ;
#233 = MANIFOLD_SOLID_BREP ( 'Corps-Déplacer/Copier1[2]', #129 ) ;
#234 = ADVANCED_FACE ( 'NONE', ( #31 ), #124, .F. ) ;
#235 = DATE_TIME_ROLE ( 'classification_date' ) ;
#236 = EDGE_LOOP ( 'NONE', ( #116 ) ) ;
#237 = AXIS2_PLACEMENT_3D ( 'NONE', #147, #30, #215 ) ;
#238 = EDGE_LOOP ( 'NONE', ( #49 ) ) ;
#239 = DIRECTION ( 'NONE',  ( -3.491481338843133355E-15, 1.224646799147353207E-16, -1.000000000000000000 ) ) ;
#240 = CARTESIAN_POINT ( 'NONE',  ( 7.395221673077214955E-14, 1.499999999999994005, 21.18075669144932860 ) ) ;
#241 = CIRCLE ( 'NONE', #267, 1.120000000000000107 ) ;
#242 = DIRECTION ( 'NONE',  ( 3.491481338843133355E-15, -1.224646799147353207E-16, 1.000000000000000000 ) ) ;
#243 = DIRECTION ( 'NONE',  ( -3.491481338843133355E-15, 1.224646799147353207E-16, -1.000000000000000000 ) ) ;
#244 = DIRECTION ( 'NONE',  ( -3.491481338843133355E-15, 1.224646799147353207E-16, -1.000000000000000000 ) ) ;
#245 = AXIS2_PLACEMENT_3D ( 'NONE', #111, #260, #47 ) ;
#246 = CALENDAR_DATE ( 2021, 1, 12 ) ;
#247 = DATE_AND_TIME ( #59, #252 ) ;
#248 = CC_DESIGN_PERSON_AND_ORGANIZATION_ASSIGNMENT ( #104, #151, ( #97 ) ) ;
#249 = PERSON_AND_ORGANIZATION ( #39, #170 ) ;
#250 = EDGE_LOOP ( 'NONE', ( #286 ) ) ;
#251 = APPROVAL_STATUS ( 'not_yet_approved' ) ;
#252 = LOCAL_TIME ( 15, 4, 10.00000000000000000, #273 ) ;
#253 = APPROVAL_STATUS ( 'not_yet_approved' ) ;
#254 = CARTESIAN_POINT ( 'NONE',  ( 7.395221673077214955E-14, -2.593894588570230228E-15, 21.18075669144932860 ) ) ;
#255 = FACE_OUTER_BOUND ( 'NONE', #207, .T. ) ;
#256 = CIRCLE ( 'NONE', #237, 1.000384493975579270 ) ;
#257 = CALENDAR_DATE ( 2021, 1, 12 ) ;
#258 = ORIENTED_EDGE ( 'NONE', *, *, #62, .T. ) ;
#259 = EDGE_CURVE ( 'NONE', #33, #33, #284, .T. ) ;
#260 = DIRECTION ( 'NONE',  ( 3.491481338843133355E-15, -1.224646799147353207E-16, 1.000000000000000000 ) ) ;
#261 = EDGE_LOOP ( 'NONE', ( #301 ) ) ;
#262 = AXIS2_PLACEMENT_3D ( 'NONE', #41, #134, #185 ) ;
#263 = ADVANCED_BREP_SHAPE_REPRESENTATION ( '327066', ( #133, #233, #292 ), #303 ) ;
#264 = CYLINDRICAL_SURFACE ( 'NONE', #105, 1.499999999999999112 ) ;
#265 = FACE_OUTER_BOUND ( 'NONE', #46, .T. ) ;
#266 = DIRECTION ( 'NONE',  ( 0.0000000000000000000, 1.000000000000000000, 0.0000000000000000000 ) ) ;
#267 = AXIS2_PLACEMENT_3D ( 'NONE', #99, #216, #288 ) ;
#268 = FACE_OUTER_BOUND ( 'NONE', #25, .T. ) ;
#269 = APPROVAL ( #253, 'UNSPECIFIED' ) ;
#270 = DIRECTION ( 'NONE',  ( 4.275831445896957731E-31, 1.000000000000000000, 1.224646799147353207E-16 ) ) ;
#271 = CALENDAR_DATE ( 2021, 1, 12 ) ;
#272 = LOCAL_TIME ( 15, 4, 10.00000000000000000, #38 ) ;
#273 = COORDINATED_UNIVERSAL_TIME_OFFSET ( 1, 0, .AHEAD. ) ;
#274 = CC_DESIGN_PERSON_AND_ORGANIZATION_ASSIGNMENT ( #150, #153, ( #201 ) ) ;
#275 = VERTEX_POINT ( 'NONE', #200 ) ;
#276 = ORIENTED_EDGE ( 'NONE', *, *, #158, .T. ) ;
#277 = CARTESIAN_POINT ( 'NONE',  ( 8.728703347107833388E-16, 1.119999999999998996, 0.2500000000000000555 ) ) ;
#278 = APPLICATION_PROTOCOL_DEFINITION ( 'international standard', 'config_control_design', 1994, #53 ) ;
#279 = ADVANCED_FACE ( 'NONE', ( #168, #123 ), #75, .T. ) ;
#280 = CARTESIAN_POINT ( 'NONE',  ( 0.0000000000000000000, 0.0000000000000000000, 0.0000000000000000000 ) ) ;
#281 = DIRECTION ( 'NONE',  ( 4.275831445896958607E-31, 1.000000000000000000, 1.224646799147353207E-16 ) ) ;
#282 = SECURITY_CLASSIFICATION_LEVEL ( 'unclassified' ) ;
#283 = EDGE_LOOP ( 'NONE', ( #126 ) ) ;
#284 = CIRCLE ( 'NONE', #219, 0.9756624327025946730 ) ;
#285 = ORIENTED_EDGE ( 'NONE', *, *, #174, .T. ) ;
#286 = ORIENTED_EDGE ( 'NONE', *, *, #221, .F. ) ;
#287 = DIRECTION ( 'NONE',  ( -3.439160614977210071E-31, -1.000000000000000000, -1.452056481007373419E-16 ) ) ;
#288 = DIRECTION ( 'NONE',  ( 0.0000000000000000000, 1.000000000000000000, 0.0000000000000000000 ) ) ;
#289 = FACE_BOUND ( 'NONE', #223, .T. ) ;
#290 = CARTESIAN_POINT ( 'NONE',  ( 6.284666409917640040E-14, -2.204364238465235428E-15, 18.00000000000000000 ) ) ;
#291 = ADVANCED_FACE ( 'NONE', ( #268, #26 ), #28, .F. ) ;
#292 = AXIS2_PLACEMENT_3D ( 'NONE', #222, #132, #197 ) ;
#293 = DIRECTION ( 'NONE',  ( 3.491481338843133355E-15, -1.224646799147353207E-16, 1.000000000000000000 ) ) ;
#294 = APPROVAL_ROLE ( '' ) ;
#295 = EDGE_LOOP ( 'NONE', ( #13 ) ) ;
#296 = ADVANCED_FACE ( 'NONE', ( #265, #5 ), #264, .T. ) ;
#297 = APPLICATION_PROTOCOL_DEFINITION ( 'international standard', 'config_control_design', 1994, #142 ) ;
#298 =( LENGTH_UNIT ( ) NAMED_UNIT ( * ) SI_UNIT ( .MILLI., .METRE. ) );
#299 = DATE_AND_TIME ( #231, #180 ) ;
#300 = FACE_BOUND ( 'NONE', #224, .T. ) ;
#301 = ORIENTED_EDGE ( 'NONE', *, *, #158, .F. ) ;
#302 = FACE_BOUND ( 'NONE', #138, .T. ) ;
#303 =( GEOMETRIC_REPRESENTATION_CONTEXT ( 3 ) GLOBAL_UNCERTAINTY_ASSIGNED_CONTEXT ( ( #44 ) ) GLOBAL_UNIT_ASSIGNED_CONTEXT ( ( #298, #35, #86 ) ) REPRESENTATION_CONTEXT ( 'NONE', 'WORKASPACE' ) );
ENDSEC;
END-ISO-10303-21;
