ISO-10303-21;
HEADER;
FILE_DESCRIPTION (( 'STEP AP203' ),
    '1' );
FILE_NAME ('327065.step',
    '2021-12-01T14:04:09',
    ( '' ),
    ( '' ),
    'SwSTEP 2.0',
    'SolidWorks 2019',
    '' );
FILE_SCHEMA (( 'CONFIG_CONTROL_DESIGN' ));
ENDSEC;

DATA;
#1 = COORDINATED_UNIVERSAL_TIME_OFFSET ( 1, 0, .AHEAD. ) ;
#2 = EDGE_LOOP ( 'NONE', ( #73 ) ) ;
#3 = DIRECTION ( 'NONE',  ( 1.000000000000000000, 0.0000000000000000000, 0.0000000000000000000 ) ) ;
#4 = COORDINATED_UNIVERSAL_TIME_OFFSET ( 1, 0, .AHEAD. ) ;
#5 = AXIS2_PLACEMENT_3D ( 'NONE', #57, #14, #202 ) ;
#6 = EDGE_LOOP ( 'NONE', ( #193 ) ) ;
#7 = ADVANCED_FACE ( 'NONE', ( #169, #101 ), #256, .T. ) ;
#8 = ORIENTED_EDGE ( 'NONE', *, *, #142, .T. ) ;
#9 = ORIENTED_EDGE ( 'NONE', *, *, #28, .T. ) ;
#10 = DIRECTION ( 'NONE',  ( -4.275831445896958607E-31, -1.000000000000000000, -1.224646799147353207E-16 ) ) ;
#11 = CC_DESIGN_PERSON_AND_ORGANIZATION_ASSIGNMENT ( #94, #146, ( #22 ) ) ;
#12 = FACE_OUTER_BOUND ( 'NONE', #204, .T. ) ;
#13 = CC_DESIGN_SECURITY_CLASSIFICATION ( #221, ( #22 ) ) ;
#14 = DIRECTION ( 'NONE',  ( -3.491481338843133355E-15, 1.224646799147353207E-16, -1.000000000000000000 ) ) ;
#15 = DIRECTION ( 'NONE',  ( -3.491481338843133355E-15, 1.224646799147353207E-16, -1.000000000000000000 ) ) ;
#16 = CARTESIAN_POINT ( 'NONE',  ( 7.405122260397473388E-14, -2.597367247133959017E-15, 21.20911310054741605 ) ) ;
#17 = AXIS2_PLACEMENT_3D ( 'NONE', #135, #178, #10 ) ;
#18 = VERTEX_POINT ( 'NONE', #298 ) ;
#19 = ADVANCED_FACE ( 'NONE', ( #172, #45 ), #24, .T. ) ;
#20 = CARTESIAN_POINT ( 'NONE',  ( 1.735266225405037467E-13, 1.499999999999995559, 49.70000000000000284 ) ) ;
#21 = DIRECTION ( 'NONE',  ( -3.491481338843133355E-15, 1.224646799147353207E-16, -1.000000000000000000 ) ) ;
#22 = PRODUCT_DEFINITION_FORMATION_WITH_SPECIFIED_SOURCE ( 'ANY', '', #106, .NOT_KNOWN. ) ;
#23 = DIRECTION ( 'NONE',  ( 0.0000000000000000000, 0.0000000000000000000, 1.000000000000000000 ) ) ;
#24 = CYLINDRICAL_SURFACE ( 'NONE', #166, 1.499999999999999112 ) ;
#25 = CARTESIAN_POINT ( 'NONE',  ( 1.745740669421566678E-13, 1.199999999999995515, 50.00000000000000000 ) ) ;
#26 = PERSON_AND_ORGANIZATION_ROLE ( 'classification_officer' ) ;
#27 = ORIENTED_EDGE ( 'NONE', *, *, #86, .F. ) ;
#28 = EDGE_CURVE ( 'NONE', #18, #18, #281, .T. ) ;
#29 = ORIENTED_EDGE ( 'NONE', *, *, #287, .F. ) ;
#30 = APPLICATION_CONTEXT ( 'configuration controlled 3d designs of mechanical parts and assemblies' ) ;
#31 = DIRECTION ( 'NONE',  ( 3.491481338843133355E-15, -1.224646799147353207E-16, 1.000000000000000000 ) ) ;
#32 = AXIS2_PLACEMENT_3D ( 'NONE', #47, #70, #141 ) ;
#33 = ADVANCED_FACE ( 'NONE', ( #213, #288 ), #254, .T. ) ;
#34 = DIRECTION ( 'NONE',  ( -3.491481338843133355E-15, 1.224646799147353207E-16, -1.000000000000000000 ) ) ;
#35 = FACE_OUTER_BOUND ( 'NONE', #76, .T. ) ;
#36 = FACE_OUTER_BOUND ( 'NONE', #51, .T. ) ;
#37 = ORGANIZATION ( 'UNSPECIFIED', 'UNSPECIFIED', '' ) ;
#38 = DIRECTION ( 'NONE',  ( 0.0000000000000000000, 1.000000000000000000, 0.0000000000000000000 ) ) ;
#39 = ADVANCED_FACE ( 'NONE', ( #171 ), #263, .F. ) ;
#40 = DIRECTION ( 'NONE',  ( 3.454582859887422029E-31, 1.000000000000000000, 1.458567945047765211E-16 ) ) ;
#41 = CARTESIAN_POINT ( 'NONE',  ( 8.552847072295026068E-47, 0.9706624327025944465, 0.0000000000000000000 ) ) ;
#42 = AXIS2_PLACEMENT_3D ( 'NONE', #147, #21, #158 ) ;
#43 = DESIGN_CONTEXT ( 'detailed design', #30, 'design' ) ;
#44 = VERTEX_POINT ( 'NONE', #181 ) ;
#45 = FACE_OUTER_BOUND ( 'NONE', #125, .T. ) ;
#46 = PERSON_AND_ORGANIZATION ( #163, #37 ) ;
#47 = CARTESIAN_POINT ( 'NONE',  ( 0.0000000000000000000, 0.0000000000000000000, 0.0000000000000000000 ) ) ;
#48 = CIRCLE ( 'NONE', #124, 1.500000000000001554 ) ;
#49 = DIRECTION ( 'NONE',  ( 0.0000000000000000000, 1.000000000000000000, 0.0000000000000000000 ) ) ;
#50 = LOCAL_TIME ( 15, 4, 9.000000000000000000, #1 ) ;
#51 = EDGE_LOOP ( 'NONE', ( #63 ) ) ;
#52 = CALENDAR_DATE ( 2021, 1, 12 ) ;
#53 = EDGE_LOOP ( 'NONE', ( #196 ) ) ;
#54 = CARTESIAN_POINT ( 'NONE',  ( 6.284666409917640040E-14, -2.168404344971008868E-15, 18.00000000000000000 ) ) ;
#55 = AXIS2_PLACEMENT_3D ( 'NONE', #61, #293, #248 ) ;
#56 = CARTESIAN_POINT ( 'NONE',  ( 7.405122260397473388E-14, -2.597367247133959017E-15, 21.20911310054741605 ) ) ;
#57 = CARTESIAN_POINT ( 'NONE',  ( -4.150388953100593389E-31, 1.455760479108073014E-32, -1.188718641261815425E-16 ) ) ;
#58 = DIRECTION ( 'NONE',  ( 0.0000000000000000000, 1.000000000000000000, 0.0000000000000000000 ) ) ;
#59 = ADVANCED_FACE ( 'NONE', ( #280, #168 ), #296, .T. ) ;
#60 = CIRCLE ( 'NONE', #220, 0.9953844939755811527 ) ;
#61 = CARTESIAN_POINT ( 'NONE',  ( 1.745740669421566678E-13, -6.123233995736766085E-15, 50.00000000000000000 ) ) ;
#62 = VERTEX_POINT ( 'NONE', #20 ) ;
#63 = ORIENTED_EDGE ( 'NONE', *, *, #282, .F. ) ;
#64 = CARTESIAN_POINT ( 'NONE',  ( 6.405924284287275164E-14, 0.9953844939755789323, 18.34729635533384595 ) ) ;
#65 = CARTESIAN_POINT ( 'NONE',  ( 8.728703347107833388E-16, 1.114999999999998881, 0.2500000000000000555 ) ) ;
#66 = EDGE_LOOP ( 'NONE', ( #29 ) ) ;
#67 = DATE_TIME_ROLE ( 'classification_date' ) ;
#68 = ADVANCED_FACE ( 'NONE', ( #266, #224 ), #241, .T. ) ;
#69 = DATE_AND_TIME ( #284, #198 ) ;
#70 = DIRECTION ( 'NONE',  ( -3.491481338843133355E-15, 1.224646799147353207E-16, -1.000000000000000000 ) ) ;
#71 = PERSON_AND_ORGANIZATION ( #163, #37 ) ;
#72 = CC_DESIGN_APPROVAL ( #301, ( #216 ) ) ;
#73 = ORIENTED_EDGE ( 'NONE', *, *, #116, .T. ) ;
#74 = CARTESIAN_POINT ( 'NONE',  ( 8.728703347107829444E-16, -3.061616997868381785E-17, 0.2499999999999998890 ) ) ;
#75 = EDGE_CURVE ( 'NONE', #252, #252, #191, .T. ) ;
#76 = EDGE_LOOP ( 'NONE', ( #286 ) ) ;
#77 = DIRECTION ( 'NONE',  ( 0.0000000000000000000, -1.000000000000000000, 0.0000000000000000000 ) ) ;
#78 = CIRCLE ( 'NONE', #5, 0.9706624327025944465 ) ;
#79 = DIRECTION ( 'NONE',  ( -3.491481338843133355E-15, 1.224646799147353207E-16, -1.000000000000000000 ) ) ;
#80 = APPROVAL ( #234, 'UNSPECIFIED' ) ;
#81 = FACE_OUTER_BOUND ( 'NONE', #112, .T. ) ;
#82 = CARTESIAN_POINT ( 'NONE',  ( 0.0000000000000000000, 0.0000000000000000000, 0.0000000000000000000 ) ) ;
#83 = CLOSED_SHELL ( 'NONE', ( #107, #276, #149, #253, #68, #19, #59, #232 ) ) ;
#84 = AXIS2_PLACEMENT_3D ( 'NONE', #56, #242, #77 ) ;
#85 = FACE_OUTER_BOUND ( 'NONE', #98, .T. ) ;
#86 = EDGE_CURVE ( 'NONE', #92, #92, #95, .T. ) ;
#87 = VERTEX_POINT ( 'NONE', #230 ) ;
#88 =( NAMED_UNIT ( * ) SI_UNIT ( $, .STERADIAN. ) SOLID_ANGLE_UNIT ( ) );
#89 = AXIS2_PLACEMENT_3D ( 'NONE', #297, #79, #200 ) ;
#90 = APPROVAL_STATUS ( 'not_yet_approved' ) ;
#91 = EDGE_LOOP ( 'NONE', ( #278 ) ) ;
#92 = VERTEX_POINT ( 'NONE', #65 ) ;
#93 = ORIENTED_EDGE ( 'NONE', *, *, #282, .T. ) ;
#94 = PERSON_AND_ORGANIZATION ( #163, #37 ) ;
#95 = CIRCLE ( 'NONE', #201, 1.114999999999998881 ) ;
#96 = COORDINATED_UNIVERSAL_TIME_OFFSET ( 1, 0, .AHEAD. ) ;
#97 = SECURITY_CLASSIFICATION_LEVEL ( 'unclassified' ) ;
#98 = EDGE_LOOP ( 'NONE', ( #195 ) ) ;
#99 = CC_DESIGN_PERSON_AND_ORGANIZATION_ASSIGNMENT ( #137, #228, ( #106 ) ) ;
#100 = ORIENTED_EDGE ( 'NONE', *, *, #28, .F. ) ;
#101 = FACE_OUTER_BOUND ( 'NONE', #187, .T. ) ;
#102 = PRODUCT_DEFINITION_SHAPE ( 'NONE', 'NONE',  #216 ) ;
#103 = CARTESIAN_POINT ( 'NONE',  ( 2.793185071074506684E-14, 8.361160788339841932E-33, 8.000000000000000000 ) ) ;
#104 = DIRECTION ( 'NONE',  ( 4.275831445896958607E-31, 1.000000000000000000, 1.224646799147353207E-16 ) ) ;
#105 = AXIS2_PLACEMENT_3D ( 'NONE', #270, #225, #176 ) ;
#106 = PRODUCT ( '327065', '327065', '', ( #182 ) ) ;
#107 = ADVANCED_FACE ( 'NONE', ( #12 ), #219, .F. ) ;
#108 = DIRECTION ( 'NONE',  ( 0.0000000000000000000, 1.000000000000000000, 0.0000000000000000000 ) ) ;
#109 = PLANE ( 'NONE',  #17 ) ;
#110 = PLANE ( 'NONE',  #89 ) ;
#111 = AXIS2_PLACEMENT_3D ( 'NONE', #74, #31, #148 ) ;
#112 = EDGE_LOOP ( 'NONE', ( #183 ) ) ;
#113 = APPROVAL_DATE_TIME ( #227, #301 ) ;
#114 =( NAMED_UNIT ( * ) PLANE_ANGLE_UNIT ( ) SI_UNIT ( $, .RADIAN. ) );
#115 = ORIENTED_EDGE ( 'NONE', *, *, #157, .T. ) ;
#116 = EDGE_CURVE ( 'NONE', #272, #272, #179, .T. ) ;
#117 = LOCAL_TIME ( 15, 4, 9.000000000000000000, #119 ) ;
#118 = LOCAL_TIME ( 15, 4, 9.000000000000000000, #96 ) ;
#119 = COORDINATED_UNIVERSAL_TIME_OFFSET ( 1, 0, .AHEAD. ) ;
#120 = CARTESIAN_POINT ( 'NONE',  ( -2.075194476550296695E-31, 7.278802395540365068E-33, -5.943593206309077126E-17 ) ) ;
#121 = APPROVAL_ROLE ( '' ) ;
#122 = SHAPE_DEFINITION_REPRESENTATION ( #102, #255 ) ;
#123 = APPROVAL ( #90, 'UNSPECIFIED' ) ;
#124 = AXIS2_PLACEMENT_3D ( 'NONE', #133, #15, #49 ) ;
#125 = EDGE_LOOP ( 'NONE', ( #260 ) ) ;
#126 = EDGE_LOOP ( 'NONE', ( #8 ) ) ;
#127 = PERSON_AND_ORGANIZATION ( #163, #37 ) ;
#128 = EDGE_LOOP ( 'NONE', ( #93 ) ) ;
#129 = DIRECTION ( 'NONE',  ( 0.0000000000000000000, 1.000000000000000000, 0.0000000000000000000 ) ) ;
#130 = DIRECTION ( 'NONE',  ( -3.491481338843133355E-15, 1.224646799147353207E-16, -1.000000000000000000 ) ) ;
#131 = CARTESIAN_POINT ( 'NONE',  ( 6.284666409917640040E-14, -2.204364238465235428E-15, 18.00000000000000000 ) ) ;
#132 = AXIS2_PLACEMENT_3D ( 'NONE', #247, #290, #38 ) ;
#133 = CARTESIAN_POINT ( 'NONE',  ( 1.735266225405037467E-13, -6.086494591762345225E-15, 49.70000000000000284 ) ) ;
#134 = ADVANCED_FACE ( 'NONE', ( #36 ), #109, .T. ) ;
#135 = CARTESIAN_POINT ( 'NONE',  ( 2.793185071074506684E-14, 8.361160788339841932E-33, 8.000000000000000000 ) ) ;
#136 = AXIS2_PLACEMENT_3D ( 'NONE', #120, #240, #229 ) ;
#137 = PERSON_AND_ORGANIZATION ( #163, #37 ) ;
#138 = EDGE_CURVE ( 'NONE', #87, #87, #215, .T. ) ;
#139 = DIRECTION ( 'NONE',  ( 0.0000000000000000000, 1.000000000000000000, 0.0000000000000000000 ) ) ;
#140 = APPROVAL_ROLE ( '' ) ;
#141 = DIRECTION ( 'NONE',  ( 4.275831445896958607E-31, 1.000000000000000000, 1.224646799147353207E-16 ) ) ;
#142 = EDGE_CURVE ( 'NONE', #44, #44, #226, .T. ) ;
#143 = PERSON_AND_ORGANIZATION_ROLE ( 'design_supplier' ) ;
#144 = AXIS2_PLACEMENT_3D ( 'NONE', #289, #150, #139 ) ;
#145 = CC_DESIGN_APPROVAL ( #80, ( #221 ) ) ;
#146 = PERSON_AND_ORGANIZATION_ROLE ( 'creator' ) ;
#147 = CARTESIAN_POINT ( 'NONE',  ( 1.745740669421566678E-13, -6.123233995736766085E-15, 50.00000000000000000 ) ) ;
#148 = DIRECTION ( 'NONE',  ( -3.454582859887422029E-31, -1.000000000000000000, -1.458567945047765211E-16 ) ) ;
#149 = ADVANCED_FACE ( 'NONE', ( #295, #35 ), #152, .T. ) ;
#150 = DIRECTION ( 'NONE',  ( -3.491481338843133355E-15, 1.224646799147353207E-16, -1.000000000000000000 ) ) ;
#151 = AXIS2_PLACEMENT_3D ( 'NONE', #103, #244, #153 ) ;
#152 = CYLINDRICAL_SURFACE ( 'NONE', #160, 0.9649999999999993028 ) ;
#153 = DIRECTION ( 'NONE',  ( -4.275831445896958607E-31, -1.000000000000000000, -1.224646799147353207E-16 ) ) ;
#154 = DIRECTION ( 'NONE',  ( -3.491481338843133355E-15, 1.224646799147353207E-16, -1.000000000000000000 ) ) ;
#155 = DIRECTION ( 'NONE',  ( 4.275831445896958607E-31, 1.000000000000000000, 1.224646799147353207E-16 ) ) ;
#156 = CONICAL_SURFACE ( 'NONE', #212, 0.9649999999999987477, 0.5235987755982937086 ) ;
#157 = EDGE_CURVE ( 'NONE', #274, #274, #60, .T. ) ;
#158 = DIRECTION ( 'NONE',  ( 0.0000000000000000000, 1.000000000000000000, 0.0000000000000000000 ) ) ;
#159 = CALENDAR_DATE ( 2021, 1, 12 ) ;
#160 = AXIS2_PLACEMENT_3D ( 'NONE', #82, #130, #104 ) ;
#161 = UNCERTAINTY_MEASURE_WITH_UNIT (LENGTH_MEASURE( 1.000000000000000082E-05 ), #203, 'distance_accuracy_value', 'NONE');
#162 = PERSON_AND_ORGANIZATION ( #163, #37 ) ;
#163 = PERSON ( 'UNSPECIFIED', 'UNSPECIFIED', 'UNSPECIFIED', ('UNSPECIFIED'), ('UNSPECIFIED'), ('UNSPECIFIED') ) ;
#164 = DIRECTION ( 'NONE',  ( 4.275831445896958607E-31, 1.000000000000000000, 1.224646799147353454E-16 ) ) ;
#165 = CARTESIAN_POINT ( 'NONE',  ( 0.0000000000000000000, 0.0000000000000000000, 0.0000000000000000000 ) ) ;
#166 = AXIS2_PLACEMENT_3D ( 'NONE', #239, #189, #164 ) ;
#167 = APPROVAL_ROLE ( '' ) ;
#168 = FACE_BOUND ( 'NONE', #53, .T. ) ;
#169 = FACE_BOUND ( 'NONE', #214, .T. ) ;
#170 = APPROVAL_DATE_TIME ( #69, #123 ) ;
#171 = FACE_OUTER_BOUND ( 'NONE', #6, .T. ) ;
#172 = FACE_OUTER_BOUND ( 'NONE', #91, .T. ) ;
#173 = CC_DESIGN_PERSON_AND_ORGANIZATION_ASSIGNMENT ( #211, #188, ( #216 ) ) ;
#174 = AXIS2_PLACEMENT_3D ( 'NONE', #54, #177, #155 ) ;
#175 = CARTESIAN_POINT ( 'NONE',  ( 8.728703347107829444E-16, -3.061616997868381785E-17, 0.2499999999999998890 ) ) ;
#176 = DIRECTION ( 'NONE',  ( 0.0000000000000000000, 1.000000000000000000, 0.0000000000000000000 ) ) ;
#177 = DIRECTION ( 'NONE',  ( -3.491481338843133355E-15, 1.224646799147353207E-16, -1.000000000000000000 ) ) ;
#178 = DIRECTION ( 'NONE',  ( 3.491481338843133355E-15, -1.224646799147353207E-16, 1.000000000000000000 ) ) ;
#179 = CIRCLE ( 'NONE', #105, 0.9649999999999987477 ) ;
#180 = MANIFOLD_SOLID_BREP ( 'Corps-Déplacer/Copier1[1]', #83 ) ;
#181 = CARTESIAN_POINT ( 'NONE',  ( 7.405122260397473388E-14, 1.499999999999994005, 21.20911310054741605 ) ) ;
#182 = MECHANICAL_CONTEXT ( 'NONE', #206, 'mechanical' ) ;
#183 = ORIENTED_EDGE ( 'NONE', *, *, #75, .F. ) ;
#184 = APPROVAL_STATUS ( 'not_yet_approved' ) ;
#185 = AXIS2_PLACEMENT_3D ( 'NONE', #165, #23, #3 ) ;
#186 = VERTEX_POINT ( 'NONE', #207 ) ;
#187 = EDGE_LOOP ( 'NONE', ( #303 ) ) ;
#188 = PERSON_AND_ORGANIZATION_ROLE ( 'creator' ) ;
#189 = DIRECTION ( 'NONE',  ( -3.491481338843133355E-15, 1.224646799147353207E-16, -1.000000000000000000 ) ) ;
#190 = COORDINATED_UNIVERSAL_TIME_OFFSET ( 1, 0, .AHEAD. ) ;
#191 = CIRCLE ( 'NONE', #55, 1.200000000000001732 ) ;
#192 = CC_DESIGN_DATE_AND_TIME_ASSIGNMENT ( #237, #67, ( #221 ) ) ;
#193 = ORIENTED_EDGE ( 'NONE', *, *, #249, .T. ) ;
#194 = APPROVAL_PERSON_ORGANIZATION ( #162, #123, #140 ) ;
#195 = ORIENTED_EDGE ( 'NONE', *, *, #138, .F. ) ;
#196 = ORIENTED_EDGE ( 'NONE', *, *, #75, .T. ) ;
#197 = FACE_OUTER_BOUND ( 'NONE', #217, .T. ) ;
#198 = LOCAL_TIME ( 15, 4, 9.000000000000000000, #4 ) ;
#199 = CARTESIAN_POINT ( 'NONE',  ( 6.405924284287275164E-14, -2.246895775456749140E-15, 18.34729635533384595 ) ) ;
#200 = DIRECTION ( 'NONE',  ( 4.275831445896958607E-31, 1.000000000000000000, 1.224646799147353207E-16 ) ) ;
#201 = AXIS2_PLACEMENT_3D ( 'NONE', #175, #154, #40 ) ;
#202 = DIRECTION ( 'NONE',  ( 4.275831445896959482E-31, 1.000000000000000000, 1.224646799147353207E-16 ) ) ;
#203 =( LENGTH_UNIT ( ) NAMED_UNIT ( * ) SI_UNIT ( .MILLI., .METRE. ) );
#204 = EDGE_LOOP ( 'NONE', ( #9 ) ) ;
#205 = DATE_AND_TIME ( #271, #117 ) ;
#206 = APPLICATION_CONTEXT ( 'configuration controlled 3d designs of mechanical parts and assemblies' ) ;
#207 = CARTESIAN_POINT ( 'NONE',  ( 2.793185071074506684E-14, 1.114999999999998881, 8.000000000000000000 ) ) ;
#208 = APPROVAL_PERSON_ORGANIZATION ( #127, #80, #167 ) ;
#209 = EDGE_LOOP ( 'NONE', ( #115 ) ) ;
#210 = EDGE_LOOP ( 'NONE', ( #273 ) ) ;
#211 = PERSON_AND_ORGANIZATION ( #163, #37 ) ;
#212 = AXIS2_PLACEMENT_3D ( 'NONE', #218, #34, #129 ) ;
#213 = FACE_OUTER_BOUND ( 'NONE', #262, .T. ) ;
#214 = EDGE_LOOP ( 'NONE', ( #238 ) ) ;
#215 = CIRCLE ( 'NONE', #261, 0.9649999999999997469 ) ;
#216 = PRODUCT_DEFINITION ( 'UNKNOWN', '', #22, #43 ) ;
#217 = EDGE_LOOP ( 'NONE', ( #100 ) ) ;
#218 = CARTESIAN_POINT ( 'NONE',  ( 2.883896417162832445E-14, -1.011534696479630343E-15, 8.259807621135337286 ) ) ;
#219 = PLANE ( 'NONE',  #151 ) ;
#220 = AXIS2_PLACEMENT_3D ( 'NONE', #199, #222, #108 ) ;
#221 = SECURITY_CLASSIFICATION ( '', '', #97 ) ;
#222 = DIRECTION ( 'NONE',  ( -3.491481338843133355E-15, 1.224646799147353207E-16, -1.000000000000000000 ) ) ;
#223 = PRODUCT_RELATED_PRODUCT_CATEGORY ( 'detail', '', ( #106 ) ) ;
#224 = FACE_OUTER_BOUND ( 'NONE', #126, .T. ) ;
#225 = DIRECTION ( 'NONE',  ( -3.491481338843133355E-15, 1.224646799147353207E-16, -1.000000000000000000 ) ) ;
#226 = CIRCLE ( 'NONE', #292, 1.499999999999996669 ) ;
#227 = DATE_AND_TIME ( #159, #50 ) ;
#228 = PERSON_AND_ORGANIZATION_ROLE ( 'design_owner' ) ;
#229 = DIRECTION ( 'NONE',  ( -4.275831445896958607E-31, -1.000000000000000000, -1.224646799147353207E-16 ) ) ;
#230 = CARTESIAN_POINT ( 'NONE',  ( 6.284666409917640040E-14, 0.9649999999999975264, 18.00000000000000000 ) ) ;
#231 = ORIENTED_EDGE ( 'NONE', *, *, #116, .F. ) ;
#232 = ADVANCED_FACE ( 'NONE', ( #81 ), #110, .F. ) ;
#233 = APPLICATION_PROTOCOL_DEFINITION ( 'international standard', 'config_control_design', 1994, #206 ) ;
#234 = APPROVAL_STATUS ( 'not_yet_approved' ) ;
#235 = APPROVAL_DATE_TIME ( #259, #80 ) ;
#236 =( GEOMETRIC_REPRESENTATION_CONTEXT ( 3 ) GLOBAL_UNCERTAINTY_ASSIGNED_CONTEXT ( ( #161 ) ) GLOBAL_UNIT_ASSIGNED_CONTEXT ( ( #203, #114, #88 ) ) REPRESENTATION_CONTEXT ( 'NONE', 'WORKASPACE' ) );
#237 = DATE_AND_TIME ( #283, #275 ) ;
#238 = ORIENTED_EDGE ( 'NONE', *, *, #249, .F. ) ;
#239 = CARTESIAN_POINT ( 'NONE',  ( 0.0000000000000000000, 0.0000000000000000000, 0.0000000000000000000 ) ) ;
#240 = DIRECTION ( 'NONE',  ( 3.491481338843133355E-15, -1.224646799147353207E-16, 1.000000000000000000 ) ) ;
#241 = CONICAL_SURFACE ( 'NONE', #84, 1.499999999999996669, 0.1745329251994262032 ) ;
#242 = DIRECTION ( 'NONE',  ( 3.491481338843133355E-15, -1.224646799147353207E-16, 1.000000000000000000 ) ) ;
#243 = DIRECTION ( 'NONE',  ( -3.491481338843133355E-15, 1.224646799147353207E-16, -1.000000000000000000 ) ) ;
#244 = DIRECTION ( 'NONE',  ( 3.491481338843133355E-15, -1.224646799147353207E-16, 1.000000000000000000 ) ) ;
#245 = CC_DESIGN_DATE_AND_TIME_ASSIGNMENT ( #205, #300, ( #216 ) ) ;
#246 = APPROVAL_PERSON_ORGANIZATION ( #46, #301, #121 ) ;
#247 = CARTESIAN_POINT ( 'NONE',  ( 2.793185071074506684E-14, -9.797174393178825657E-16, 8.000000000000000000 ) ) ;
#248 = DIRECTION ( 'NONE',  ( 0.0000000000000000000, 1.000000000000000000, 0.0000000000000000000 ) ) ;
#249 = EDGE_CURVE ( 'NONE', #250, #250, #78, .T. ) ;
#250 = VERTEX_POINT ( 'NONE', #41 ) ;
#251 = CLOSED_SHELL ( 'NONE', ( #39, #7, #33, #134 ) ) ;
#252 = VERTEX_POINT ( 'NONE', #25 ) ;
#253 = ADVANCED_FACE ( 'NONE', ( #85, #268 ), #269, .F. ) ;
#254 = CYLINDRICAL_SURFACE ( 'NONE', #32, 1.114999999999999325 ) ;
#255 = ADVANCED_BREP_SHAPE_REPRESENTATION ( '327065', ( #180, #285, #185 ), #236 ) ;
#256 = CONICAL_SURFACE ( 'NONE', #111, 1.114999999999998881, 0.5235987755982927094 ) ;
#257 = PERSON_AND_ORGANIZATION ( #163, #37 ) ;
#258 = CC_DESIGN_PERSON_AND_ORGANIZATION_ASSIGNMENT ( #257, #143, ( #22 ) ) ;
#259 = DATE_AND_TIME ( #52, #118 ) ;
#260 = ORIENTED_EDGE ( 'NONE', *, *, #287, .T. ) ;
#261 = AXIS2_PLACEMENT_3D ( 'NONE', #131, #243, #267 ) ;
#262 = EDGE_LOOP ( 'NONE', ( #27 ) ) ;
#263 = PLANE ( 'NONE',  #136 ) ;
#264 = FACE_BOUND ( 'NONE', #2, .T. ) ;
#265 = CC_DESIGN_APPROVAL ( #123, ( #22 ) ) ;
#266 = FACE_BOUND ( 'NONE', #210, .T. ) ;
#267 = DIRECTION ( 'NONE',  ( 0.0000000000000000000, 1.000000000000000000, 0.0000000000000000000 ) ) ;
#268 = FACE_OUTER_BOUND ( 'NONE', #209, .T. ) ;
#269 = TOROIDAL_SURFACE ( 'NONE', #174, 2.965000000000000302, 2.000000000000000444 ) ;
#270 = CARTESIAN_POINT ( 'NONE',  ( 2.883896417162832445E-14, -1.011534696479630343E-15, 8.259807621135337286 ) ) ;
#271 = CALENDAR_DATE ( 2021, 1, 12 ) ;
#272 = VERTEX_POINT ( 'NONE', #279 ) ;
#273 = ORIENTED_EDGE ( 'NONE', *, *, #157, .F. ) ;
#274 = VERTEX_POINT ( 'NONE', #64 ) ;
#275 = LOCAL_TIME ( 15, 4, 9.000000000000000000, #190 ) ;
#276 = ADVANCED_FACE ( 'NONE', ( #197, #264 ), #156, .T. ) ;
#277 = APPLICATION_PROTOCOL_DEFINITION ( 'international standard', 'config_control_design', 1994, #30 ) ;
#278 = ORIENTED_EDGE ( 'NONE', *, *, #142, .F. ) ;
#279 = CARTESIAN_POINT ( 'NONE',  ( 2.883896417162832445E-14, 0.9649999999999977485, 8.259807621135337286 ) ) ;
#280 = FACE_OUTER_BOUND ( 'NONE', #66, .T. ) ;
#281 = CIRCLE ( 'NONE', #144, 1.114999999999999991 ) ;
#282 = EDGE_CURVE ( 'NONE', #186, #186, #302, .T. ) ;
#283 = CALENDAR_DATE ( 2021, 1, 12 ) ;
#284 = CALENDAR_DATE ( 2021, 1, 12 ) ;
#285 = MANIFOLD_SOLID_BREP ( 'Corps-Déplacer/Copier1[2]', #251 ) ;
#286 = ORIENTED_EDGE ( 'NONE', *, *, #138, .T. ) ;
#287 = EDGE_CURVE ( 'NONE', #62, #62, #48, .T. ) ;
#288 = FACE_OUTER_BOUND ( 'NONE', #128, .T. ) ;
#289 = CARTESIAN_POINT ( 'NONE',  ( 2.793185071074506684E-14, -9.797174393178825657E-16, 8.000000000000000000 ) ) ;
#290 = DIRECTION ( 'NONE',  ( -3.491481338843133355E-15, 1.224646799147353207E-16, -1.000000000000000000 ) ) ;
#291 = CC_DESIGN_PERSON_AND_ORGANIZATION_ASSIGNMENT ( #71, #26, ( #221 ) ) ;
#292 = AXIS2_PLACEMENT_3D ( 'NONE', #16, #294, #58 ) ;
#293 = DIRECTION ( 'NONE',  ( -3.491481338843133355E-15, 1.224646799147353207E-16, -1.000000000000000000 ) ) ;
#294 = DIRECTION ( 'NONE',  ( -3.491481338843133355E-15, 1.224646799147353207E-16, -1.000000000000000000 ) ) ;
#295 = FACE_OUTER_BOUND ( 'NONE', #299, .T. ) ;
#296 = CONICAL_SURFACE ( 'NONE', #42, 1.200000000000001732, 0.7853981633974453924 ) ;
#297 = CARTESIAN_POINT ( 'NONE',  ( 1.745740669421566678E-13, 8.998558695971067645E-33, 50.00000000000000000 ) ) ;
#298 = CARTESIAN_POINT ( 'NONE',  ( 2.793185071074506684E-14, 1.114999999999998881, 8.000000000000000000 ) ) ;
#299 = EDGE_LOOP ( 'NONE', ( #231 ) ) ;
#300 = DATE_TIME_ROLE ( 'creation_date' ) ;
#301 = APPROVAL ( #184, 'UNSPECIFIED' ) ;
#302 = CIRCLE ( 'NONE', #132, 1.114999999999999991 ) ;
#303 = ORIENTED_EDGE ( 'NONE', *, *, #86, .T. ) ;
ENDSEC;
END-ISO-10303-21;
